ISO-10303-21;
HEADER;
FILE_DESCRIPTION( ( '' ), '1' );
FILE_NAME( 'C:/Users/Bollwitte/Desktop/987/K0142.11505.stp', '2012-11-01T09:45:30', ( '' ), ( '' ), ' ', ' ', ' ' );
FILE_SCHEMA( ( 'CONFIG_CONTROL_DESIGN' ) );
ENDSEC;
DATA;
#1 = DESIGN_CONTEXT( '', #27, 'design' );
#2 = APPLICATION_PROTOCOL_DEFINITION( 'INTERNATIONAL STANDARD', 'config_control_design', 1994, #27 );
#3 = PRODUCT_CATEGORY_RELATIONSHIP( 'NONE', 'NONE', #28, #29 );
#4 = DATE_AND_TIME( #30, #31 );
#5 = DATE_TIME_ROLE( 'creation_date' );
#6 = DATE_TIME_ROLE( 'classification_date' );
#7 = PERSON_AND_ORGANIZATION_ROLE( 'creator' );
#8 = PERSON_AND_ORGANIZATION_ROLE( 'design_supplier' );
#9 = PERSON_AND_ORGANIZATION_ROLE( 'classification_officer' );
#10 = PERSON_AND_ORGANIZATION_ROLE( 'design_owner' );
#11 = APPROVAL_PERSON_ORGANIZATION( #32, #33, #34 );
#12 = APPROVAL_DATE_TIME( #4, #33 );
#13 = CC_DESIGN_APPROVAL( #33, ( #35, #36, #37 ) );
#14 = CC_DESIGN_DATE_AND_TIME_ASSIGNMENT( #4, #5, ( #37 ) );
#15 = CC_DESIGN_DATE_AND_TIME_ASSIGNMENT( #4, #6, ( #35 ) );
#16 = CC_DESIGN_PERSON_AND_ORGANIZATION_ASSIGNMENT( #32, #10, ( #38 ) );
#17 = CC_DESIGN_PERSON_AND_ORGANIZATION_ASSIGNMENT( #32, #7, ( #37 ) );
#18 = CC_DESIGN_PERSON_AND_ORGANIZATION_ASSIGNMENT( #32, #7, ( #36 ) );
#19 = CC_DESIGN_PERSON_AND_ORGANIZATION_ASSIGNMENT( #32, #8, ( #36 ) );
#20 = CC_DESIGN_SECURITY_CLASSIFICATION( #35, ( #36 ) );
#21 = CC_DESIGN_PERSON_AND_ORGANIZATION_ASSIGNMENT( #32, #9, ( #35 ) );
#22 = SHAPE_DEFINITION_REPRESENTATION( #39, #40 );
#23 =  ( GEOMETRIC_REPRESENTATION_CONTEXT( 3 )GLOBAL_UNCERTAINTY_ASSIGNED_CONTEXT( ( #43 ) )GLOBAL_UNIT_ASSIGNED_CONTEXT( ( #45, #46, #47 ) )REPRESENTATION_CONTEXT( 'NONE', 'WORKSPACE' ) );
#27 = APPLICATION_CONTEXT( 'CONFIGURATION CONTROLLED 3D DESIGNS OF MECHANICAL PARTS AND ASSEMBLIES' );
#28 = PRODUCT_CATEGORY( 'part', 'NONE' );
#29 = PRODUCT_RELATED_PRODUCT_CATEGORY( 'detail', ' ', ( #38 ) );
#30 = CALENDAR_DATE( 2012, 1, 10 );
#31 = LOCAL_TIME( 10, 45, 30.0000000000000, #49 );
#32 = PERSON_AND_ORGANIZATION( #50, #51 );
#33 = APPROVAL( #52, 'SOLID MODEL' );
#34 = APPROVAL_ROLE( 'APPROVED' );
#35 = SECURITY_CLASSIFICATION( '', '', #53 );
#36 = PRODUCT_DEFINITION_FORMATION_WITH_SPECIFIED_SOURCE( ' ', 'NONE', #38, .NOT_KNOWN. );
#37 = PRODUCT_DEFINITION( 'NONE', 'NONE', #36, #1 );
#38 = PRODUCT( '1', '1', 'PART-1-DESC', ( #54 ) );
#39 = PRODUCT_DEFINITION_SHAPE( 'NONE', 'NONE', #37 );
#40 = ADVANCED_BREP_SHAPE_REPRESENTATION( '1', ( #55, #56 ), #23 );
#43 = UNCERTAINTY_MEASURE_WITH_UNIT( LENGTH_MEASURE( 1.00000000000000E-006 ), #45, '', '' );
#45 =  ( CONVERSION_BASED_UNIT( 'MILLIMETRE', #59 )LENGTH_UNIT(  )NAMED_UNIT( #62 ) );
#46 =  ( NAMED_UNIT( #64 )PLANE_ANGLE_UNIT(  )SI_UNIT( $, .RADIAN. ) );
#47 =  ( NAMED_UNIT( #64 )SOLID_ANGLE_UNIT(  )SI_UNIT( $, .STERADIAN. ) );
#49 = COORDINATED_UNIVERSAL_TIME_OFFSET( 1, 0, .AHEAD. );
#50 = PERSON( '', 'UNSPECIFIED', $, $, $, $ );
#51 = ORGANIZATION( 'UNSPECIFIED', 'UNSPECIFIED', 'UNSPECIFIED' );
#52 = APPROVAL_STATUS( 'approved' );
#53 = SECURITY_CLASSIFICATION_LEVEL( 'unclassified' );
#54 = MECHANICAL_CONTEXT( '', #27, 'mechanical' );
#55 = MANIFOLD_SOLID_BREP( '1', #70 );
#56 = AXIS2_PLACEMENT_3D( '', #71, #72, #73 );
#59 = LENGTH_MEASURE_WITH_UNIT( LENGTH_MEASURE( 1.00000000000000 ), #74 );
#62 = DIMENSIONAL_EXPONENTS( 1.00000000000000, 0.000000000000000, 0.000000000000000, 0.000000000000000, 0.000000000000000, 0.000000000000000, 0.000000000000000 );
#64 = DIMENSIONAL_EXPONENTS( 0.000000000000000, 0.000000000000000, 0.000000000000000, 0.000000000000000, 0.000000000000000, 0.000000000000000, 0.000000000000000 );
#70 = CLOSED_SHELL( '', ( #75, #76, #77, #78, #79, #80, #81, #82, #83, #84, #85, #86, #87, #88, #89, #90 ) );
#71 = CARTESIAN_POINT( '', ( 0.000000000000000, 0.000000000000000, 0.000000000000000 ) );
#72 = DIRECTION( '', ( 0.000000000000000, 0.000000000000000, 1.00000000000000 ) );
#73 = DIRECTION( '', ( 1.00000000000000, 0.000000000000000, 0.000000000000000 ) );
#74 =  ( NAMED_UNIT( #62 )LENGTH_UNIT(  )SI_UNIT( .MILLI., .METRE. ) );
#75 = ADVANCED_FACE( '', ( #92 ), #93, .T. );
#76 = ADVANCED_FACE( '', ( #94 ), #95, .T. );
#77 = ADVANCED_FACE( '', ( #96 ), #97, .T. );
#78 = ADVANCED_FACE( '', ( #98 ), #99, .T. );
#79 = ADVANCED_FACE( '', ( #100 ), #101, .F. );
#80 = ADVANCED_FACE( '', ( #102 ), #103, .F. );
#81 = ADVANCED_FACE( '', ( #104 ), #105, .F. );
#82 = ADVANCED_FACE( '', ( #106 ), #107, .F. );
#83 = ADVANCED_FACE( '', ( #108 ), #109, .F. );
#84 = ADVANCED_FACE( '', ( #110 ), #111, .F. );
#85 = ADVANCED_FACE( '', ( #112, #113 ), #114, .T. );
#86 = ADVANCED_FACE( '', ( #115 ), #116, .T. );
#87 = ADVANCED_FACE( '', ( #117 ), #118, .T. );
#88 = ADVANCED_FACE( '', ( #119 ), #120, .T. );
#89 = ADVANCED_FACE( '', ( #121 ), #122, .T. );
#90 = ADVANCED_FACE( '', ( #123 ), #124, .T. );
#92 = FACE_OUTER_BOUND( '', #125, .T. );
#93 = CONICAL_SURFACE( '', #126, 6.75000000000000, 0.785398163397448 );
#94 = FACE_OUTER_BOUND( '', #127, .T. );
#95 = CYLINDRICAL_SURFACE( '', #128, 7.50000000000000 );
#96 = FACE_OUTER_BOUND( '', #129, .T. );
#97 = CONICAL_SURFACE( '', #130, 6.75000000000000, 0.785398163397448 );
#98 = FACE_OUTER_BOUND( '', #131, .T. );
#99 = CYLINDRICAL_SURFACE( '', #132, 6.00000000000000 );
#100 = FACE_OUTER_BOUND( '', #133, .T. );
#101 = CONICAL_SURFACE( '', #134, 1.03350000000000, 1.04719755119660 );
#102 = FACE_OUTER_BOUND( '', #135, .T. );
#103 = CYLINDRICAL_SURFACE( '', #136, 2.06700000000000 );
#104 = FACE_OUTER_BOUND( '', #137, .T. );
#105 = CONICAL_SURFACE( '', #138, 2.28350000000000, 0.785398163397448 );
#106 = FACE_OUTER_BOUND( '', #139, .T. );
#107 = CONICAL_SURFACE( '', #140, 2.28350000000000, 0.785398163397448 );
#108 = FACE_OUTER_BOUND( '', #141, .T. );
#109 = CYLINDRICAL_SURFACE( '', #142, 2.06700000000000 );
#110 = FACE_OUTER_BOUND( '', #143, .T. );
#111 = CONICAL_SURFACE( '', #144, 1.03350000000000, 1.04719755119660 );
#112 = FACE_BOUND( '', #145, .T. );
#113 = FACE_OUTER_BOUND( '', #146, .T. );
#114 = PLANE( '', #147 );
#115 = FACE_OUTER_BOUND( '', #148, .T. );
#116 = CYLINDRICAL_SURFACE( '', #149, 6.00000000000000 );
#117 = FACE_OUTER_BOUND( '', #150, .T. );
#118 = CONICAL_SURFACE( '', #151, 6.75000000000000, 0.785398163397448 );
#119 = FACE_OUTER_BOUND( '', #152, .T. );
#120 = CYLINDRICAL_SURFACE( '', #153, 7.50000000000000 );
#121 = FACE_OUTER_BOUND( '', #154, .T. );
#122 = CONICAL_SURFACE( '', #155, 6.75000000000000, 0.785398163397448 );
#123 = FACE_OUTER_BOUND( '', #156, .T. );
#124 = PLANE( '', #157 );
#125 = EDGE_LOOP( '', ( #158, #159, #160, #161 ) );
#126 = AXIS2_PLACEMENT_3D( '', #162, #163, #164 );
#127 = EDGE_LOOP( '', ( #165, #166, #167, #168 ) );
#128 = AXIS2_PLACEMENT_3D( '', #169, #170, #171 );
#129 = EDGE_LOOP( '', ( #172, #173, #174, #175 ) );
#130 = AXIS2_PLACEMENT_3D( '', #176, #177, #178 );
#131 = EDGE_LOOP( '', ( #179, #180, #181, #182 ) );
#132 = AXIS2_PLACEMENT_3D( '', #183, #184, #185 );
#133 = EDGE_LOOP( '', ( #186, #187, #188 ) );
#134 = AXIS2_PLACEMENT_3D( '', #189, #190, #191 );
#135 = EDGE_LOOP( '', ( #192, #193, #194, #195 ) );
#136 = AXIS2_PLACEMENT_3D( '', #196, #197, #198 );
#137 = EDGE_LOOP( '', ( #199, #200, #201, #202 ) );
#138 = AXIS2_PLACEMENT_3D( '', #203, #204, #205 );
#139 = EDGE_LOOP( '', ( #206, #207, #208, #209 ) );
#140 = AXIS2_PLACEMENT_3D( '', #210, #211, #212 );
#141 = EDGE_LOOP( '', ( #213, #214, #215, #216 ) );
#142 = AXIS2_PLACEMENT_3D( '', #217, #218, #219 );
#143 = EDGE_LOOP( '', ( #220, #221, #222 ) );
#144 = AXIS2_PLACEMENT_3D( '', #223, #224, #225 );
#145 = EDGE_LOOP( '', ( #226, #227 ) );
#146 = EDGE_LOOP( '', ( #228, #229 ) );
#147 = AXIS2_PLACEMENT_3D( '', #230, #231, #232 );
#148 = EDGE_LOOP( '', ( #233, #234, #235, #236 ) );
#149 = AXIS2_PLACEMENT_3D( '', #237, #238, #239 );
#150 = EDGE_LOOP( '', ( #240, #241, #242, #243 ) );
#151 = AXIS2_PLACEMENT_3D( '', #244, #245, #246 );
#152 = EDGE_LOOP( '', ( #247, #248, #249, #250 ) );
#153 = AXIS2_PLACEMENT_3D( '', #251, #252, #253 );
#154 = EDGE_LOOP( '', ( #254, #255, #256, #257 ) );
#155 = AXIS2_PLACEMENT_3D( '', #258, #259, #260 );
#156 = EDGE_LOOP( '', ( #261, #262 ) );
#157 = AXIS2_PLACEMENT_3D( '', #263, #264, #265 );
#158 = ORIENTED_EDGE( '', *, *, #266, .F. );
#159 = ORIENTED_EDGE( '', *, *, #267, .T. );
#160 = ORIENTED_EDGE( '', *, *, #268, .F. );
#161 = ORIENTED_EDGE( '', *, *, #269, .F. );
#162 = CARTESIAN_POINT( '', ( 0.000000000000000, 14.7500000000000, 0.000000000000000 ) );
#163 = DIRECTION( '', ( -0.000000000000000, -1.00000000000000, -0.000000000000000 ) );
#164 = DIRECTION( '', ( 1.00000000000000, 0.000000000000000, -2.44921270764475E-016 ) );
#165 = ORIENTED_EDGE( '', *, *, #270, .F. );
#166 = ORIENTED_EDGE( '', *, *, #271, .T. );
#167 = ORIENTED_EDGE( '', *, *, #272, .F. );
#168 = ORIENTED_EDGE( '', *, *, #267, .F. );
#169 = CARTESIAN_POINT( '', ( 0.000000000000000, 11.2500000000000, 0.000000000000000 ) );
#170 = DIRECTION( '', ( -0.000000000000000, -1.00000000000000, -0.000000000000000 ) );
#171 = DIRECTION( '', ( 1.00000000000000, 0.000000000000000, -2.44921270764475E-016 ) );
#172 = ORIENTED_EDGE( '', *, *, #273, .F. );
#173 = ORIENTED_EDGE( '', *, *, #274, .T. );
#174 = ORIENTED_EDGE( '', *, *, #275, .F. );
#175 = ORIENTED_EDGE( '', *, *, #271, .F. );
#176 = CARTESIAN_POINT( '', ( 0.000000000000000, 7.75000000000000, 0.000000000000000 ) );
#177 = DIRECTION( '', ( -0.000000000000000, 1.00000000000000, 0.000000000000000 ) );
#178 = DIRECTION( '', ( 1.00000000000000, 0.000000000000000, -2.44921270764475E-016 ) );
#179 = ORIENTED_EDGE( '', *, *, #276, .F. );
#180 = ORIENTED_EDGE( '', *, *, #277, .T. );
#181 = ORIENTED_EDGE( '', *, *, #278, .F. );
#182 = ORIENTED_EDGE( '', *, *, #274, .F. );
#183 = CARTESIAN_POINT( '', ( 0.000000000000000, 3.50000000000000, 0.000000000000000 ) );
#184 = DIRECTION( '', ( -0.000000000000000, -1.00000000000000, -0.000000000000000 ) );
#185 = DIRECTION( '', ( 1.00000000000000, 0.000000000000000, -2.44921270764475E-016 ) );
#186 = ORIENTED_EDGE( '', *, *, #279, .T. );
#187 = ORIENTED_EDGE( '', *, *, #280, .T. );
#188 = ORIENTED_EDGE( '', *, *, #281, .F. );
#189 = CARTESIAN_POINT( '', ( 0.000000000000000, 11.5966915032075, 0.000000000000000 ) );
#190 = DIRECTION( '', ( -0.000000000000000, -1.00000000000000, -0.000000000000000 ) );
#191 = DIRECTION( '', ( 1.00000000000000, 0.000000000000000, -2.44921270764475E-016 ) );
#192 = ORIENTED_EDGE( '', *, *, #282, .F. );
#193 = ORIENTED_EDGE( '', *, *, #283, .T. );
#194 = ORIENTED_EDGE( '', *, *, #284, .F. );
#195 = ORIENTED_EDGE( '', *, *, #285, .F. );
#196 = CARTESIAN_POINT( '', ( 0.000000000000000, 5.71650000000000, 0.000000000000000 ) );
#197 = DIRECTION( '', ( -0.000000000000000, -1.00000000000000, -0.000000000000000 ) );
#198 = DIRECTION( '', ( 1.00000000000000, 0.000000000000000, -2.44921270764475E-016 ) );
#199 = ORIENTED_EDGE( '', *, *, #286, .F. );
#200 = ORIENTED_EDGE( '', *, *, #285, .T. );
#201 = ORIENTED_EDGE( '', *, *, #287, .F. );
#202 = ORIENTED_EDGE( '', *, *, #288, .F. );
#203 = CARTESIAN_POINT( '', ( 0.000000000000000, 0.216500000000000, 0.000000000000000 ) );
#204 = DIRECTION( '', ( -0.000000000000000, -1.00000000000000, -0.000000000000000 ) );
#205 = DIRECTION( '', ( 1.00000000000000, 0.000000000000000, -2.44921270764475E-016 ) );
#206 = ORIENTED_EDGE( '', *, *, #286, .T. );
#207 = ORIENTED_EDGE( '', *, *, #289, .F. );
#208 = ORIENTED_EDGE( '', *, *, #287, .T. );
#209 = ORIENTED_EDGE( '', *, *, #290, .T. );
#210 = CARTESIAN_POINT( '', ( 0.000000000000000, 0.216500000000000, 0.000000000000000 ) );
#211 = DIRECTION( '', ( -0.000000000000000, -1.00000000000000, -0.000000000000000 ) );
#212 = DIRECTION( '', ( 1.00000000000000, 0.000000000000000, -2.44921270764475E-016 ) );
#213 = ORIENTED_EDGE( '', *, *, #282, .T. );
#214 = ORIENTED_EDGE( '', *, *, #290, .F. );
#215 = ORIENTED_EDGE( '', *, *, #284, .T. );
#216 = ORIENTED_EDGE( '', *, *, #281, .T. );
#217 = CARTESIAN_POINT( '', ( 0.000000000000000, 5.71650000000000, 0.000000000000000 ) );
#218 = DIRECTION( '', ( -0.000000000000000, -1.00000000000000, -0.000000000000000 ) );
#219 = DIRECTION( '', ( 1.00000000000000, 0.000000000000000, -2.44921270764475E-016 ) );
#220 = ORIENTED_EDGE( '', *, *, #279, .F. );
#221 = ORIENTED_EDGE( '', *, *, #283, .F. );
#222 = ORIENTED_EDGE( '', *, *, #280, .F. );
#223 = CARTESIAN_POINT( '', ( 0.000000000000000, 11.5966915032075, 0.000000000000000 ) );
#224 = DIRECTION( '', ( -0.000000000000000, -1.00000000000000, -0.000000000000000 ) );
#225 = DIRECTION( '', ( 1.00000000000000, 0.000000000000000, -2.44921270764475E-016 ) );
#226 = ORIENTED_EDGE( '', *, *, #288, .T. );
#227 = ORIENTED_EDGE( '', *, *, #289, .T. );
#228 = ORIENTED_EDGE( '', *, *, #277, .F. );
#229 = ORIENTED_EDGE( '', *, *, #291, .F. );
#230 = CARTESIAN_POINT( '', ( 3.00000000000000, 0.000000000000000, -7.34763812293426E-016 ) );
#231 = DIRECTION( '', ( -0.000000000000000, -1.00000000000000, 0.000000000000000 ) );
#232 = DIRECTION( '', ( -1.00000000000000, 0.000000000000000, 2.44921270764475E-016 ) );
#233 = ORIENTED_EDGE( '', *, *, #276, .T. );
#234 = ORIENTED_EDGE( '', *, *, #292, .F. );
#235 = ORIENTED_EDGE( '', *, *, #278, .T. );
#236 = ORIENTED_EDGE( '', *, *, #291, .T. );
#237 = CARTESIAN_POINT( '', ( 0.000000000000000, 3.50000000000000, 0.000000000000000 ) );
#238 = DIRECTION( '', ( -0.000000000000000, -1.00000000000000, -0.000000000000000 ) );
#239 = DIRECTION( '', ( 1.00000000000000, 0.000000000000000, -2.44921270764475E-016 ) );
#240 = ORIENTED_EDGE( '', *, *, #273, .T. );
#241 = ORIENTED_EDGE( '', *, *, #293, .F. );
#242 = ORIENTED_EDGE( '', *, *, #275, .T. );
#243 = ORIENTED_EDGE( '', *, *, #292, .T. );
#244 = CARTESIAN_POINT( '', ( 0.000000000000000, 7.75000000000000, 0.000000000000000 ) );
#245 = DIRECTION( '', ( -0.000000000000000, 1.00000000000000, 0.000000000000000 ) );
#246 = DIRECTION( '', ( 1.00000000000000, 0.000000000000000, -2.44921270764475E-016 ) );
#247 = ORIENTED_EDGE( '', *, *, #270, .T. );
#248 = ORIENTED_EDGE( '', *, *, #294, .F. );
#249 = ORIENTED_EDGE( '', *, *, #272, .T. );
#250 = ORIENTED_EDGE( '', *, *, #293, .T. );
#251 = CARTESIAN_POINT( '', ( 0.000000000000000, 11.2500000000000, 0.000000000000000 ) );
#252 = DIRECTION( '', ( -0.000000000000000, -1.00000000000000, -0.000000000000000 ) );
#253 = DIRECTION( '', ( 1.00000000000000, 0.000000000000000, -2.44921270764475E-016 ) );
#254 = ORIENTED_EDGE( '', *, *, #266, .T. );
#255 = ORIENTED_EDGE( '', *, *, #295, .F. );
#256 = ORIENTED_EDGE( '', *, *, #268, .T. );
#257 = ORIENTED_EDGE( '', *, *, #294, .T. );
#258 = CARTESIAN_POINT( '', ( 0.000000000000000, 14.7500000000000, 0.000000000000000 ) );
#259 = DIRECTION( '', ( -0.000000000000000, -1.00000000000000, -0.000000000000000 ) );
#260 = DIRECTION( '', ( 1.00000000000000, 0.000000000000000, -2.44921270764475E-016 ) );
#261 = ORIENTED_EDGE( '', *, *, #269, .T. );
#262 = ORIENTED_EDGE( '', *, *, #295, .T. );
#263 = CARTESIAN_POINT( '', ( 3.00000000000000, 15.5000000000000, -7.34763812293426E-016 ) );
#264 = DIRECTION( '', ( 0.000000000000000, 1.00000000000000, 0.000000000000000 ) );
#265 = DIRECTION( '', ( 1.00000000000000, 0.000000000000000, -2.44921270764475E-016 ) );
#266 = EDGE_CURVE( '', #296, #297, #298, .T. );
#267 = EDGE_CURVE( '', #296, #299, #300, .T. );
#268 = EDGE_CURVE( '', #301, #299, #302, .T. );
#269 = EDGE_CURVE( '', #297, #301, #303, .T. );
#270 = EDGE_CURVE( '', #304, #296, #305, .T. );
#271 = EDGE_CURVE( '', #304, #306, #307, .T. );
#272 = EDGE_CURVE( '', #299, #306, #308, .T. );
#273 = EDGE_CURVE( '', #309, #304, #310, .T. );
#274 = EDGE_CURVE( '', #309, #311, #312, .T. );
#275 = EDGE_CURVE( '', #306, #311, #313, .T. );
#276 = EDGE_CURVE( '', #314, #309, #315, .T. );
#277 = EDGE_CURVE( '', #314, #316, #317, .T. );
#278 = EDGE_CURVE( '', #311, #316, #318, .T. );
#279 = EDGE_CURVE( '', #319, #320, #321, .T. );
#280 = EDGE_CURVE( '', #320, #322, #323, .T. );
#281 = EDGE_CURVE( '', #319, #322, #324, .T. );
#282 = EDGE_CURVE( '', #322, #325, #326, .T. );
#283 = EDGE_CURVE( '', #322, #319, #327, .T. );
#284 = EDGE_CURVE( '', #328, #319, #329, .T. );
#285 = EDGE_CURVE( '', #325, #328, #330, .T. );
#286 = EDGE_CURVE( '', #325, #331, #332, .T. );
#287 = EDGE_CURVE( '', #333, #328, #334, .T. );
#288 = EDGE_CURVE( '', #331, #333, #335, .T. );
#289 = EDGE_CURVE( '', #333, #331, #336, .T. );
#290 = EDGE_CURVE( '', #328, #325, #337, .T. );
#291 = EDGE_CURVE( '', #316, #314, #338, .T. );
#292 = EDGE_CURVE( '', #311, #309, #339, .T. );
#293 = EDGE_CURVE( '', #306, #304, #340, .T. );
#294 = EDGE_CURVE( '', #299, #296, #341, .T. );
#295 = EDGE_CURVE( '', #301, #297, #342, .T. );
#296 = VERTEX_POINT( '', #343 );
#297 = VERTEX_POINT( '', #344 );
#298 = LINE( '', #345, #346 );
#299 = VERTEX_POINT( '', #347 );
#300 = CIRCLE( '', #348, 7.50000000000000 );
#301 = VERTEX_POINT( '', #349 );
#302 = LINE( '', #350, #351 );
#303 = CIRCLE( '', #352, 6.00000000000000 );
#304 = VERTEX_POINT( '', #353 );
#305 = LINE( '', #354, #355 );
#306 = VERTEX_POINT( '', #356 );
#307 = CIRCLE( '', #357, 7.50000000000000 );
#308 = LINE( '', #358, #359 );
#309 = VERTEX_POINT( '', #360 );
#310 = LINE( '', #361, #362 );
#311 = VERTEX_POINT( '', #363 );
#312 = CIRCLE( '', #364, 6.00000000000000 );
#313 = LINE( '', #365, #366 );
#314 = VERTEX_POINT( '', #367 );
#315 = LINE( '', #368, #369 );
#316 = VERTEX_POINT( '', #370 );
#317 = CIRCLE( '', #371, 6.00000000000000 );
#318 = LINE( '', #372, #373 );
#319 = VERTEX_POINT( '', #374 );
#320 = VERTEX_POINT( '', #375 );
#321 = LINE( '', #376, #377 );
#322 = VERTEX_POINT( '', #378 );
#323 = LINE( '', #379, #380 );
#324 = CIRCLE( '', #381, 2.06700000000000 );
#325 = VERTEX_POINT( '', #382 );
#326 = LINE( '', #383, #384 );
#327 = CIRCLE( '', #385, 2.06700000000000 );
#328 = VERTEX_POINT( '', #386 );
#329 = LINE( '', #387, #388 );
#330 = CIRCLE( '', #389, 2.06700000000000 );
#331 = VERTEX_POINT( '', #390 );
#332 = LINE( '', #391, #392 );
#333 = VERTEX_POINT( '', #393 );
#334 = LINE( '', #394, #395 );
#335 = CIRCLE( '', #396, 2.50000000000000 );
#336 = CIRCLE( '', #397, 2.50000000000000 );
#337 = CIRCLE( '', #398, 2.06700000000000 );
#338 = CIRCLE( '', #399, 6.00000000000000 );
#339 = CIRCLE( '', #400, 6.00000000000000 );
#340 = CIRCLE( '', #401, 7.50000000000000 );
#341 = CIRCLE( '', #402, 7.50000000000000 );
#342 = CIRCLE( '', #403, 6.00000000000000 );
#343 = CARTESIAN_POINT( '', ( 7.50000000000000, 14.0000000000000, -1.83690953073357E-015 ) );
#344 = CARTESIAN_POINT( '', ( 6.00000000000000, 15.5000000000000, -1.46952762458685E-015 ) );
#345 = CARTESIAN_POINT( '', ( 6.75000000000000, 14.7500000000000, -8.26609288830105E-016 ) );
#346 = VECTOR( '', #404, 1.00000000000000 );
#347 = CARTESIAN_POINT( '', ( -7.50000000000000, 14.0000000000000, 9.18454765366783E-016 ) );
#348 = AXIS2_PLACEMENT_3D( '', #405, #406, #407 );
#349 = CARTESIAN_POINT( '', ( -6.00000000000000, 15.5000000000000, 7.34763812293426E-016 ) );
#350 = CARTESIAN_POINT( '', ( -6.75000000000000, 14.7500000000000, 8.26609288830105E-016 ) );
#351 = VECTOR( '', #408, 1.00000000000000 );
#352 = AXIS2_PLACEMENT_3D( '', #409, #410, #411 );
#353 = CARTESIAN_POINT( '', ( 7.50000000000000, 8.50000000000000, -1.83690953073357E-015 ) );
#354 = CARTESIAN_POINT( '', ( 7.50000000000000, 11.2500000000000, -9.18454765366783E-016 ) );
#355 = VECTOR( '', #412, 1.00000000000000 );
#356 = CARTESIAN_POINT( '', ( -7.50000000000000, 8.50000000000000, 9.18454765366783E-016 ) );
#357 = AXIS2_PLACEMENT_3D( '', #413, #414, #415 );
#358 = CARTESIAN_POINT( '', ( -7.50000000000000, 11.2500000000000, 9.18454765366783E-016 ) );
#359 = VECTOR( '', #416, 1.00000000000000 );
#360 = CARTESIAN_POINT( '', ( 6.00000000000000, 7.00000000000000, -1.46952762458685E-015 ) );
#361 = CARTESIAN_POINT( '', ( 6.75000000000000, 7.75000000000000, -8.26609288830105E-016 ) );
#362 = VECTOR( '', #417, 1.00000000000000 );
#363 = CARTESIAN_POINT( '', ( -6.00000000000000, 7.00000000000000, 7.34763812293426E-016 ) );
#364 = AXIS2_PLACEMENT_3D( '', #418, #419, #420 );
#365 = CARTESIAN_POINT( '', ( -6.75000000000000, 7.75000000000000, 8.26609288830105E-016 ) );
#366 = VECTOR( '', #421, 1.00000000000000 );
#367 = CARTESIAN_POINT( '', ( 6.00000000000000, 0.000000000000000, -1.46952762458685E-015 ) );
#368 = CARTESIAN_POINT( '', ( 6.00000000000000, 3.50000000000000, -7.34763812293426E-016 ) );
#369 = VECTOR( '', #422, 1.00000000000000 );
#370 = CARTESIAN_POINT( '', ( -6.00000000000000, 0.000000000000000, 7.34763812293426E-016 ) );
#371 = AXIS2_PLACEMENT_3D( '', #423, #424, #425 );
#372 = CARTESIAN_POINT( '', ( -6.00000000000000, 3.50000000000000, 7.34763812293426E-016 ) );
#373 = VECTOR( '', #426, 1.00000000000000 );
#374 = CARTESIAN_POINT( '', ( -2.06700000000000, 11.0000000000000, 2.53126133335085E-016 ) );
#375 = CARTESIAN_POINT( '', ( 0.000000000000000, 12.1933830064150, 0.000000000000000 ) );
#376 = CARTESIAN_POINT( '', ( -1.03350000000000, 11.5966915032075, 1.26563066667543E-016 ) );
#377 = VECTOR( '', #427, 1.00000000000000 );
#378 = CARTESIAN_POINT( '', ( 2.06700000000000, 11.0000000000000, -5.06252266670171E-016 ) );
#379 = CARTESIAN_POINT( '', ( 1.03350000000000, 11.5966915032075, -1.26563066667543E-016 ) );
#380 = VECTOR( '', #428, 1.00000000000000 );
#381 = AXIS2_PLACEMENT_3D( '', #429, #430, #431 );
#382 = CARTESIAN_POINT( '', ( 2.06700000000000, 0.433000000000000, -5.06252266670171E-016 ) );
#383 = CARTESIAN_POINT( '', ( 2.06700000000000, 5.71650000000000, -2.53126133335085E-016 ) );
#384 = VECTOR( '', #432, 1.00000000000000 );
#385 = AXIS2_PLACEMENT_3D( '', #433, #434, #435 );
#386 = CARTESIAN_POINT( '', ( -2.06700000000000, 0.433000000000000, 2.53126133335085E-016 ) );
#387 = CARTESIAN_POINT( '', ( -2.06700000000000, 5.71650000000000, 2.53126133335085E-016 ) );
#388 = VECTOR( '', #436, 1.00000000000000 );
#389 = AXIS2_PLACEMENT_3D( '', #437, #438, #439 );
#390 = CARTESIAN_POINT( '', ( 2.50000000000000, 5.55111512312578E-017, -6.12303176911189E-016 ) );
#391 = CARTESIAN_POINT( '', ( 2.28350000000000, 0.216500000000000, -2.79638860895340E-016 ) );
#392 = VECTOR( '', #440, 1.00000000000000 );
#393 = CARTESIAN_POINT( '', ( -2.50000000000000, 0.000000000000000, 3.06151588455594E-016 ) );
#394 = CARTESIAN_POINT( '', ( -2.28350000000000, 0.216500000000000, 2.79638860895340E-016 ) );
#395 = VECTOR( '', #441, 1.00000000000000 );
#396 = AXIS2_PLACEMENT_3D( '', #442, #443, #444 );
#397 = AXIS2_PLACEMENT_3D( '', #445, #446, #447 );
#398 = AXIS2_PLACEMENT_3D( '', #448, #449, #450 );
#399 = AXIS2_PLACEMENT_3D( '', #451, #452, #453 );
#400 = AXIS2_PLACEMENT_3D( '', #454, #455, #456 );
#401 = AXIS2_PLACEMENT_3D( '', #457, #458, #459 );
#402 = AXIS2_PLACEMENT_3D( '', #460, #461, #462 );
#403 = AXIS2_PLACEMENT_3D( '', #463, #464, #465 );
#404 = DIRECTION( '', ( -0.707106781186547, 0.707106781186548, 8.65927457071935E-017 ) );
#405 = CARTESIAN_POINT( '', ( 0.000000000000000, 14.0000000000000, 0.000000000000000 ) );
#406 = DIRECTION( '', ( 0.000000000000000, 1.00000000000000, 0.000000000000000 ) );
#407 = DIRECTION( '', ( 1.00000000000000, 0.000000000000000, -2.44921270764475E-016 ) );
#408 = DIRECTION( '', ( -0.707106781186547, -0.707106781186548, 8.65927457071935E-017 ) );
#409 = CARTESIAN_POINT( '', ( 0.000000000000000, 15.5000000000000, 0.000000000000000 ) );
#410 = DIRECTION( '', ( 0.000000000000000, 1.00000000000000, 0.000000000000000 ) );
#411 = DIRECTION( '', ( 1.00000000000000, 0.000000000000000, -2.44921270764475E-016 ) );
#412 = DIRECTION( '', ( 0.000000000000000, 1.00000000000000, 0.000000000000000 ) );
#413 = CARTESIAN_POINT( '', ( 0.000000000000000, 8.50000000000000, 0.000000000000000 ) );
#414 = DIRECTION( '', ( 0.000000000000000, 1.00000000000000, 0.000000000000000 ) );
#415 = DIRECTION( '', ( 1.00000000000000, 0.000000000000000, -2.44921270764475E-016 ) );
#416 = DIRECTION( '', ( -0.000000000000000, -1.00000000000000, -0.000000000000000 ) );
#417 = DIRECTION( '', ( 0.707106781186548, 0.707106781186548, -8.65927457071935E-017 ) );
#418 = CARTESIAN_POINT( '', ( 0.000000000000000, 7.00000000000000, 0.000000000000000 ) );
#419 = DIRECTION( '', ( 0.000000000000000, 1.00000000000000, 0.000000000000000 ) );
#420 = DIRECTION( '', ( 1.00000000000000, 0.000000000000000, -2.44921270764475E-016 ) );
#421 = DIRECTION( '', ( 0.707106781186548, -0.707106781186548, -8.65927457071936E-017 ) );
#422 = DIRECTION( '', ( 0.000000000000000, 1.00000000000000, 0.000000000000000 ) );
#423 = CARTESIAN_POINT( '', ( 0.000000000000000, 0.000000000000000, 0.000000000000000 ) );
#424 = DIRECTION( '', ( 0.000000000000000, 1.00000000000000, 0.000000000000000 ) );
#425 = DIRECTION( '', ( 1.00000000000000, 0.000000000000000, -2.44921270764475E-016 ) );
#426 = DIRECTION( '', ( -0.000000000000000, -1.00000000000000, -0.000000000000000 ) );
#427 = DIRECTION( '', ( 0.866025403784439, 0.500000000000000, -1.06054021204601E-016 ) );
#428 = DIRECTION( '', ( 0.866025403784439, -0.500000000000000, -1.06054021204601E-016 ) );
#429 = CARTESIAN_POINT( '', ( 0.000000000000000, 11.0000000000000, 0.000000000000000 ) );
#430 = DIRECTION( '', ( 0.000000000000000, 1.00000000000000, 0.000000000000000 ) );
#431 = DIRECTION( '', ( 1.00000000000000, 0.000000000000000, -2.44921270764475E-016 ) );
#432 = DIRECTION( '', ( -0.000000000000000, -1.00000000000000, 0.000000000000000 ) );
#433 = CARTESIAN_POINT( '', ( 0.000000000000000, 11.0000000000000, 0.000000000000000 ) );
#434 = DIRECTION( '', ( 0.000000000000000, 1.00000000000000, 0.000000000000000 ) );
#435 = DIRECTION( '', ( 1.00000000000000, 0.000000000000000, -2.44921270764475E-016 ) );
#436 = DIRECTION( '', ( -0.000000000000000, 1.00000000000000, 0.000000000000000 ) );
#437 = CARTESIAN_POINT( '', ( 0.000000000000000, 0.433000000000000, 0.000000000000000 ) );
#438 = DIRECTION( '', ( 0.000000000000000, 1.00000000000000, 0.000000000000000 ) );
#439 = DIRECTION( '', ( 1.00000000000000, 0.000000000000000, -2.44921270764475E-016 ) );
#440 = DIRECTION( '', ( 0.707106781186548, -0.707106781186548, -8.65927457071936E-017 ) );
#441 = DIRECTION( '', ( 0.707106781186548, 0.707106781186548, -8.65927457071936E-017 ) );
#442 = CARTESIAN_POINT( '', ( 0.000000000000000, 0.000000000000000, 0.000000000000000 ) );
#443 = DIRECTION( '', ( 0.000000000000000, 1.00000000000000, 0.000000000000000 ) );
#444 = DIRECTION( '', ( 1.00000000000000, 0.000000000000000, -2.44921270764475E-016 ) );
#445 = CARTESIAN_POINT( '', ( 0.000000000000000, 0.000000000000000, 0.000000000000000 ) );
#446 = DIRECTION( '', ( 0.000000000000000, 1.00000000000000, 0.000000000000000 ) );
#447 = DIRECTION( '', ( 1.00000000000000, 0.000000000000000, -2.44921270764475E-016 ) );
#448 = CARTESIAN_POINT( '', ( 0.000000000000000, 0.433000000000000, 0.000000000000000 ) );
#449 = DIRECTION( '', ( 0.000000000000000, 1.00000000000000, 0.000000000000000 ) );
#450 = DIRECTION( '', ( 1.00000000000000, 0.000000000000000, -2.44921270764475E-016 ) );
#451 = CARTESIAN_POINT( '', ( 0.000000000000000, 0.000000000000000, 0.000000000000000 ) );
#452 = DIRECTION( '', ( 0.000000000000000, 1.00000000000000, 0.000000000000000 ) );
#453 = DIRECTION( '', ( 1.00000000000000, 0.000000000000000, -2.44921270764475E-016 ) );
#454 = CARTESIAN_POINT( '', ( 0.000000000000000, 7.00000000000000, 0.000000000000000 ) );
#455 = DIRECTION( '', ( 0.000000000000000, 1.00000000000000, 0.000000000000000 ) );
#456 = DIRECTION( '', ( 1.00000000000000, 0.000000000000000, -2.44921270764475E-016 ) );
#457 = CARTESIAN_POINT( '', ( 0.000000000000000, 8.50000000000000, 0.000000000000000 ) );
#458 = DIRECTION( '', ( 0.000000000000000, 1.00000000000000, 0.000000000000000 ) );
#459 = DIRECTION( '', ( 1.00000000000000, 0.000000000000000, -2.44921270764475E-016 ) );
#460 = CARTESIAN_POINT( '', ( 0.000000000000000, 14.0000000000000, 0.000000000000000 ) );
#461 = DIRECTION( '', ( 0.000000000000000, 1.00000000000000, 0.000000000000000 ) );
#462 = DIRECTION( '', ( 1.00000000000000, 0.000000000000000, -2.44921270764475E-016 ) );
#463 = CARTESIAN_POINT( '', ( 0.000000000000000, 15.5000000000000, 0.000000000000000 ) );
#464 = DIRECTION( '', ( 0.000000000000000, 1.00000000000000, 0.000000000000000 ) );
#465 = DIRECTION( '', ( 1.00000000000000, 0.000000000000000, -2.44921270764475E-016 ) );
ENDSEC;
END-ISO-10303-21;
