ISO-10303-21;
HEADER;
FILE_DESCRIPTION (( 'STEP AP214' ),
    '1' );
FILE_NAME ('WDS-804-210.step',
    '2012-04-10T07:28:03',
    ( 'sysAdmin' ),
    ( 'SolidWorks' ),
    'SwSTEP 2.0',
    'SolidWorks 2012',
    '' );
FILE_SCHEMA (( 'AUTOMOTIVE_DESIGN' ));
ENDSEC;

DATA;
#1 = ORIENTED_EDGE ( 'NONE', *, *, #3, .T. ) ;
#2 = ORIENTED_EDGE ( 'NONE', *, *, #32, .F. ) ;
#3 = EDGE_CURVE ( 'NONE', #21, #227, #206, .T. ) ;
#4 = ORIENTED_EDGE ( 'NONE', *, *, #225, .F. ) ;
#5 = ORIENTED_EDGE ( 'NONE', *, *, #25, .F. ) ;
#6 = ORIENTED_EDGE ( 'NONE', *, *, #209, .T. ) ;
#7 = EDGE_LOOP ( 'NONE', ( #18, #22, #24, #8, #29 ) ) ;
#8 = ORIENTED_EDGE ( 'NONE', *, *, #25, .T. ) ;
#9 = ORIENTED_EDGE ( 'NONE', *, *, #32, .T. ) ;
#10 = ORIENTED_EDGE ( 'NONE', *, *, #28, .T. ) ;
#11 = ADVANCED_FACE ( 'NONE', ( #204 ), #81, .F. ) ;
#12 = ORIENTED_EDGE ( 'NONE', *, *, #175, .F. ) ;
#13 = ORIENTED_EDGE ( 'NONE', *, *, #37, .T. ) ;
#14 = EDGE_LOOP ( 'NONE', ( #13, #192, #145, #196, #194, #195 ) ) ;
#15 = ORIENTED_EDGE ( 'NONE', *, *, #252, .T. ) ;
#16 = DIRECTION ( 'NONE',  ( 0.0000000000000000000, 0.0000000000000000000, -1.000000000000000000 ) ) ;
#17 = ORIENTED_EDGE ( 'NONE', *, *, #37, .F. ) ;
#18 = ORIENTED_EDGE ( 'NONE', *, *, #35, .F. ) ;
#19 = EDGE_LOOP ( 'NONE', ( #9, #5, #10, #38, #186, #39 ) ) ;
#20 = ADVANCED_FACE ( 'NONE', ( #144 ), #207, .T. ) ;
#21 = VERTEX_POINT ( 'NONE', #73 ) ;
#22 = ORIENTED_EDGE ( 'NONE', *, *, #248, .F. ) ;
#23 = ORIENTED_EDGE ( 'NONE', *, *, #28, .F. ) ;
#24 = ORIENTED_EDGE ( 'NONE', *, *, #3, .F. ) ;
#25 = EDGE_CURVE ( 'NONE', #21, #36, #83, .T. ) ;
#26 = ORIENTED_EDGE ( 'NONE', *, *, #233, .F. ) ;
#27 = ADVANCED_FACE ( 'NONE', ( #82 ), #76, .T. ) ;
#28 = EDGE_CURVE ( 'NONE', #21, #228, #66, .T. ) ;
#29 = ORIENTED_EDGE ( 'NONE', *, *, #33, .T. ) ;
#30 = VERTEX_POINT ( 'NONE', #201 ) ;
#31 = ORIENTED_EDGE ( 'NONE', *, *, #33, .F. ) ;
#32 = EDGE_CURVE ( 'NONE', #219, #36, #63, .T. ) ;
#33 = EDGE_CURVE ( 'NONE', #36, #30, #62, .T. ) ;
#34 = EDGE_LOOP ( 'NONE', ( #4, #26, #23, #1 ) ) ;
#35 = EDGE_CURVE ( 'NONE', #226, #30, #141, .T. ) ;
#36 = VERTEX_POINT ( 'NONE', #64 ) ;
#37 = EDGE_CURVE ( 'NONE', #30, #231, #136, .T. ) ;
#38 = ORIENTED_EDGE ( 'NONE', *, *, #174, .F. ) ;
#39 = ORIENTED_EDGE ( 'NONE', *, *, #211, .T. ) ;
#40 = AXIS2_PLACEMENT_3D ( 'NONE', #155, #154, #153 ) ;
#41 = DIRECTION ( 'NONE',  ( 1.474290230406324000E-016, -0.0000000000000000000, 1.000000000000000000 ) ) ;
#42 = VECTOR ( 'NONE', #41, 1000.000000000000000 ) ;
#43 = CARTESIAN_POINT ( 'NONE',  ( -5.500000000000000000, -1.734723475976807100E-015, 6.735557395310443000E-016 ) ) ;
#44 = DIRECTION ( 'NONE',  ( 0.0000000000000000000, 0.0000000000000000000, -1.000000000000000000 ) ) ;
#45 = DIRECTION ( 'NONE',  ( -0.0000000000000000000, -1.000000000000000000, -0.0000000000000000000 ) ) ;
#46 = CARTESIAN_POINT ( 'NONE',  ( 0.0000000000000000000, -1.377727649040772600E-015, 0.0000000000000000000 ) ) ;
#47 = PLANE ( 'NONE',  #152 ) ;
#48 = PLANE ( 'NONE',  #40 ) ;
#49 = CARTESIAN_POINT ( 'NONE',  ( 5.500000000000000000, -1.734723475976807100E-015, -6.735557395310441000E-016 ) ) ;
#50 = DIRECTION ( 'NONE',  ( 0.0000000000000000000, 0.0000000000000000000, -1.000000000000000000 ) ) ;
#51 = AXIS2_PLACEMENT_3D ( 'NONE', #46, #45, #44 ) ;
#52 = ADVANCED_FACE ( 'NONE', ( #56 ), #74, .F. ) ;
#53 = FACE_OUTER_BOUND ( 'NONE', #229, .T. ) ;
#54 = DIRECTION ( 'NONE',  ( 0.0000000000000000000, 0.0000000000000000000, -1.000000000000000000 ) ) ;
#55 = DIRECTION ( 'NONE',  ( -0.0000000000000000000, -1.000000000000000000, -0.0000000000000000000 ) ) ;
#56 = FACE_OUTER_BOUND ( 'NONE', #165, .T. ) ;
#57 = CARTESIAN_POINT ( 'NONE',  ( 14.24999999999999800, -8.419446744138055200E-016, 0.0000000000000000000 ) ) ;
#58 = CARTESIAN_POINT ( 'NONE',  ( 6.999999999999997300, 6.250000000000000900, -13.26649916142159700 ) ) ;
#59 = CARTESIAN_POINT ( 'NONE',  ( 6.814720787540046800, 6.500330733596565700, -13.08121994896164600 ) ) ;
#60 = CARTESIAN_POINT ( 'NONE',  ( 6.629230435369218600, 6.750349433158813600, -12.89572959679082100 ) ) ;
#61 = CARTESIAN_POINT ( 'NONE',  ( 6.443492927312249200, 7.000000000000002700, -12.70999208873385000 ) ) ;
#62 = CIRCLE ( 'NONE', #202, 14.99999999999999800 ) ;
#63 = B_SPLINE_CURVE_WITH_KNOTS ( 'NONE', 3,
 ( #61, #60, #59, #58 ),
 .UNSPECIFIED., .F., .F.,
 ( 4, 4 ),
 ( 2.903129320703345500E-007, 0.001087442668355620700 ),
 .UNSPECIFIED. ) ;
#64 = CARTESIAN_POINT ( 'NONE',  ( 6.999999999999997300, 6.250000000000000900, -13.26649916142159700 ) ) ;
#65 = CARTESIAN_POINT ( 'NONE',  ( 0.0000000000000000000, 6.250000000000000900, 0.0000000000000000000 ) ) ;
#66 = B_SPLINE_CURVE_WITH_KNOTS ( 'NONE', 3,
 ( #200, #199, #198, #197 ),
 .UNSPECIFIED., .F., .F.,
 ( 4, 4 ),
 ( 2.895239462030382800E-007, 0.001087441879369758600 ),
 .UNSPECIFIED. ) ;
#67 = DIRECTION ( 'NONE',  ( 0.0000000000000000000, 0.0000000000000000000, 1.000000000000000000 ) ) ;
#68 = DIRECTION ( 'NONE',  ( 0.0000000000000000000, 1.000000000000000000, 0.0000000000000000000 ) ) ;
#69 = CARTESIAN_POINT ( 'NONE',  ( 0.0000000000000000000, -3.061616997868384100E-016, 0.0000000000000000000 ) ) ;
#70 = DIRECTION ( 'NONE',  ( -0.0000000000000000000, 1.000000000000000000, -0.0000000000000000000 ) ) ;
#71 = VECTOR ( 'NONE', #70, 1000.000000000000000 ) ;
#72 = CARTESIAN_POINT ( 'NONE',  ( 6.999999999999997300, -1.734723475976807100E-015, -13.26649916142159700 ) ) ;
#73 = CARTESIAN_POINT ( 'NONE',  ( 7.000000000000001800, 0.7499999999999997800, -13.26649916142160100 ) ) ;
#74 = PLANE ( 'NONE',  #128 ) ;
#75 = DIRECTION ( 'NONE',  ( -0.0000000000000000000, -1.000000000000000000, -0.0000000000000000000 ) ) ;
#76 = CONICAL_SURFACE ( 'NONE', #143, 14.24999999999999800, 0.7853981633974509400 ) ;
#77 = DIRECTION ( 'NONE',  ( 0.7071067811865483500, 0.0000000000000000000, -0.7071067811865466800 ) ) ;
#78 = DIRECTION ( 'NONE',  ( 0.7071067811865466800, 0.0000000000000000000, 0.7071067811865483500 ) ) ;
#79 = CARTESIAN_POINT ( 'NONE',  ( 5.499999999999998200, -1.734723475976807100E-015, -11.76649916142160100 ) ) ;
#80 = AXIS2_PLACEMENT_3D ( 'NONE', #79, #78, #77 ) ;
#81 = PLANE ( 'NONE',  #80 ) ;
#82 = FACE_OUTER_BOUND ( 'NONE', #34, .T. ) ;
#83 = LINE ( 'NONE', #72, #71 ) ;
#84 = DIRECTION ( 'NONE',  ( 0.0000000000000000000, 0.0000000000000000000, -1.000000000000000000 ) ) ;
#85 = DIRECTION ( 'NONE',  ( -0.0000000000000000000, -1.000000000000000000, -0.0000000000000000000 ) ) ;
#86 = CARTESIAN_POINT ( 'NONE',  ( 0.0000000000000000000, 0.7499999999999997800, 0.0000000000000000000 ) ) ;
#87 = AXIS2_PLACEMENT_3D ( 'NONE', #86, #85, #84 ) ;
#88 =( NAMED_UNIT ( * ) SI_UNIT ( $, .STERADIAN. ) SOLID_ANGLE_UNIT ( ) );
#89 =( NAMED_UNIT ( * ) PLANE_ANGLE_UNIT ( ) SI_UNIT ( $, .RADIAN. ) );
#90 =( LENGTH_UNIT ( ) NAMED_UNIT ( * ) SI_UNIT ( .MILLI., .METRE. ) );
#91 = MECHANICAL_DESIGN_GEOMETRIC_PRESENTATION_REPRESENTATION (  '', ( #93 ), #157 ) ;
#92 = PRESENTATION_LAYER_ASSIGNMENT (  '', '', ( #93 ) ) ;
#93 = STYLED_ITEM ( 'NONE', ( #94 ), #182 ) ;
#94 = PRESENTATION_STYLE_ASSIGNMENT (( #95 ) ) ;
#95 = SURFACE_STYLE_USAGE ( .BOTH. , #96 ) ;
#96 = SURFACE_SIDE_STYLE ('',( #97 ) ) ;
#97 = SURFACE_STYLE_FILL_AREA ( #102 ) ;
#98 = COLOUR_RGB ( '',0.8235294117647058400, 0.8705882352941176600, 0.9803921568627450600 ) ;
#99 = DIRECTION ( 'NONE',  ( 0.0000000000000000000, 0.0000000000000000000, -1.000000000000000000 ) ) ;
#100 = DIRECTION ( 'NONE',  ( -0.0000000000000000000, -1.000000000000000000, -0.0000000000000000000 ) ) ;
#101 = CARTESIAN_POINT ( 'NONE',  ( 0.0000000000000000000, -3.061616997868384100E-016, 0.0000000000000000000 ) ) ;
#102 = FILL_AREA_STYLE ('',( #103 ) ) ;
#103 = FILL_AREA_STYLE_COLOUR ( '', #98 ) ;
#104 = CARTESIAN_POINT ( 'NONE',  ( -5.500000000000000000, -1.734723475976807100E-015, 6.735557395310443000E-016 ) ) ;
#105 = CARTESIAN_POINT ( 'NONE',  ( 0.0000000000000000000, -3.061616997868384100E-016, 14.24999999999999800 ) ) ;
#106 = CARTESIAN_POINT ( 'NONE',  ( -5.500000000000001800, -1.734723475976807100E-015, -11.76649916142160100 ) ) ;
#107 = FACE_OUTER_BOUND ( 'NONE', #117, .T. ) ;
#108 = DIRECTION ( 'NONE',  ( -1.474290230406324000E-016, 0.0000000000000000000, -1.000000000000000000 ) ) ;
#109 = VECTOR ( 'NONE', #108, 1000.000000000000000 ) ;
#110 = CARTESIAN_POINT ( 'NONE',  ( 5.500000000000000000, -1.734723475976807100E-015, -6.735557395310441000E-016 ) ) ;
#111 = LINE ( 'NONE', #110, #109 ) ;
#112 = CIRCLE ( 'NONE', #119, 14.24999999999999800 ) ;
#113 = DIRECTION ( 'NONE',  ( 0.7071067811865483500, 0.0000000000000000000, -0.7071067811865468000 ) ) ;
#114 = VECTOR ( 'NONE', #113, 1000.000000000000000 ) ;
#115 = CARTESIAN_POINT ( 'NONE',  ( 5.499999999999998200, -1.734723475976807100E-015, -11.76649916142160100 ) ) ;
#116 = CARTESIAN_POINT ( 'NONE',  ( -6.443492927312249200, -3.061616997868384100E-016, -12.70999208873384700 ) ) ;
#117 = EDGE_LOOP ( 'NONE', ( #189, #185, #188, #191 ) ) ;
#118 = PLANE ( 'NONE',  #120 ) ;
#119 = AXIS2_PLACEMENT_3D ( 'NONE', #101, #100, #99 ) ;
#120 = AXIS2_PLACEMENT_3D ( 'NONE', #57, #130, #50 ) ;
#121 = DIRECTION ( 'NONE',  ( -0.0000000000000000000, 1.000000000000000000, -0.0000000000000000000 ) ) ;
#122 = VECTOR ( 'NONE', #121, 1000.000000000000000 ) ;
#123 = CARTESIAN_POINT ( 'NONE',  ( 5.499999999999998200, -1.734723475976807100E-015, -11.76649916142160100 ) ) ;
#124 = LINE ( 'NONE', #43, #42 ) ;
#125 = DIRECTION ( 'NONE',  ( -1.474290230406324300E-016, 0.0000000000000000000, -1.000000000000000000 ) ) ;
#126 = DIRECTION ( 'NONE',  ( 1.000000000000000000, 0.0000000000000000000, -1.474290230406324300E-016 ) ) ;
#127 = CARTESIAN_POINT ( 'NONE',  ( 5.500000000000000000, -1.734723475976807100E-015, -6.735557395310441000E-016 ) ) ;
#128 = AXIS2_PLACEMENT_3D ( 'NONE', #127, #126, #125 ) ;
#129 = LINE ( 'NONE', #123, #122 ) ;
#130 = DIRECTION ( 'NONE',  ( 0.0000000000000000000, -1.000000000000000000, -0.0000000000000000000 ) ) ;
#131 = LINE ( 'NONE', #115, #114 ) ;
#132 = CARTESIAN_POINT ( 'NONE',  ( -6.443492927312250100, 7.000000000000002700, -12.70999208873385000 ) ) ;
#133 = CARTESIAN_POINT ( 'NONE',  ( -6.629230435369221300, 6.750349433158814500, -12.89572959679081900 ) ) ;
#134 = CARTESIAN_POINT ( 'NONE',  ( -6.814720787540050400, 6.500330733596565700, -13.08121994896164600 ) ) ;
#135 = CARTESIAN_POINT ( 'NONE',  ( -7.000000000000000000, 6.250000000000000900, -13.26649916142159700 ) ) ;
#136 = B_SPLINE_CURVE_WITH_KNOTS ( 'NONE', 3,
 ( #135, #134, #133, #132 ),
 .UNSPECIFIED., .F., .F.,
 ( 4, 4 ),
 ( 2.895239462011078900E-007, 0.001087441879369753900 ),
 .UNSPECIFIED. ) ;
#137 = CIRCLE ( 'NONE', #51, 5.500000000000000000 ) ;
#138 = DIRECTION ( 'NONE',  ( -0.0000000000000000000, 1.000000000000000000, -0.0000000000000000000 ) ) ;
#139 = VECTOR ( 'NONE', #138, 1000.000000000000000 ) ;
#140 = CARTESIAN_POINT ( 'NONE',  ( -7.000000000000000000, -1.734723475976807100E-015, -13.26649916142159700 ) ) ;
#141 = LINE ( 'NONE', #140, #139 ) ;
#142 = CLOSED_SHELL ( 'NONE', ( #223, #166, #239, #218, #255, #20, #27, #11, #52, #187, #193 ) ) ;
#143 = AXIS2_PLACEMENT_3D ( 'NONE', #69, #68, #67 ) ;
#144 = FACE_OUTER_BOUND ( 'NONE', #7, .T. ) ;
#145 = ORIENTED_EDGE ( 'NONE', *, *, #190, .F. ) ;
#146 = EDGE_CURVE ( 'NONE', #253, #214, #129, .T. ) ;
#147 = CIRCLE ( 'NONE', #161, 14.25000000000000200 ) ;
#148 = DIRECTION ( 'NONE',  ( -0.0000000000000000000, 1.000000000000000000, -0.0000000000000000000 ) ) ;
#149 = VECTOR ( 'NONE', #148, 1000.000000000000000 ) ;
#150 = CARTESIAN_POINT ( 'NONE',  ( -5.500000000000001800, -1.734723475976807100E-015, -11.76649916142160100 ) ) ;
#151 = LINE ( 'NONE', #150, #149 ) ;
#152 = AXIS2_PLACEMENT_3D ( 'NONE', #106, #163, #162 ) ;
#153 = DIRECTION ( 'NONE',  ( 1.474290230406324300E-016, 0.0000000000000000000, 1.000000000000000000 ) ) ;
#154 = DIRECTION ( 'NONE',  ( -1.000000000000000000, 0.0000000000000000000, 1.474290230406324300E-016 ) ) ;
#155 = CARTESIAN_POINT ( 'NONE',  ( -5.500000000000000000, -1.734723475976807100E-015, 6.735557395310443000E-016 ) ) ;
#156 = FACE_OUTER_BOUND ( 'NONE', #14, .T. ) ;
#157 =( GEOMETRIC_REPRESENTATION_CONTEXT ( 3 ) GLOBAL_UNCERTAINTY_ASSIGNED_CONTEXT ( ( #158 ) ) GLOBAL_UNIT_ASSIGNED_CONTEXT ( ( #90, #89, #88 ) ) REPRESENTATION_CONTEXT ( 'NONE', 'WORKASPACE' ) );
#158 = UNCERTAINTY_MEASURE_WITH_UNIT (LENGTH_MEASURE( 1.000000000000000100E-005 ), #90, 'distance_accuracy_value', 'NONE');
#159 = DIRECTION ( 'NONE',  ( -0.0000000000000000000, -1.000000000000000000, -0.0000000000000000000 ) ) ;
#160 = CARTESIAN_POINT ( 'NONE',  ( 0.0000000000000000000, 7.000000000000002700, 0.0000000000000000000 ) ) ;
#161 = AXIS2_PLACEMENT_3D ( 'NONE', #160, #159, #16 ) ;
#162 = DIRECTION ( 'NONE',  ( 0.7071067811865483500, 0.0000000000000000000, 0.7071067811865466800 ) ) ;
#163 = DIRECTION ( 'NONE',  ( -0.7071067811865466800, 0.0000000000000000000, 0.7071067811865483500 ) ) ;
#164 = ORIENTED_EDGE ( 'NONE', *, *, #213, .T. ) ;
#165 = EDGE_LOOP ( 'NONE', ( #164, #184, #12, #15 ) ) ;
#166 = ADVANCED_FACE ( 'NONE', ( #53 ), #118, .T. ) ;
#167 = ORIENTED_EDGE ( 'NONE', *, *, #169, .F. ) ;
#168 = ORIENTED_EDGE ( 'NONE', *, *, #170, .T. ) ;
#169 = EDGE_CURVE ( 'NONE', #171, #181, #137, .T. ) ;
#170 = EDGE_CURVE ( 'NONE', #254, #181, #124, .T. ) ;
#171 = VERTEX_POINT ( 'NONE', #49 ) ;
#172 = EDGE_LOOP ( 'NONE', ( #240, #244, #215, #217 ) ) ;
#173 = ORIENTED_EDGE ( 'NONE', *, *, #179, .T. ) ;
#174 = EDGE_CURVE ( 'NONE', #253, #228, #131, .T. ) ;
#175 = EDGE_CURVE ( 'NONE', #171, #253, #111, .T. ) ;
#176 = ORIENTED_EDGE ( 'NONE', *, *, #179, .F. ) ;
#177 = VERTEX_POINT ( 'NONE', #116 ) ;
#178 = EDGE_LOOP ( 'NONE', ( #176, #224, #230, #249 ) ) ;
#179 = EDGE_CURVE ( 'NONE', #180, #177, #112, .T. ) ;
#180 = VERTEX_POINT ( 'NONE', #105 ) ;
#181 = VERTEX_POINT ( 'NONE', #104 ) ;
#182 = MANIFOLD_SOLID_BREP ( 'Cut-Extrude1', #142 ) ;
#183 = AXIS2_PLACEMENT_3D ( 'NONE', #203, #75, #205 ) ;
#184 = ORIENTED_EDGE ( 'NONE', *, *, #146, .F. ) ;
#185 = ORIENTED_EDGE ( 'NONE', *, *, #242, .F. ) ;
#186 = ORIENTED_EDGE ( 'NONE', *, *, #146, .T. ) ;
#187 = ADVANCED_FACE ( 'NONE', ( #107 ), #48, .F. ) ;
#188 = ORIENTED_EDGE ( 'NONE', *, *, #170, .F. ) ;
#189 = ORIENTED_EDGE ( 'NONE', *, *, #238, .T. ) ;
#190 = EDGE_CURVE ( 'NONE', #254, #222, #151, .T. ) ;
#191 = ORIENTED_EDGE ( 'NONE', *, *, #190, .T. ) ;
#192 = ORIENTED_EDGE ( 'NONE', *, *, #221, .T. ) ;
#193 = ADVANCED_FACE ( 'NONE', ( #156 ), #47, .F. ) ;
#194 = ORIENTED_EDGE ( 'NONE', *, *, #250, .T. ) ;
#195 = ORIENTED_EDGE ( 'NONE', *, *, #35, .T. ) ;
#196 = ORIENTED_EDGE ( 'NONE', *, *, #236, .F. ) ;
#197 = CARTESIAN_POINT ( 'NONE',  ( 6.443492927312247400, -1.734723475976807100E-015, -12.70999208873385000 ) ) ;
#198 = CARTESIAN_POINT ( 'NONE',  ( 6.629230435369218600, 0.2496505668411882200, -12.89572959679082100 ) ) ;
#199 = CARTESIAN_POINT ( 'NONE',  ( 6.814720787540048600, 0.4996692664034362300, -13.08121994896164800 ) ) ;
#200 = CARTESIAN_POINT ( 'NONE',  ( 7.000000000000001800, 0.7499999999999997800, -13.26649916142160100 ) ) ;
#201 = CARTESIAN_POINT ( 'NONE',  ( -7.000000000000000000, 6.250000000000000900, -13.26649916142159700 ) ) ;
#202 = AXIS2_PLACEMENT_3D ( 'NONE', #65, #55, #54 ) ;
#203 = CARTESIAN_POINT ( 'NONE',  ( 0.0000000000000000000, 0.0000000000000000000, 0.0000000000000000000 ) ) ;
#204 = FACE_OUTER_BOUND ( 'NONE', #19, .T. ) ;
#205 = DIRECTION ( 'NONE',  ( 0.0000000000000000000, 0.0000000000000000000, -1.000000000000000000 ) ) ;
#206 = CIRCLE ( 'NONE', #87, 15.00000000000000400 ) ;
#207 = CYLINDRICAL_SURFACE ( 'NONE', #183, 15.00000000000000000 ) ;
#208 = ORIENTED_EDGE ( 'NONE', *, *, #221, .F. ) ;
#209 = EDGE_CURVE ( 'NONE', #219, #231, #147, .T. ) ;
#210 = ORIENTED_EDGE ( 'NONE', *, *, #209, .F. ) ;
#211 = EDGE_CURVE ( 'NONE', #214, #219, #333, .T. ) ;
#212 = ORIENTED_EDGE ( 'NONE', *, *, #211, .F. ) ;
#213 = EDGE_CURVE ( 'NONE', #247, #214, #294, .T. ) ;
#214 = VERTEX_POINT ( 'NONE', #296 ) ;
#215 = ORIENTED_EDGE ( 'NONE', *, *, #252, .F. ) ;
#216 = ORIENTED_EDGE ( 'NONE', *, *, #241, .T. ) ;
#217 = ORIENTED_EDGE ( 'NONE', *, *, #169, .T. ) ;
#218 = ADVANCED_FACE ( 'NONE', ( #370 ), #334, .T. ) ;
#219 = VERTEX_POINT ( 'NONE', #256 ) ;
#220 = EDGE_LOOP ( 'NONE', ( #17, #31, #2, #6 ) ) ;
#221 = EDGE_CURVE ( 'NONE', #231, #222, #287, .T. ) ;
#222 = VERTEX_POINT ( 'NONE', #290 ) ;
#223 = ADVANCED_FACE ( 'NONE', ( #289 ), #286, .T. ) ;
#224 = ORIENTED_EDGE ( 'NONE', *, *, #225, .T. ) ;
#225 = EDGE_CURVE ( 'NONE', #180, #227, #274, .T. ) ;
#226 = VERTEX_POINT ( 'NONE', #281 ) ;
#227 = VERTEX_POINT ( 'NONE', #276 ) ;
#228 = VERTEX_POINT ( 'NONE', #272 ) ;
#229 = EDGE_LOOP ( 'NONE', ( #168, #167, #251, #232, #234, #173, #237 ) ) ;
#230 = ORIENTED_EDGE ( 'NONE', *, *, #248, .T. ) ;
#231 = VERTEX_POINT ( 'NONE', #267 ) ;
#232 = ORIENTED_EDGE ( 'NONE', *, *, #174, .T. ) ;
#233 = EDGE_CURVE ( 'NONE', #228, #180, #268, .T. ) ;
#234 = ORIENTED_EDGE ( 'NONE', *, *, #233, .T. ) ;
#235 = VERTEX_POINT ( 'NONE', #328 ) ;
#236 = EDGE_CURVE ( 'NONE', #177, #254, #322, .T. ) ;
#237 = ORIENTED_EDGE ( 'NONE', *, *, #236, .T. ) ;
#238 = EDGE_CURVE ( 'NONE', #222, #235, #318, .T. ) ;
#239 = ADVANCED_FACE ( 'NONE', ( #277 ), #323, .F. ) ;
#240 = ORIENTED_EDGE ( 'NONE', *, *, #242, .T. ) ;
#241 = EDGE_CURVE ( 'NONE', #247, #235, #313, .T. ) ;
#242 = EDGE_CURVE ( 'NONE', #181, #235, #310, .T. ) ;
#243 = EDGE_LOOP ( 'NONE', ( #245, #208, #210, #212, #246, #216 ) ) ;
#244 = ORIENTED_EDGE ( 'NONE', *, *, #241, .F. ) ;
#245 = ORIENTED_EDGE ( 'NONE', *, *, #238, .F. ) ;
#246 = ORIENTED_EDGE ( 'NONE', *, *, #213, .F. ) ;
#247 = VERTEX_POINT ( 'NONE', #295 ) ;
#248 = EDGE_CURVE ( 'NONE', #227, #226, #364, .T. ) ;
#249 = ORIENTED_EDGE ( 'NONE', *, *, #250, .F. ) ;
#250 = EDGE_CURVE ( 'NONE', #177, #226, #356, .T. ) ;
#251 = ORIENTED_EDGE ( 'NONE', *, *, #175, .T. ) ;
#252 = EDGE_CURVE ( 'NONE', #171, #247, #357, .T. ) ;
#253 = VERTEX_POINT ( 'NONE', #305 ) ;
#254 = VERTEX_POINT ( 'NONE', #355 ) ;
#255 = ADVANCED_FACE ( 'NONE', ( #345 ), #344, .T. ) ;
#256 = CARTESIAN_POINT ( 'NONE',  ( 6.443492927312249200, 7.000000000000002700, -12.70999208873385000 ) ) ;
#257 = SURFACE_STYLE_FILL_AREA ( #347 ) ;
#258 = COLOUR_RGB ( '',0.8235294117647058400, 0.8705882352941176600, 0.9803921568627450600 ) ;
#259 = SHAPE_DEFINITION_REPRESENTATION ( #335, #260 ) ;
#260 = ADVANCED_BREP_SHAPE_REPRESENTATION ( 'WDS-804-210', ( #182, #301 ), #261 ) ;
#261 =( GEOMETRIC_REPRESENTATION_CONTEXT ( 3 ) GLOBAL_UNCERTAINTY_ASSIGNED_CONTEXT ( ( #262 ) ) GLOBAL_UNIT_ASSIGNED_CONTEXT ( ( #265, #264, #263 ) ) REPRESENTATION_CONTEXT ( 'NONE', 'WORKASPACE' ) );
#262 = UNCERTAINTY_MEASURE_WITH_UNIT (LENGTH_MEASURE( 1.000000000000000100E-005 ), #265, 'distance_accuracy_value', 'NONE');
#263 =( NAMED_UNIT ( * ) SI_UNIT ( $, .STERADIAN. ) SOLID_ANGLE_UNIT ( ) );
#264 =( NAMED_UNIT ( * ) PLANE_ANGLE_UNIT ( ) SI_UNIT ( $, .RADIAN. ) );
#265 =( LENGTH_UNIT ( ) NAMED_UNIT ( * ) SI_UNIT ( .MILLI., .METRE. ) );
#266 = FILL_AREA_STYLE_COLOUR ( '', #258 ) ;
#267 = CARTESIAN_POINT ( 'NONE',  ( -6.443492927312250100, 7.000000000000002700, -12.70999208873385000 ) ) ;
#268 = CIRCLE ( 'NONE', #327, 14.24999999999999800 ) ;
#269 = DIRECTION ( 'NONE',  ( 0.0000000000000000000, 0.7071067811865456900, 0.7071067811865493500 ) ) ;
#270 = VECTOR ( 'NONE', #269, 1000.000000000000000 ) ;
#271 = CARTESIAN_POINT ( 'NONE',  ( 0.0000000000000000000, -3.061616997868384100E-016, 14.24999999999999800 ) ) ;
#272 = CARTESIAN_POINT ( 'NONE',  ( 6.443492927312247400, -1.734723475976807100E-015, -12.70999208873385000 ) ) ;
#273 = DIRECTION ( 'NONE',  ( 0.0000000000000000000, 0.0000000000000000000, 1.000000000000000000 ) ) ;
#274 = LINE ( 'NONE', #271, #270 ) ;
#275 = CARTESIAN_POINT ( 'NONE',  ( 0.0000000000000000000, -3.061616997868384100E-016, 0.0000000000000000000 ) ) ;
#276 = CARTESIAN_POINT ( 'NONE',  ( 0.0000000000000000000, 0.7499999999999997800, 15.00000000000000400 ) ) ;
#277 = FACE_OUTER_BOUND ( 'NONE', #172, .T. ) ;
#278 = DIRECTION ( 'NONE',  ( 0.7071067811865483500, -0.0000000000000000000, 0.7071067811865468000 ) ) ;
#279 = VECTOR ( 'NONE', #278, 1000.000000000000000 ) ;
#280 = CARTESIAN_POINT ( 'NONE',  ( -5.500000000000001800, 7.000000000000002700, -11.76649916142160100 ) ) ;
#281 = CARTESIAN_POINT ( 'NONE',  ( -7.000000000000000000, 0.7499999999999946700, -13.26649916142159700 ) ) ;
#282 = DIRECTION ( 'NONE',  ( 0.0000000000000000000, 1.000000000000000000, 0.0000000000000000000 ) ) ;
#283 = DIRECTION ( 'NONE',  ( 0.0000000000000000000, -0.0000000000000000000, 1.000000000000000000 ) ) ;
#284 = DIRECTION ( 'NONE',  ( 0.0000000000000000000, 1.000000000000000000, 0.0000000000000000000 ) ) ;
#285 = CARTESIAN_POINT ( 'NONE',  ( 5.500000000000000000, 7.000000000000002700, 0.0000000000000000000 ) ) ;
#286 = CONICAL_SURFACE ( 'NONE', #288, 14.24999999999999800, 0.7853981633974509400 ) ;
#287 = LINE ( 'NONE', #280, #279 ) ;
#288 = AXIS2_PLACEMENT_3D ( 'NONE', #275, #282, #273 ) ;
#289 = FACE_OUTER_BOUND ( 'NONE', #178, .T. ) ;
#290 = CARTESIAN_POINT ( 'NONE',  ( -5.500000000000001800, 7.000000000000002700, -11.76649916142160100 ) ) ;
#291 = DIRECTION ( 'NONE',  ( -1.474290230406324000E-016, 0.0000000000000000000, -1.000000000000000000 ) ) ;
#292 = VECTOR ( 'NONE', #291, 1000.000000000000000 ) ;
#293 = CARTESIAN_POINT ( 'NONE',  ( 5.500000000000000000, 7.000000000000002700, -6.735557395310441000E-016 ) ) ;
#294 = LINE ( 'NONE', #293, #292 ) ;
#295 = CARTESIAN_POINT ( 'NONE',  ( 5.500000000000000000, 7.000000000000002700, -6.735557395310441000E-016 ) ) ;
#296 = CARTESIAN_POINT ( 'NONE',  ( 5.499999999999998200, 7.000000000000002700, -11.76649916142160100 ) ) ;
#297 = APPLICATION_CONTEXT ( 'automotive_design' ) ;
#298 = DIRECTION ( 'NONE',  ( 1.000000000000000000, 0.0000000000000000000, 0.0000000000000000000 ) ) ;
#299 = DIRECTION ( 'NONE',  ( 0.0000000000000000000, 0.0000000000000000000, 1.000000000000000000 ) ) ;
#300 = CARTESIAN_POINT ( 'NONE',  ( 0.0000000000000000000, 0.0000000000000000000, 0.0000000000000000000 ) ) ;
#301 = AXIS2_PLACEMENT_3D ( 'NONE', #300, #299, #298 ) ;
#302 =( GEOMETRIC_REPRESENTATION_CONTEXT ( 3 ) GLOBAL_UNCERTAINTY_ASSIGNED_CONTEXT ( ( #303 ) ) GLOBAL_UNIT_ASSIGNED_CONTEXT ( ( #373, #372, #304 ) ) REPRESENTATION_CONTEXT ( 'NONE', 'WORKASPACE' ) );
#303 = UNCERTAINTY_MEASURE_WITH_UNIT (LENGTH_MEASURE( 1.000000000000000100E-005 ), #373, 'distance_accuracy_value', 'NONE');
#304 =( NAMED_UNIT ( * ) SI_UNIT ( $, .STERADIAN. ) SOLID_ANGLE_UNIT ( ) );
#305 = CARTESIAN_POINT ( 'NONE',  ( 5.499999999999998200, -1.734723475976807100E-015, -11.76649916142160100 ) ) ;
#306 = DIRECTION ( 'NONE',  ( 0.0000000000000000000, 0.0000000000000000000, -1.000000000000000000 ) ) ;
#307 = DIRECTION ( 'NONE',  ( -0.0000000000000000000, -1.000000000000000000, -0.0000000000000000000 ) ) ;
#308 = CARTESIAN_POINT ( 'NONE',  ( 0.0000000000000000000, 7.000000000000002700, 0.0000000000000000000 ) ) ;
#309 = AXIS2_PLACEMENT_3D ( 'NONE', #308, #307, #306 ) ;
#310 = LINE ( 'NONE', #367, #366 ) ;
#311 = DIRECTION ( 'NONE',  ( 0.0000000000000000000, 0.0000000000000000000, -1.000000000000000000 ) ) ;
#312 = DIRECTION ( 'NONE',  ( -0.0000000000000000000, -1.000000000000000000, -0.0000000000000000000 ) ) ;
#313 = CIRCLE ( 'NONE', #309, 5.500000000000000000 ) ;
#314 = CARTESIAN_POINT ( 'NONE',  ( 0.0000000000000000000, 0.0000000000000000000, 0.0000000000000000000 ) ) ;
#315 = DIRECTION ( 'NONE',  ( 1.474290230406324000E-016, -0.0000000000000000000, 1.000000000000000000 ) ) ;
#316 = VECTOR ( 'NONE', #315, 1000.000000000000000 ) ;
#317 = CARTESIAN_POINT ( 'NONE',  ( -5.500000000000000000, 7.000000000000002700, 6.735557395310443000E-016 ) ) ;
#318 = LINE ( 'NONE', #317, #316 ) ;
#319 = DIRECTION ( 'NONE',  ( 0.7071067811865483500, -0.0000000000000000000, 0.7071067811865468000 ) ) ;
#320 = VECTOR ( 'NONE', #319, 1000.000000000000000 ) ;
#321 = CARTESIAN_POINT ( 'NONE',  ( -5.500000000000001800, -1.734723475976807100E-015, -11.76649916142160100 ) ) ;
#322 = LINE ( 'NONE', #321, #320 ) ;
#323 = CYLINDRICAL_SURFACE ( 'NONE', #329, 5.500000000000000000 ) ;
#324 = DIRECTION ( 'NONE',  ( 0.0000000000000000000, 0.0000000000000000000, -1.000000000000000000 ) ) ;
#325 = DIRECTION ( 'NONE',  ( -0.0000000000000000000, -1.000000000000000000, -0.0000000000000000000 ) ) ;
#326 = CARTESIAN_POINT ( 'NONE',  ( 0.0000000000000000000, -3.061616997868384100E-016, 0.0000000000000000000 ) ) ;
#327 = AXIS2_PLACEMENT_3D ( 'NONE', #326, #325, #324 ) ;
#328 = CARTESIAN_POINT ( 'NONE',  ( -5.500000000000000000, 7.000000000000002700, 6.735557395310443000E-016 ) ) ;
#329 = AXIS2_PLACEMENT_3D ( 'NONE', #314, #312, #311 ) ;
#330 = DIRECTION ( 'NONE',  ( 0.7071067811865483500, 0.0000000000000000000, -0.7071067811865468000 ) ) ;
#331 = VECTOR ( 'NONE', #330, 1000.000000000000000 ) ;
#332 = CARTESIAN_POINT ( 'NONE',  ( 5.499999999999998200, 7.000000000000002700, -11.76649916142160100 ) ) ;
#333 = LINE ( 'NONE', #332, #331 ) ;
#334 = PLANE ( 'NONE',  #369 ) ;
#335 = PRODUCT_DEFINITION_SHAPE ( 'NONE', 'NONE',  #338 ) ;
#336 = PRODUCT_RELATED_PRODUCT_CATEGORY ( 'part', '', ( #342 ) ) ;
#337 = PRODUCT_DEFINITION_FORMATION_WITH_SPECIFIED_SOURCE ( 'ANY', '', #342, .NOT_KNOWN. ) ;
#338 = PRODUCT_DEFINITION ( 'UNKNOWN', '', #337, #339 ) ;
#339 = PRODUCT_DEFINITION_CONTEXT ( 'detailed design', #341, 'design' ) ;
#340 = APPLICATION_PROTOCOL_DEFINITION ( 'draft international standard', 'automotive_design', 1998, #341 ) ;
#341 = APPLICATION_CONTEXT ( 'automotive_design' ) ;
#342 = PRODUCT ( 'WDS-804-210', 'WDS-804-210', '', ( #343 ) ) ;
#343 = PRODUCT_CONTEXT ( 'NONE', #297, 'mechanical' ) ;
#344 = CONICAL_SURFACE ( 'NONE', #368, 14.99999999999999800, 0.7853981633974442800 ) ;
#345 = FACE_OUTER_BOUND ( 'NONE', #220, .T. ) ;
#346 = DIRECTION ( 'NONE',  ( -0.0000000000000000000, -1.000000000000000000, -0.0000000000000000000 ) ) ;
#347 = FILL_AREA_STYLE ('',( #266 ) ) ;
#348 = DIRECTION ( 'NONE',  ( -0.0000000000000000000, 1.000000000000000000, -0.0000000000000000000 ) ) ;
#349 = VECTOR ( 'NONE', #348, 1000.000000000000000 ) ;
#350 = CARTESIAN_POINT ( 'NONE',  ( 5.500000000000000000, -1.734723475976807100E-015, -6.735557395310441000E-016 ) ) ;
#351 = CARTESIAN_POINT ( 'NONE',  ( -7.000000000000000000, 0.7499999999999946700, -13.26649916142159700 ) ) ;
#352 = CARTESIAN_POINT ( 'NONE',  ( -6.814720787540048600, 0.4996692664034330700, -13.08121994896164600 ) ) ;
#353 = CARTESIAN_POINT ( 'NONE',  ( -6.629230435369220400, 0.2496505668411862200, -12.89572959679081900 ) ) ;
#354 = CARTESIAN_POINT ( 'NONE',  ( -6.443492927312249200, -3.061616997868384100E-016, -12.70999208873384700 ) ) ;
#355 = CARTESIAN_POINT ( 'NONE',  ( -5.500000000000001800, -1.734723475976807100E-015, -11.76649916142160100 ) ) ;
#356 = B_SPLINE_CURVE_WITH_KNOTS ( 'NONE', 3,
 ( #354, #353, #352, #351 ),
 .UNSPECIFIED., .F., .F.,
 ( 4, 4 ),
 ( 2.903129320716015500E-007, 0.001087442668355621400 ),
 .UNSPECIFIED. ) ;
#357 = LINE ( 'NONE', #350, #349 ) ;
#358 = DIRECTION ( 'NONE',  ( 0.0000000000000000000, 0.0000000000000000000, -1.000000000000000000 ) ) ;
#359 = DIRECTION ( 'NONE',  ( -0.0000000000000000000, -1.000000000000000000, -0.0000000000000000000 ) ) ;
#360 = CARTESIAN_POINT ( 'NONE',  ( 0.0000000000000000000, 0.7499999999999997800, 0.0000000000000000000 ) ) ;
#361 = AXIS2_PLACEMENT_3D ( 'NONE', #360, #359, #358 ) ;
#362 = CARTESIAN_POINT ( 'NONE',  ( 0.0000000000000000000, 6.250000000000000900, 0.0000000000000000000 ) ) ;
#363 = DIRECTION ( 'NONE',  ( 0.0000000000000000000, 0.0000000000000000000, -1.000000000000000000 ) ) ;
#364 = CIRCLE ( 'NONE', #361, 15.00000000000000400 ) ;
#365 = DIRECTION ( 'NONE',  ( -0.0000000000000000000, 1.000000000000000000, -0.0000000000000000000 ) ) ;
#366 = VECTOR ( 'NONE', #365, 1000.000000000000000 ) ;
#367 = CARTESIAN_POINT ( 'NONE',  ( -5.500000000000000000, -1.734723475976807100E-015, 6.735557395310443000E-016 ) ) ;
#368 = AXIS2_PLACEMENT_3D ( 'NONE', #362, #346, #363 ) ;
#369 = AXIS2_PLACEMENT_3D ( 'NONE', #285, #284, #283 ) ;
#370 = FACE_OUTER_BOUND ( 'NONE', #243, .T. ) ;
#371 = APPLICATION_PROTOCOL_DEFINITION ( 'draft international standard', 'automotive_design', 1998, #297 ) ;
#372 =( NAMED_UNIT ( * ) PLANE_ANGLE_UNIT ( ) SI_UNIT ( $, .RADIAN. ) );
#373 =( LENGTH_UNIT ( ) NAMED_UNIT ( * ) SI_UNIT ( .MILLI., .METRE. ) );
#374 = MECHANICAL_DESIGN_GEOMETRIC_PRESENTATION_REPRESENTATION (  '', ( #376 ), #302 ) ;
#375 = PRESENTATION_LAYER_ASSIGNMENT (  '', '', ( #376 ) ) ;
#376 = STYLED_ITEM ( 'NONE', ( #377 ), #260 ) ;
#377 = PRESENTATION_STYLE_ASSIGNMENT (( #378 ) ) ;
#378 = SURFACE_STYLE_USAGE ( .BOTH. , #379 ) ;
#379 = SURFACE_SIDE_STYLE ('',( #257 ) ) ;
ENDSEC;
END-ISO-10303-21;
