ISO-10303-21;
HEADER;
FILE_DESCRIPTION (( 'STEP AP214' ),
    '1' );
FILE_NAME ('WDS-803-216F.step',
    '2012-04-10T07:20:41',
    ( 'SysAdmin' ),
    ( 'SolidWorks' ),
    'SwSTEP 2.0',
    'SolidWorks 2012',
    '' );
FILE_SCHEMA (( 'AUTOMOTIVE_DESIGN' ));
ENDSEC;

DATA;
#1 = CIRCLE ( 'NONE', #17, 9.249999999999989300 ) ;
#2 = DIRECTION ( 'NONE',  ( 0.0000000000000000000, 0.0000000000000000000, -1.000000000000000000 ) ) ;
#3 = ORIENTED_EDGE ( 'NONE', *, *, #73, .F. ) ;
#4 = ORIENTED_EDGE ( 'NONE', *, *, #130, .F. ) ;
#5 = DIRECTION ( 'NONE',  ( -0.0000000000000000000, -1.000000000000000000, -0.0000000000000000000 ) ) ;
#6 = ORIENTED_EDGE ( 'NONE', *, *, #197, .F. ) ;
#7 = ADVANCED_FACE ( 'NONE', ( #147 ), #215, .T. ) ;
#8 = EDGE_CURVE ( 'NONE', #219, #118, #134, .T. ) ;
#9 = EDGE_LOOP ( 'NONE', ( #53, #56, #59, #61 ) ) ;
#10 = ADVANCED_FACE ( 'NONE', ( #128 ), #135, .F. ) ;
#11 = CARTESIAN_POINT ( 'NONE',  ( 0.0000000000000000000, 0.0000000000000000000, -17.50000000000000000 ) ) ;
#12 = LINE ( 'NONE', #11, #193 ) ;
#13 = ORIENTED_EDGE ( 'NONE', *, *, #138, .T. ) ;
#14 = CARTESIAN_POINT ( 'NONE',  ( 0.0000000000000000000, 3.152961988249637600, 0.0000000000000000000 ) ) ;
#15 = DIRECTION ( 'NONE',  ( -0.0000000000000000000, -1.000000000000000000, -0.0000000000000000000 ) ) ;
#16 = CLOSED_SHELL ( 'NONE', ( #71, #29, #87, #265, #79, #39, #7, #54, #10, #50 ) ) ;
#17 = AXIS2_PLACEMENT_3D ( 'NONE', #14, #5, #2 ) ;
#18 = ORIENTED_EDGE ( 'NONE', *, *, #19, .T. ) ;
#19 = EDGE_CURVE ( 'NONE', #33, #20, #208, .T. ) ;
#20 = VERTEX_POINT ( 'NONE', #210 ) ;
#21 = EDGE_CURVE ( 'NONE', #219, #22, #125, .T. ) ;
#22 = VERTEX_POINT ( 'NONE', #254 ) ;
#23 = ORIENTED_EDGE ( 'NONE', *, *, #130, .T. ) ;
#24 = EDGE_CURVE ( 'NONE', #198, #78, #253, .T. ) ;
#25 = VERTEX_POINT ( 'NONE', #226 ) ;
#26 = ORIENTED_EDGE ( 'NONE', *, *, #24, .F. ) ;
#27 = EDGE_LOOP ( 'NONE', ( #28, #18, #88, #83 ) ) ;
#28 = ORIENTED_EDGE ( 'NONE', *, *, #81, .F. ) ;
#29 = ADVANCED_FACE ( 'NONE', ( #227 ), #126, .T. ) ;
#30 = ORIENTED_EDGE ( 'NONE', *, *, #218, .F. ) ;
#31 = ORIENTED_EDGE ( 'NONE', *, *, #21, .T. ) ;
#32 = VERTEX_POINT ( 'NONE', #143 ) ;
#33 = VERTEX_POINT ( 'NONE', #142 ) ;
#34 = EDGE_LOOP ( 'NONE', ( #41, #40 ) ) ;
#35 = ORIENTED_EDGE ( 'NONE', *, *, #42, .F. ) ;
#36 = ORIENTED_EDGE ( 'NONE', *, *, #43, .T. ) ;
#37 = EDGE_LOOP ( 'NONE', ( #6, #49 ) ) ;
#38 = EDGE_LOOP ( 'NONE', ( #44, #35, #52, #66 ) ) ;
#39 = ADVANCED_FACE ( 'NONE', ( #122, #120 ), #255, .T. ) ;
#40 = ORIENTED_EDGE ( 'NONE', *, *, #81, .T. ) ;
#41 = ORIENTED_EDGE ( 'NONE', *, *, #42, .T. ) ;
#42 = EDGE_CURVE ( 'NONE', #25, #33, #225, .T. ) ;
#43 = EDGE_CURVE ( 'NONE', #220, #32, #228, .T. ) ;
#44 = ORIENTED_EDGE ( 'NONE', *, *, #19, .F. ) ;
#45 = ORIENTED_EDGE ( 'NONE', *, *, #43, .F. ) ;
#46 = EDGE_CURVE ( 'NONE', #78, #263, #204, .T. ) ;
#47 = EDGE_LOOP ( 'NONE', ( #62, #63 ) ) ;
#48 = ORIENTED_EDGE ( 'NONE', *, *, #46, .T. ) ;
#49 = ORIENTED_EDGE ( 'NONE', *, *, #8, .F. ) ;
#50 = ADVANCED_FACE ( 'NONE', ( #249, #200 ), #141, .F. ) ;
#51 = EDGE_LOOP ( 'NONE', ( #3, #57, #60, #48, #55 ) ) ;
#52 = ORIENTED_EDGE ( 'NONE', *, *, #82, .T. ) ;
#53 = ORIENTED_EDGE ( 'NONE', *, *, #21, .F. ) ;
#54 = ADVANCED_FACE ( 'NONE', ( #257 ), #258, .T. ) ;
#55 = ORIENTED_EDGE ( 'NONE', *, *, #85, .T. ) ;
#56 = ORIENTED_EDGE ( 'NONE', *, *, #8, .T. ) ;
#57 = ORIENTED_EDGE ( 'NONE', *, *, #58, .F. ) ;
#58 = EDGE_CURVE ( 'NONE', #198, #152, #174, .T. ) ;
#59 = ORIENTED_EDGE ( 'NONE', *, *, #149, .T. ) ;
#60 = ORIENTED_EDGE ( 'NONE', *, *, #24, .T. ) ;
#61 = ORIENTED_EDGE ( 'NONE', *, *, #64, .F. ) ;
#62 = ORIENTED_EDGE ( 'NONE', *, *, #58, .T. ) ;
#63 = ORIENTED_EDGE ( 'NONE', *, *, #196, .T. ) ;
#64 = EDGE_CURVE ( 'NONE', #22, #20, #176, .T. ) ;
#65 = EDGE_LOOP ( 'NONE', ( #45, #67 ) ) ;
#66 = ORIENTED_EDGE ( 'NONE', *, *, #64, .T. ) ;
#67 = ORIENTED_EDGE ( 'NONE', *, *, #264, .F. ) ;
#68 = EDGE_LOOP ( 'NONE', ( #70, #76, #69, #23, #26 ) ) ;
#69 = ORIENTED_EDGE ( 'NONE', *, *, #77, .T. ) ;
#70 = ORIENTED_EDGE ( 'NONE', *, *, #196, .F. ) ;
#71 = ADVANCED_FACE ( 'NONE', ( #177 ), #163, .F. ) ;
#72 = VERTEX_POINT ( 'NONE', #158 ) ;
#73 = EDGE_CURVE ( 'NONE', #152, #74, #154, .T. ) ;
#74 = VERTEX_POINT ( 'NONE', #169 ) ;
#75 = EDGE_LOOP ( 'NONE', ( #137, #31, #30, #84 ) ) ;
#76 = ORIENTED_EDGE ( 'NONE', *, *, #73, .T. ) ;
#77 = EDGE_CURVE ( 'NONE', #74, #72, #160, .T. ) ;
#78 = VERTEX_POINT ( 'NONE', #155 ) ;
#79 = ADVANCED_FACE ( 'NONE', ( #110 ), #232, .F. ) ;
#80 = ORIENTED_EDGE ( 'NONE', *, *, #46, .F. ) ;
#81 = EDGE_CURVE ( 'NONE', #33, #25, #105, .T. ) ;
#82 = EDGE_CURVE ( 'NONE', #25, #22, #108, .T. ) ;
#83 = ORIENTED_EDGE ( 'NONE', *, *, #82, .F. ) ;
#84 = ORIENTED_EDGE ( 'NONE', *, *, #149, .F. ) ;
#85 = EDGE_CURVE ( 'NONE', #263, #74, #104, .T. ) ;
#86 = EDGE_LOOP ( 'NONE', ( #151, #80, #4, #13, #36 ) ) ;
#87 = ADVANCED_FACE ( 'NONE', ( #94 ), #195, .T. ) ;
#88 = ORIENTED_EDGE ( 'NONE', *, *, #218, .T. ) ;
#89 = CIRCLE ( 'NONE', #329, 17.29295384585958200 ) ;
#90 = DIRECTION ( 'NONE',  ( 0.0000000000000000000, 0.0000000000000000000, -1.000000000000000000 ) ) ;
#91 = DIRECTION ( 'NONE',  ( -0.0000000000000000000, -1.000000000000000000, -0.0000000000000000000 ) ) ;
#92 = CARTESIAN_POINT ( 'NONE',  ( 0.0000000000000000000, 3.152961988249637600, 0.0000000000000000000 ) ) ;
#93 = DIRECTION ( 'NONE',  ( 0.0000000000000000000, 1.000000000000000000, 0.0000000000000000000 ) ) ;
#94 = FACE_OUTER_BOUND ( 'NONE', #27, .T. ) ;
#95 = DIRECTION ( 'NONE',  ( 0.0000000000000000000, 0.7071067811865472400, 0.7071067811865479100 ) ) ;
#96 = VECTOR ( 'NONE', #95, 999.9999999999998900 ) ;
#97 = CARTESIAN_POINT ( 'NONE',  ( 0.0000000000000000000, 0.0000000000000000000, 17.00000000000000000 ) ) ;
#98 = CARTESIAN_POINT ( 'NONE',  ( 0.0000000000000000000, 6.000000000000000900, -17.50000000000000000 ) ) ;
#99 = DIRECTION ( 'NONE',  ( 0.0000000000000000000, 0.0000000000000000000, -1.000000000000000000 ) ) ;
#100 = DIRECTION ( 'NONE',  ( -0.0000000000000000000, -1.000000000000000000, -0.0000000000000000000 ) ) ;
#101 = CARTESIAN_POINT ( 'NONE',  ( 0.0000000000000000000, 0.0000000000000000000, 0.0000000000000000000 ) ) ;
#102 = FILL_AREA_STYLE_COLOUR ( '', #191 ) ;
#103 = AXIS2_PLACEMENT_3D ( 'NONE', #92, #91, #90 ) ;
#104 = CIRCLE ( 'NONE', #103, 9.249999999999989300 ) ;
#105 = CIRCLE ( 'NONE', #156, 17.00000000000000000 ) ;
#106 = CARTESIAN_POINT ( 'NONE',  ( 0.0000000000000000000, 0.0000000000000000000, 0.0000000000000000000 ) ) ;
#107 = DIRECTION ( 'NONE',  ( 0.0000000000000000000, 0.0000000000000000000, -1.000000000000000000 ) ) ;
#108 = LINE ( 'NONE', #97, #96 ) ;
#109 = AXIS2_PLACEMENT_3D ( 'NONE', #106, #93, #192 ) ;
#110 = FACE_OUTER_BOUND ( 'NONE', #86, .T. ) ;
#111 = DIRECTION ( 'NONE',  ( 0.0000000000000000000, 0.0000000000000000000, -1.000000000000000000 ) ) ;
#112 = DIRECTION ( 'NONE',  ( -0.0000000000000000000, -1.000000000000000000, -0.0000000000000000000 ) ) ;
#113 = DIRECTION ( 'NONE',  ( -0.0000000000000000000, -1.000000000000000000, -0.0000000000000000000 ) ) ;
#114 = CARTESIAN_POINT ( 'NONE',  ( 0.0000000000000000000, 0.0000000000000000000, 0.0000000000000000000 ) ) ;
#115 = DIRECTION ( 'NONE',  ( 1.000000000000000000, 0.0000000000000000000, -1.224646799147353200E-016 ) ) ;
#116 = DIRECTION ( 'NONE',  ( 1.224646799147353200E-016, -0.0000000000000000000, 1.000000000000000000 ) ) ;
#117 = ORIENTED_EDGE ( 'NONE', *, *, #77, .F. ) ;
#118 = VERTEX_POINT ( 'NONE', #98 ) ;
#119 = AXIS2_PLACEMENT_3D ( 'NONE', #261, #260, #259 ) ;
#120 = FACE_BOUND ( 'NONE', #65, .T. ) ;
#121 = CARTESIAN_POINT ( 'NONE',  ( 0.0000000000000000000, 0.0000000000000000000, 0.0000000000000000000 ) ) ;
#122 = FACE_OUTER_BOUND ( 'NONE', #34, .T. ) ;
#123 = DIRECTION ( 'NONE',  ( -0.0000000000000000000, -1.000000000000000000, -0.0000000000000000000 ) ) ;
#124 = DIRECTION ( 'NONE',  ( -1.000000000000000000, 0.0000000000000000000, 0.0000000000000000000 ) ) ;
#125 = LINE ( 'NONE', #252, #251 ) ;
#126 = CYLINDRICAL_SURFACE ( 'NONE', #211, 17.50000000000000000 ) ;
#127 = MANIFOLD_SOLID_BREP ( 'Cut-Revolve1', #16 ) ;
#128 = FACE_OUTER_BOUND ( 'NONE', #51, .T. ) ;
#129 = CARTESIAN_POINT ( 'NONE',  ( 0.0000000000000000000, 42.06873642484539700, 0.0000000000000000000 ) ) ;
#130 = EDGE_CURVE ( 'NONE', #72, #78, #1, .T. ) ;
#131 = DIRECTION ( 'NONE',  ( 0.0000000000000000000, 0.0000000000000000000, -1.000000000000000000 ) ) ;
#132 = DIRECTION ( 'NONE',  ( -0.0000000000000000000, -1.000000000000000000, -0.0000000000000000000 ) ) ;
#133 = CARTESIAN_POINT ( 'NONE',  ( 0.0000000000000000000, 6.000000000000000900, 0.0000000000000000000 ) ) ;
#134 = CIRCLE ( 'NONE', #216, 17.50000000000000000 ) ;
#135 = SPHERICAL_SURFACE ( 'NONE', #146, 40.00000000000000000 ) ;
#136 = CARTESIAN_POINT ( 'NONE',  ( 0.0000000000000000000, 42.06873642484539700, 0.0000000000000000000 ) ) ;
#137 = ORIENTED_EDGE ( 'NONE', *, *, #197, .T. ) ;
#138 = EDGE_CURVE ( 'NONE', #72, #220, #188, .T. ) ;
#139 = AXIS2_PLACEMENT_3D ( 'NONE', #246, #245, #244 ) ;
#140 = DIRECTION ( 'NONE',  ( 0.0000000000000000000, 0.0000000000000000000, -1.000000000000000000 ) ) ;
#141 = PLANE ( 'NONE',  #256 ) ;
#142 = CARTESIAN_POINT ( 'NONE',  ( 2.112515728529184100E-015, 0.0000000000000000000, -17.00000000000000000 ) ) ;
#143 = CARTESIAN_POINT ( 'NONE',  ( 1.132798289211301700E-015, 0.0000000000000000000, 9.250000000000001800 ) ) ;
#144 = AXIS2_PLACEMENT_3D ( 'NONE', #214, #213, #212 ) ;
#145 = DIRECTION ( 'NONE',  ( 0.0000000000000000000, 0.0000000000000000000, 1.000000000000000000 ) ) ;
#146 = AXIS2_PLACEMENT_3D ( 'NONE', #136, #145, #209 ) ;
#147 = FACE_OUTER_BOUND ( 'NONE', #38, .T. ) ;
#148 = EDGE_LOOP ( 'NONE', ( #262, #222, #150, #221, #117 ) ) ;
#149 = EDGE_CURVE ( 'NONE', #118, #20, #12, .T. ) ;
#150 = ORIENTED_EDGE ( 'NONE', *, *, #264, .T. ) ;
#151 = ORIENTED_EDGE ( 'NONE', *, *, #223, .F. ) ;
#152 = VERTEX_POINT ( 'NONE', #266 ) ;
#153 = CARTESIAN_POINT ( 'NONE',  ( 0.0000000000000000000, 42.06873642484539700, 0.0000000000000000000 ) ) ;
#154 = CIRCLE ( 'NONE', #162, 40.00000000000000000 ) ;
#155 = CARTESIAN_POINT ( 'NONE',  ( 9.249999999999989300, 3.152961988249637600, 0.0000000000000000000 ) ) ;
#156 = AXIS2_PLACEMENT_3D ( 'NONE', #101, #100, #99 ) ;
#157 = AXIS2_PLACEMENT_3D ( 'NONE', #114, #113, #107 ) ;
#158 = CARTESIAN_POINT ( 'NONE',  ( 0.0000000000000000000, 3.152961988249637600, -9.249999999999989300 ) ) ;
#159 = DIRECTION ( 'NONE',  ( 1.000000000000000000, 0.0000000000000000000, 0.0000000000000000000 ) ) ;
#160 = CIRCLE ( 'NONE', #167, 9.249999999999989300 ) ;
#161 = CARTESIAN_POINT ( 'NONE',  ( 0.0000000000000000000, 3.152961988249637600, 0.0000000000000000000 ) ) ;
#162 = AXIS2_PLACEMENT_3D ( 'NONE', #153, #116, #115 ) ;
#163 = SPHERICAL_SURFACE ( 'NONE', #175, 40.00000000000000000 ) ;
#164 = DIRECTION ( 'NONE',  ( 0.0000000000000000000, 0.0000000000000000000, -1.000000000000000000 ) ) ;
#165 = DIRECTION ( 'NONE',  ( -0.0000000000000000000, -1.000000000000000000, -0.0000000000000000000 ) ) ;
#166 = CARTESIAN_POINT ( 'NONE',  ( 0.0000000000000000000, 0.5000000000000000000, 0.0000000000000000000 ) ) ;
#167 = AXIS2_PLACEMENT_3D ( 'NONE', #161, #112, #111 ) ;
#168 = AXIS2_PLACEMENT_3D ( 'NONE', #166, #165, #164 ) ;
#169 = CARTESIAN_POINT ( 'NONE',  ( -9.249999999999989300, 3.152961988249637600, 1.625287173362392900E-015 ) ) ;
#170 = DIRECTION ( 'NONE',  ( 0.0000000000000000000, 0.0000000000000000000, -1.000000000000000000 ) ) ;
#171 = DIRECTION ( 'NONE',  ( -0.0000000000000000000, -1.000000000000000000, -0.0000000000000000000 ) ) ;
#172 = CARTESIAN_POINT ( 'NONE',  ( 0.0000000000000000000, 5.999999999999998200, 0.0000000000000000000 ) ) ;
#173 = AXIS2_PLACEMENT_3D ( 'NONE', #172, #171, #170 ) ;
#174 = CIRCLE ( 'NONE', #173, 17.29295384585958200 ) ;
#175 = AXIS2_PLACEMENT_3D ( 'NONE', #199, #178, #159 ) ;
#176 = CIRCLE ( 'NONE', #168, 17.50000000000000000 ) ;
#177 = FACE_OUTER_BOUND ( 'NONE', #68, .T. ) ;
#178 = DIRECTION ( 'NONE',  ( 0.0000000000000000000, 0.0000000000000000000, 1.000000000000000000 ) ) ;
#179 = DIRECTION ( 'NONE',  ( 0.0000000000000000000, 0.0000000000000000000, -1.000000000000000000 ) ) ;
#180 = DIRECTION ( 'NONE',  ( -0.0000000000000000000, -1.000000000000000000, -0.0000000000000000000 ) ) ;
#181 = CARTESIAN_POINT ( 'NONE',  ( 0.0000000000000000000, 0.0000000000000000000, 0.0000000000000000000 ) ) ;
#182 = AXIS2_PLACEMENT_3D ( 'NONE', #181, #180, #179 ) ;
#183 = DIRECTION ( 'NONE',  ( 0.0000000000000000000, 0.0000000000000000000, -1.000000000000000000 ) ) ;
#184 = DIRECTION ( 'NONE',  ( 0.0000000000000000000, -1.000000000000000000, -0.0000000000000000000 ) ) ;
#185 = CARTESIAN_POINT ( 'NONE',  ( 17.50000000000000000, 6.000000000000000000, 0.0000000000000000000 ) ) ;
#186 = VECTOR ( 'NONE', #15, 1000.000000000000000 ) ;
#187 = CARTESIAN_POINT ( 'NONE',  ( 0.0000000000000000000, 0.0000000000000000000, -9.249999999999994700 ) ) ;
#188 = LINE ( 'NONE', #187, #186 ) ;
#189 =( GEOMETRIC_REPRESENTATION_CONTEXT ( 3 ) GLOBAL_UNCERTAINTY_ASSIGNED_CONTEXT ( ( #190 ) ) GLOBAL_UNIT_ASSIGNED_CONTEXT ( ( #235, #234, #233 ) ) REPRESENTATION_CONTEXT ( 'NONE', 'WORKASPACE' ) );
#190 = UNCERTAINTY_MEASURE_WITH_UNIT (LENGTH_MEASURE( 1.000000000000000100E-005 ), #235, 'distance_accuracy_value', 'NONE');
#191 = COLOUR_RGB ( '',0.8235294117647058400, 0.8705882352941176600, 0.9803921568627450600 ) ;
#192 = DIRECTION ( 'NONE',  ( 0.0000000000000000000, 0.0000000000000000000, 1.000000000000000000 ) ) ;
#193 = VECTOR ( 'NONE', #194, 1000.000000000000000 ) ;
#194 = DIRECTION ( 'NONE',  ( -0.0000000000000000000, -1.000000000000000000, -0.0000000000000000000 ) ) ;
#195 = CONICAL_SURFACE ( 'NONE', #109, 17.00000000000000000, 0.7853981633974487200 ) ;
#196 = EDGE_CURVE ( 'NONE', #152, #198, #89, .T. ) ;
#197 = EDGE_CURVE ( 'NONE', #118, #219, #327, .T. ) ;
#198 = VERTEX_POINT ( 'NONE', #306 ) ;
#199 = CARTESIAN_POINT ( 'NONE',  ( 0.0000000000000000000, 42.06873642484539700, 0.0000000000000000000 ) ) ;
#200 = FACE_BOUND ( 'NONE', #47, .T. ) ;
#201 = DIRECTION ( 'NONE',  ( 0.0000000000000000000, 0.0000000000000000000, -1.000000000000000000 ) ) ;
#202 = DIRECTION ( 'NONE',  ( -0.0000000000000000000, -1.000000000000000000, -0.0000000000000000000 ) ) ;
#203 = CARTESIAN_POINT ( 'NONE',  ( 0.0000000000000000000, 0.0000000000000000000, 0.0000000000000000000 ) ) ;
#204 = CIRCLE ( 'NONE', #119, 9.249999999999989300 ) ;
#205 = DIRECTION ( 'NONE',  ( 8.659560562354937800E-017, 0.7071067811865472400, -0.7071067811865479100 ) ) ;
#206 = VECTOR ( 'NONE', #205, 999.9999999999998900 ) ;
#207 = CARTESIAN_POINT ( 'NONE',  ( 2.081899558550500300E-015, 0.0000000000000000000, -17.00000000000000000 ) ) ;
#208 = LINE ( 'NONE', #207, #206 ) ;
#209 = DIRECTION ( 'NONE',  ( 1.000000000000000000, 0.0000000000000000000, 0.0000000000000000000 ) ) ;
#210 = CARTESIAN_POINT ( 'NONE',  ( 2.143131898507867900E-015, 0.5000000000000000000, -17.50000000000000000 ) ) ;
#211 = AXIS2_PLACEMENT_3D ( 'NONE', #121, #123, #140 ) ;
#212 = DIRECTION ( 'NONE',  ( 0.0000000000000000000, 0.0000000000000000000, 1.000000000000000000 ) ) ;
#213 = DIRECTION ( 'NONE',  ( 0.0000000000000000000, 1.000000000000000000, 0.0000000000000000000 ) ) ;
#214 = CARTESIAN_POINT ( 'NONE',  ( 0.0000000000000000000, 0.0000000000000000000, 0.0000000000000000000 ) ) ;
#215 = CONICAL_SURFACE ( 'NONE', #144, 17.00000000000000000, 0.7853981633974487200 ) ;
#216 = AXIS2_PLACEMENT_3D ( 'NONE', #133, #132, #131 ) ;
#217 = AXIS2_PLACEMENT_3D ( 'NONE', #129, #224, #124 ) ;
#218 = EDGE_CURVE ( 'NONE', #20, #22, #307, .T. ) ;
#219 = VERTEX_POINT ( 'NONE', #308 ) ;
#220 = VERTEX_POINT ( 'NONE', #304 ) ;
#221 = ORIENTED_EDGE ( 'NONE', *, *, #138, .F. ) ;
#222 = ORIENTED_EDGE ( 'NONE', *, *, #223, .T. ) ;
#223 = EDGE_CURVE ( 'NONE', #263, #32, #343, .T. ) ;
#224 = DIRECTION ( 'NONE',  ( 0.0000000000000000000, 0.0000000000000000000, -1.000000000000000000 ) ) ;
#225 = CIRCLE ( 'NONE', #247, 17.00000000000000000 ) ;
#226 = CARTESIAN_POINT ( 'NONE',  ( 0.0000000000000000000, 0.0000000000000000000, 17.00000000000000000 ) ) ;
#227 = FACE_OUTER_BOUND ( 'NONE', #75, .T. ) ;
#228 = CIRCLE ( 'NONE', #248, 9.250000000000000000 ) ;
#229 = DIRECTION ( 'NONE',  ( 0.0000000000000000000, 0.0000000000000000000, -1.000000000000000000 ) ) ;
#230 = DIRECTION ( 'NONE',  ( -0.0000000000000000000, -1.000000000000000000, -0.0000000000000000000 ) ) ;
#231 = CARTESIAN_POINT ( 'NONE',  ( 0.0000000000000000000, 0.0000000000000000000, 0.0000000000000000000 ) ) ;
#232 = CYLINDRICAL_SURFACE ( 'NONE', #157, 9.249999999999994700 ) ;
#233 =( NAMED_UNIT ( * ) SI_UNIT ( $, .STERADIAN. ) SOLID_ANGLE_UNIT ( ) );
#234 =( NAMED_UNIT ( * ) PLANE_ANGLE_UNIT ( ) SI_UNIT ( $, .RADIAN. ) );
#235 =( LENGTH_UNIT ( ) NAMED_UNIT ( * ) SI_UNIT ( .MILLI., .METRE. ) );
#236 = MECHANICAL_DESIGN_GEOMETRIC_PRESENTATION_REPRESENTATION (  '', ( #238 ), #189 ) ;
#237 = PRESENTATION_LAYER_ASSIGNMENT (  '', '', ( #238 ) ) ;
#238 = STYLED_ITEM ( 'NONE', ( #239 ), #127 ) ;
#239 = PRESENTATION_STYLE_ASSIGNMENT (( #240 ) ) ;
#240 = SURFACE_STYLE_USAGE ( .BOTH. , #241 ) ;
#241 = SURFACE_SIDE_STYLE ('',( #242 ) ) ;
#242 = SURFACE_STYLE_FILL_AREA ( #243 ) ;
#243 = FILL_AREA_STYLE ('',( #102 ) ) ;
#244 = DIRECTION ( 'NONE',  ( 0.0000000000000000000, 0.0000000000000000000, -1.000000000000000000 ) ) ;
#245 = DIRECTION ( 'NONE',  ( 0.0000000000000000000, -1.000000000000000000, -0.0000000000000000000 ) ) ;
#246 = CARTESIAN_POINT ( 'NONE',  ( 9.250000000000000000, 0.0000000000000000000, 0.0000000000000000000 ) ) ;
#247 = AXIS2_PLACEMENT_3D ( 'NONE', #231, #230, #229 ) ;
#248 = AXIS2_PLACEMENT_3D ( 'NONE', #203, #202, #201 ) ;
#249 = FACE_OUTER_BOUND ( 'NONE', #37, .T. ) ;
#250 = DIRECTION ( 'NONE',  ( -0.0000000000000000000, -1.000000000000000000, -0.0000000000000000000 ) ) ;
#251 = VECTOR ( 'NONE', #250, 1000.000000000000000 ) ;
#252 = CARTESIAN_POINT ( 'NONE',  ( 2.143131898507868200E-015, 0.0000000000000000000, 17.50000000000000000 ) ) ;
#253 = CIRCLE ( 'NONE', #217, 40.00000000000000000 ) ;
#254 = CARTESIAN_POINT ( 'NONE',  ( 0.0000000000000000000, 0.5000000000000000000, 17.50000000000000000 ) ) ;
#255 = PLANE ( 'NONE',  #139 ) ;
#256 = AXIS2_PLACEMENT_3D ( 'NONE', #185, #184, #183 ) ;
#257 = FACE_OUTER_BOUND ( 'NONE', #9, .T. ) ;
#258 = CYLINDRICAL_SURFACE ( 'NONE', #182, 17.50000000000000000 ) ;
#259 = DIRECTION ( 'NONE',  ( 0.0000000000000000000, 0.0000000000000000000, -1.000000000000000000 ) ) ;
#260 = DIRECTION ( 'NONE',  ( -0.0000000000000000000, -1.000000000000000000, -0.0000000000000000000 ) ) ;
#261 = CARTESIAN_POINT ( 'NONE',  ( 0.0000000000000000000, 3.152961988249637600, 0.0000000000000000000 ) ) ;
#262 = ORIENTED_EDGE ( 'NONE', *, *, #85, .F. ) ;
#263 = VERTEX_POINT ( 'NONE', #339 ) ;
#264 = EDGE_CURVE ( 'NONE', #32, #220, #305, .T. ) ;
#265 = ADVANCED_FACE ( 'NONE', ( #286 ), #328, .F. ) ;
#266 = CARTESIAN_POINT ( 'NONE',  ( -17.29295384585959600, 5.999999999999998200, 2.117776057513487300E-015 ) ) ;
#267 =( LENGTH_UNIT ( ) NAMED_UNIT ( * ) SI_UNIT ( .MILLI., .METRE. ) );
#268 = MECHANICAL_DESIGN_GEOMETRIC_PRESENTATION_REPRESENTATION (  '', ( #270 ), #299 ) ;
#269 = PRESENTATION_LAYER_ASSIGNMENT (  '', '', ( #270 ) ) ;
#270 = STYLED_ITEM ( 'NONE', ( #271 ), #280 ) ;
#271 = PRESENTATION_STYLE_ASSIGNMENT (( #272 ) ) ;
#272 = SURFACE_STYLE_USAGE ( .BOTH. , #273 ) ;
#273 = SURFACE_SIDE_STYLE ('',( #274 ) ) ;
#274 = SURFACE_STYLE_FILL_AREA ( #336 ) ;
#275 = COLOUR_RGB ( '',0.8235294117647058400, 0.8705882352941176600, 0.9803921568627450600 ) ;
#276 = DIRECTION ( 'NONE',  ( 1.000000000000000000, 0.0000000000000000000, 0.0000000000000000000 ) ) ;
#277 = DIRECTION ( 'NONE',  ( 0.0000000000000000000, 0.0000000000000000000, 1.000000000000000000 ) ) ;
#278 = CARTESIAN_POINT ( 'NONE',  ( 0.0000000000000000000, 0.0000000000000000000, 0.0000000000000000000 ) ) ;
#279 = AXIS2_PLACEMENT_3D ( 'NONE', #278, #277, #276 ) ;
#280 = ADVANCED_BREP_SHAPE_REPRESENTATION ( '', ( #127, #279 ), #281 ) ;
#281 =( GEOMETRIC_REPRESENTATION_CONTEXT ( 3 ) GLOBAL_UNCERTAINTY_ASSIGNED_CONTEXT ( ( #282 ) ) GLOBAL_UNIT_ASSIGNED_CONTEXT ( ( #290, #335, #283 ) ) REPRESENTATION_CONTEXT ( 'NONE', 'WORKASPACE' ) );
#282 = UNCERTAINTY_MEASURE_WITH_UNIT (LENGTH_MEASURE( 1.000000000000000100E-005 ), #290, 'distance_accuracy_value', 'NONE');
#283 =( NAMED_UNIT ( * ) SI_UNIT ( $, .STERADIAN. ) SOLID_ANGLE_UNIT ( ) );
#284 = CARTESIAN_POINT ( 'NONE',  ( 0.0000000000000000000, 5.999999999999998200, 0.0000000000000000000 ) ) ;
#285 = AXIS2_PLACEMENT_3D ( 'NONE', #317, #296, #295 ) ;
#286 = FACE_OUTER_BOUND ( 'NONE', #148, .T. ) ;
#287 = DIRECTION ( 'NONE',  ( 0.0000000000000000000, 0.0000000000000000000, -1.000000000000000000 ) ) ;
#288 = DIRECTION ( 'NONE',  ( -0.0000000000000000000, -1.000000000000000000, -0.0000000000000000000 ) ) ;
#289 = CARTESIAN_POINT ( 'NONE',  ( 0.0000000000000000000, 0.0000000000000000000, 0.0000000000000000000 ) ) ;
#290 =( LENGTH_UNIT ( ) NAMED_UNIT ( * ) SI_UNIT ( .MILLI., .METRE. ) );
#291 = AXIS2_PLACEMENT_3D ( 'NONE', #325, #324, #323 ) ;
#292 = DIRECTION ( 'NONE',  ( 0.0000000000000000000, 0.0000000000000000000, -1.000000000000000000 ) ) ;
#293 = DIRECTION ( 'NONE',  ( -0.0000000000000000000, -1.000000000000000000, -0.0000000000000000000 ) ) ;
#294 = AXIS2_PLACEMENT_3D ( 'NONE', #315, #314, #313 ) ;
#295 = DIRECTION ( 'NONE',  ( 1.000000000000000000, 0.0000000000000000000, 0.0000000000000000000 ) ) ;
#296 = DIRECTION ( 'NONE',  ( 0.0000000000000000000, 0.0000000000000000000, 1.000000000000000000 ) ) ;
#297 = SHAPE_REPRESENTATION_RELATIONSHIP ( 'NONE' , 'NONE' ,  #298, #280 ) ;
#298 = SHAPE_REPRESENTATION ( 'WDS-803-216F_803F_803-216F', ( #279 ), #281 ) ;
#299 =( GEOMETRIC_REPRESENTATION_CONTEXT ( 3 ) GLOBAL_UNCERTAINTY_ASSIGNED_CONTEXT ( ( #300 ) ) GLOBAL_UNIT_ASSIGNED_CONTEXT ( ( #267, #302, #301 ) ) REPRESENTATION_CONTEXT ( 'NONE', 'WORKASPACE' ) );
#300 = UNCERTAINTY_MEASURE_WITH_UNIT (LENGTH_MEASURE( 1.000000000000000100E-005 ), #267, 'distance_accuracy_value', 'NONE');
#301 =( NAMED_UNIT ( * ) SI_UNIT ( $, .STERADIAN. ) SOLID_ANGLE_UNIT ( ) );
#302 =( NAMED_UNIT ( * ) PLANE_ANGLE_UNIT ( ) SI_UNIT ( $, .RADIAN. ) );
#303 = AXIS2_PLACEMENT_3D ( 'NONE', #326, #334, #333 ) ;
#304 = CARTESIAN_POINT ( 'NONE',  ( 0.0000000000000000000, 0.0000000000000000000, -9.250000000000000000 ) ) ;
#305 = CIRCLE ( 'NONE', #338, 9.250000000000000000 ) ;
#306 = CARTESIAN_POINT ( 'NONE',  ( 17.29295384585959600, 5.999999999999998200, 0.0000000000000000000 ) ) ;
#307 = CIRCLE ( 'NONE', #303, 17.50000000000000000 ) ;
#308 = CARTESIAN_POINT ( 'NONE',  ( 2.143131898507868200E-015, 6.000000000000000900, 17.50000000000000000 ) ) ;
#309 = DIRECTION ( 'NONE',  ( 1.000000000000000000, 0.0000000000000000000, 0.0000000000000000000 ) ) ;
#310 = DIRECTION ( 'NONE',  ( 0.0000000000000000000, 0.0000000000000000000, 1.000000000000000000 ) ) ;
#311 = CARTESIAN_POINT ( 'NONE',  ( 0.0000000000000000000, 0.0000000000000000000, 0.0000000000000000000 ) ) ;
#312 = AXIS2_PLACEMENT_3D ( 'NONE', #311, #310, #309 ) ;
#313 = DIRECTION ( 'NONE',  ( 1.000000000000000000, 0.0000000000000000000, 0.0000000000000000000 ) ) ;
#314 = DIRECTION ( 'NONE',  ( 0.0000000000000000000, 0.0000000000000000000, 1.000000000000000000 ) ) ;
#315 = CARTESIAN_POINT ( 'NONE',  ( 0.0000000000000000000, 0.0000000000000000000, 0.0000000000000000000 ) ) ;
#316 = SHAPE_REPRESENTATION ( 'WDS-803-216F', ( #285, #312 ), #322 ) ;
#317 = CARTESIAN_POINT ( 'NONE',  ( 0.0000000000000000000, 0.0000000000000000000, 0.0000000000000000000 ) ) ;
#318 = UNCERTAINTY_MEASURE_WITH_UNIT (LENGTH_MEASURE( 1.000000000000000100E-005 ), #321, 'distance_accuracy_value', 'NONE');
#319 =( NAMED_UNIT ( * ) SI_UNIT ( $, .STERADIAN. ) SOLID_ANGLE_UNIT ( ) );
#320 =( NAMED_UNIT ( * ) PLANE_ANGLE_UNIT ( ) SI_UNIT ( $, .RADIAN. ) );
#321 =( LENGTH_UNIT ( ) NAMED_UNIT ( * ) SI_UNIT ( .MILLI., .METRE. ) );
#322 =( GEOMETRIC_REPRESENTATION_CONTEXT ( 3 ) GLOBAL_UNCERTAINTY_ASSIGNED_CONTEXT ( ( #318 ) ) GLOBAL_UNIT_ASSIGNED_CONTEXT ( ( #321, #320, #319 ) ) REPRESENTATION_CONTEXT ( 'NONE', 'WORKASPACE' ) );
#323 = DIRECTION ( 'NONE',  ( 0.0000000000000000000, 0.0000000000000000000, -1.000000000000000000 ) ) ;
#324 = DIRECTION ( 'NONE',  ( -0.0000000000000000000, -1.000000000000000000, -0.0000000000000000000 ) ) ;
#325 = CARTESIAN_POINT ( 'NONE',  ( 0.0000000000000000000, 6.000000000000000900, 0.0000000000000000000 ) ) ;
#326 = CARTESIAN_POINT ( 'NONE',  ( 0.0000000000000000000, 0.5000000000000000000, 0.0000000000000000000 ) ) ;
#327 = CIRCLE ( 'NONE', #291, 17.50000000000000000 ) ;
#328 = CYLINDRICAL_SURFACE ( 'NONE', #331, 9.249999999999994700 ) ;
#329 = AXIS2_PLACEMENT_3D ( 'NONE', #284, #293, #292 ) ;
#330 = DIRECTION ( 'NONE',  ( 0.0000000000000000000, 0.0000000000000000000, -1.000000000000000000 ) ) ;
#331 = AXIS2_PLACEMENT_3D ( 'NONE', #344, #332, #330 ) ;
#332 = DIRECTION ( 'NONE',  ( -0.0000000000000000000, -1.000000000000000000, -0.0000000000000000000 ) ) ;
#333 = DIRECTION ( 'NONE',  ( 0.0000000000000000000, 0.0000000000000000000, -1.000000000000000000 ) ) ;
#334 = DIRECTION ( 'NONE',  ( -0.0000000000000000000, -1.000000000000000000, -0.0000000000000000000 ) ) ;
#335 =( NAMED_UNIT ( * ) PLANE_ANGLE_UNIT ( ) SI_UNIT ( $, .RADIAN. ) );
#336 = FILL_AREA_STYLE ('',( #337 ) ) ;
#337 = FILL_AREA_STYLE_COLOUR ( '', #275 ) ;
#338 = AXIS2_PLACEMENT_3D ( 'NONE', #289, #288, #287 ) ;
#339 = CARTESIAN_POINT ( 'NONE',  ( 1.132798289211300700E-015, 3.152961988249637600, 9.249999999999989300 ) ) ;
#340 = DIRECTION ( 'NONE',  ( -0.0000000000000000000, -1.000000000000000000, -0.0000000000000000000 ) ) ;
#341 = VECTOR ( 'NONE', #340, 1000.000000000000000 ) ;
#342 = CARTESIAN_POINT ( 'NONE',  ( 1.132798289211300900E-015, 0.0000000000000000000, 9.249999999999994700 ) ) ;
#343 = LINE ( 'NONE', #342, #341 ) ;
#344 = CARTESIAN_POINT ( 'NONE',  ( 0.0000000000000000000, 0.0000000000000000000, 0.0000000000000000000 ) ) ;
#345 = PRODUCT_DEFINITION_SHAPE ( 'NONE', 'NONE',  #348 ) ;
#346 = PRODUCT_RELATED_PRODUCT_CATEGORY ( 'part', '', ( #352 ) ) ;
#347 = PRODUCT_DEFINITION_FORMATION_WITH_SPECIFIED_SOURCE ( 'ANY', '', #352, .NOT_KNOWN. ) ;
#348 = PRODUCT_DEFINITION ( 'UNKNOWN', '', #347, #349 ) ;
#349 = PRODUCT_DEFINITION_CONTEXT ( 'detailed design', #351, 'design' ) ;
#350 = APPLICATION_PROTOCOL_DEFINITION ( 'draft international standard', 'automotive_design', 1998, #351 ) ;
#351 = APPLICATION_CONTEXT ( 'automotive_design' ) ;
#352 = PRODUCT ( 'WDS-803-216F_803F_803-216F', 'WDS-803-216F_803F_803-216F', '', ( #353 ) ) ;
#353 = PRODUCT_CONTEXT ( 'NONE', #357, 'mechanical' ) ;
#354 = APPLICATION_PROTOCOL_DEFINITION ( 'draft international standard', 'automotive_design', 1998, #357 ) ;
#355 = SHAPE_DEFINITION_REPRESENTATION ( #345, #298 ) ;
#356 = ITEM_DEFINED_TRANSFORMATION ( 'NONE', 'NONE', #312,  #279 ) ;
#357 = APPLICATION_CONTEXT ( 'automotive_design' ) ;
#358 = CONTEXT_DEPENDENT_SHAPE_REPRESENTATION ( #370, #359 ) ;
#359 = PRODUCT_DEFINITION_SHAPE ( 'NONE', 'NONE',  #373 ) ;
#360 = APPLICATION_CONTEXT ( 'automotive_design' ) ;
#361 = PRODUCT_CONTEXT ( 'NONE', #360, 'mechanical' ) ;
#362 = PRODUCT_DEFINITION_SHAPE ( 'NONE', 'NONE',  #366 ) ;
#363 = PRODUCT_RELATED_PRODUCT_CATEGORY ( 'part', '', ( #371 ) ) ;
#364 = PRODUCT_DEFINITION_FORMATION_WITH_SPECIFIED_SOURCE ( 'ANY', '', #371, .NOT_KNOWN. ) ;
#365 = SHAPE_DEFINITION_REPRESENTATION ( #362, #316 ) ;
#366 = PRODUCT_DEFINITION ( 'UNKNOWN', '', #364, #367 ) ;
#367 = PRODUCT_DEFINITION_CONTEXT ( 'detailed design', #369, 'design' ) ;
#368 = APPLICATION_PROTOCOL_DEFINITION ( 'draft international standard', 'automotive_design', 1998, #369 ) ;
#369 = APPLICATION_CONTEXT ( 'automotive_design' ) ;
#370 =( REPRESENTATION_RELATIONSHIP ('NONE','NONE', #316, #298 ) REPRESENTATION_RELATIONSHIP_WITH_TRANSFORMATION ( #356 )SHAPE_REPRESENTATION_RELATIONSHIP( ) );
#371 = PRODUCT ( 'WDS-803-216F', 'WDS-803-216F', '', ( #361 ) ) ;
#372 = APPLICATION_PROTOCOL_DEFINITION ( 'draft international standard', 'automotive_design', 1998, #360 ) ;
#373 = NEXT_ASSEMBLY_USAGE_OCCURRENCE ( 'NAUO1', ' ', ' ', #366, #348, $ ) ;
ENDSEC;
END-ISO-10303-21;
