ISO-10303-21;
HEADER;
FILE_DESCRIPTION (( 'STEP AP214' ),
    '1' );
FILE_NAME ('WDS-803-206M.step',
    '2011-04-15T08:58:01',
    ( 'SysAdmin' ),
    ( 'SolidWorks' ),
    'SwSTEP 2.0',
    'SolidWorks 2011',
    '' );
FILE_SCHEMA (( 'AUTOMOTIVE_DESIGN' ));
ENDSEC;

DATA;
#1 = VERTEX_POINT ( 'NONE', #233 ) ;
#2 = ORIENTED_EDGE ( 'NONE', *, *, #3, .T. ) ;
#3 = EDGE_CURVE ( 'NONE', #81, #17, #94, .T. ) ;
#4 = EDGE_CURVE ( 'NONE', #1, #81, #178, .T. ) ;
#5 = EDGE_CURVE ( 'NONE', #89, #8, #179, .T. ) ;
#6 = ORIENTED_EDGE ( 'NONE', *, *, #11, .F. ) ;
#7 = ORIENTED_EDGE ( 'NONE', *, *, #76, .F. ) ;
#8 = VERTEX_POINT ( 'NONE', #150 ) ;
#9 = EDGE_CURVE ( 'NONE', #8, #77, #106, .T. ) ;
#10 = ORIENTED_EDGE ( 'NONE', *, *, #4, .T. ) ;
#11 = EDGE_CURVE ( 'NONE', #8, #17, #109, .T. ) ;
#12 = ORIENTED_EDGE ( 'NONE', *, *, #11, .T. ) ;
#13 = ADVANCED_FACE ( 'NONE', ( #126 ), #102, .T. ) ;
#14 = EDGE_LOOP ( 'NONE', ( #22, #50, #49, #38 ) ) ;
#15 = ORIENTED_EDGE ( 'NONE', *, *, #70, .F. ) ;
#16 = ADVANCED_FACE ( 'NONE', ( #108 ), #148, .T. ) ;
#17 = VERTEX_POINT ( 'NONE', #125 ) ;
#18 = EDGE_CURVE ( 'NONE', #41, #81, #137, .T. ) ;
#19 = EDGE_LOOP ( 'NONE', ( #42, #59, #34, #40, #25, #30 ) ) ;
#20 = EDGE_CURVE ( 'NONE', #100, #265, #149, .T. ) ;
#21 = ORIENTED_EDGE ( 'NONE', *, *, #20, .F. ) ;
#22 = ORIENTED_EDGE ( 'NONE', *, *, #27, .T. ) ;
#23 = ORIENTED_EDGE ( 'NONE', *, *, #31, .T. ) ;
#24 = ORIENTED_EDGE ( 'NONE', *, *, #48, .T. ) ;
#25 = ORIENTED_EDGE ( 'NONE', *, *, #35, .F. ) ;
#26 = ORIENTED_EDGE ( 'NONE', *, *, #113, .F. ) ;
#27 = EDGE_CURVE ( 'NONE', #37, #41, #133, .T. ) ;
#28 = ADVANCED_FACE ( 'NONE', ( #182 ), #139, .T. ) ;
#29 = ORIENTED_EDGE ( 'NONE', *, *, #3, .F. ) ;
#30 = ORIENTED_EDGE ( 'NONE', *, *, #97, .F. ) ;
#31 = EDGE_CURVE ( 'NONE', #41, #37, #181, .T. ) ;
#32 = ORIENTED_EDGE ( 'NONE', *, *, #70, .T. ) ;
#33 = EDGE_LOOP ( 'NONE', ( #43, #23, #24, #51 ) ) ;
#34 = ORIENTED_EDGE ( 'NONE', *, *, #5, .T. ) ;
#35 = EDGE_CURVE ( 'NONE', #122, #77, #169, .T. ) ;
#36 = SURFACE_STYLE_FILL_AREA ( #88 ) ;
#37 = VERTEX_POINT ( 'NONE', #176 ) ;
#38 = ORIENTED_EDGE ( 'NONE', *, *, #48, .F. ) ;
#39 = ORIENTED_EDGE ( 'NONE', *, *, #90, .T. ) ;
#40 = ORIENTED_EDGE ( 'NONE', *, *, #9, .T. ) ;
#41 = VERTEX_POINT ( 'NONE', #175 ) ;
#42 = ORIENTED_EDGE ( 'NONE', *, *, #75, .F. ) ;
#43 = ORIENTED_EDGE ( 'NONE', *, *, #18, .F. ) ;
#44 = ORIENTED_EDGE ( 'NONE', *, *, #27, .F. ) ;
#45 = ORIENTED_EDGE ( 'NONE', *, *, #76, .T. ) ;
#46 = ORIENTED_EDGE ( 'NONE', *, *, #31, .F. ) ;
#47 = ADVANCED_FACE ( 'NONE', ( #141, #167 ), #162, .T. ) ;
#48 = EDGE_CURVE ( 'NONE', #37, #1, #210, .T. ) ;
#49 = ORIENTED_EDGE ( 'NONE', *, *, #4, .F. ) ;
#50 = ORIENTED_EDGE ( 'NONE', *, *, #18, .T. ) ;
#51 = ORIENTED_EDGE ( 'NONE', *, *, #62, .F. ) ;
#52 = ORIENTED_EDGE ( 'NONE', *, *, #63, .F. ) ;
#53 = PRESENTATION_LAYER_ASSIGNMENT (  '', '', ( #55 ) ) ;
#54 = CLOSED_SHELL ( 'NONE', ( #110, #73, #13, #16, #61, #28, #60, #84, #47 ) ) ;
#55 = STYLED_ITEM ( 'NONE', ( #57 ), #132 ) ;
#56 = SURFACE_STYLE_USAGE ( .BOTH. , #87 ) ;
#57 = PRESENTATION_STYLE_ASSIGNMENT (( #56 ) ) ;
#58 = ORIENTED_EDGE ( 'NONE', *, *, #20, .T. ) ;
#59 = ORIENTED_EDGE ( 'NONE', *, *, #63, .T. ) ;
#60 = ADVANCED_FACE ( 'NONE', ( #161 ), #211, .T. ) ;
#61 = ADVANCED_FACE ( 'NONE', ( #212 ), #224, .T. ) ;
#62 = EDGE_CURVE ( 'NONE', #81, #1, #207, .T. ) ;
#63 = EDGE_CURVE ( 'NONE', #78, #89, #160, .T. ) ;
#64 = EDGE_LOOP ( 'NONE', ( #26, #21, #39, #86, #45 ) ) ;
#65 = ORIENTED_EDGE ( 'NONE', *, *, #62, .T. ) ;
#66 = EDGE_LOOP ( 'NONE', ( #44, #46 ) ) ;
#67 = ORIENTED_EDGE ( 'NONE', *, *, #82, .F. ) ;
#68 = EDGE_LOOP ( 'NONE', ( #58, #85 ) ) ;
#69 = FILL_AREA_STYLE_COLOUR ( '', #277 ) ;
#70 = EDGE_CURVE ( 'NONE', #1, #89, #247, .T. ) ;
#71 = ORIENTED_EDGE ( 'NONE', *, *, #90, .F. ) ;
#72 = ORIENTED_EDGE ( 'NONE', *, *, #5, .F. ) ;
#73 = ADVANCED_FACE ( 'NONE', ( #215 ), #251, .T. ) ;
#74 = ORIENTED_EDGE ( 'NONE', *, *, #9, .F. ) ;
#75 = EDGE_CURVE ( 'NONE', #78, #230, #245, .T. ) ;
#76 = EDGE_CURVE ( 'NONE', #77, #112, #244, .T. ) ;
#77 = VERTEX_POINT ( 'NONE', #238 ) ;
#78 = VERTEX_POINT ( 'NONE', #201 ) ;
#79 = ORIENTED_EDGE ( 'NONE', *, *, #232, .T. ) ;
#80 = ORIENTED_EDGE ( 'NONE', *, *, #232, .F. ) ;
#81 = VERTEX_POINT ( 'NONE', #243 ) ;
#82 = EDGE_CURVE ( 'NONE', #17, #78, #196, .T. ) ;
#83 = EDGE_LOOP ( 'NONE', ( #29, #65, #32, #52, #67 ) ) ;
#84 = ADVANCED_FACE ( 'NONE', ( #202 ), #235, .F. ) ;
#85 = ORIENTED_EDGE ( 'NONE', *, *, #119, .T. ) ;
#86 = ORIENTED_EDGE ( 'NONE', *, *, #35, .T. ) ;
#87 = SURFACE_SIDE_STYLE ('',( #36 ) ) ;
#88 = FILL_AREA_STYLE ('',( #69 ) ) ;
#89 = VERTEX_POINT ( 'NONE', #219 ) ;
#90 = EDGE_CURVE ( 'NONE', #100, #122, #263, .T. ) ;
#91 = DIRECTION ( 'NONE',  ( -0.0000000000000000000, -1.000000000000000000, -0.0000000000000000000 ) ) ;
#92 = VECTOR ( 'NONE', #91, 1000.000000000000000 ) ;
#93 = CARTESIAN_POINT ( 'NONE',  ( 9.797174393178821700E-016, 0.0000000000000000000, 7.999999999999996400 ) ) ;
#94 = LINE ( 'NONE', #93, #92 ) ;
#95 = AXIS2_PLACEMENT_3D ( 'NONE', #117, #116, #115 ) ;
#96 = EDGE_LOOP ( 'NONE', ( #10, #2, #6, #72, #15 ) ) ;
#97 = EDGE_CURVE ( 'NONE', #230, #122, #191, .T. ) ;
#98 = ORIENTED_EDGE ( 'NONE', *, *, #82, .T. ) ;
#99 = ORIENTED_EDGE ( 'NONE', *, *, #75, .T. ) ;
#100 = VERTEX_POINT ( 'NONE', #190 ) ;
#101 = CARTESIAN_POINT ( 'NONE',  ( 0.0000000000000000000, 1.635526924278646800, 0.0000000000000000000 ) ) ;
#102 = CYLINDRICAL_SURFACE ( 'NONE', #154, 7.999999999999996400 ) ;
#103 = DIRECTION ( 'NONE',  ( 0.0000000000000000000, 0.0000000000000000000, -1.000000000000000000 ) ) ;
#104 = CARTESIAN_POINT ( 'NONE',  ( 0.0000000000000000000, 15.49193338482966800, 0.0000000000000000000 ) ) ;
#105 = AXIS2_PLACEMENT_3D ( 'NONE', #104, #103, #127 ) ;
#106 = CIRCLE ( 'NONE', #105, 16.00000000000000000 ) ;
#107 = CARTESIAN_POINT ( 'NONE',  ( 0.0000000000000000000, 2.499999999999999600, 0.0000000000000000000 ) ) ;
#108 = FACE_OUTER_BOUND ( 'NONE', #14, .T. ) ;
#109 = CIRCLE ( 'NONE', #124, 7.999999999999992900 ) ;
#110 = ADVANCED_FACE ( 'NONE', ( #264 ), #197, .F. ) ;
#111 = EDGE_LOOP ( 'NONE', ( #121, #231, #79, #114, #71 ) ) ;
#112 = VERTEX_POINT ( 'NONE', #261 ) ;
#113 = EDGE_CURVE ( 'NONE', #265, #112, #273, .T. ) ;
#114 = ORIENTED_EDGE ( 'NONE', *, *, #97, .T. ) ;
#115 = DIRECTION ( 'NONE',  ( 0.0000000000000000000, 0.0000000000000000000, -1.000000000000000000 ) ) ;
#116 = DIRECTION ( 'NONE',  ( -0.0000000000000000000, -1.000000000000000000, -0.0000000000000000000 ) ) ;
#117 = CARTESIAN_POINT ( 'NONE',  ( 0.0000000000000000000, 1.635526924278646800, 0.0000000000000000000 ) ) ;
#118 = CARTESIAN_POINT ( 'NONE',  ( 9.797174393178825700E-016, 2.499999999999999600, 8.000000000000000000 ) ) ;
#119 = EDGE_CURVE ( 'NONE', #265, #100, #270, .T. ) ;
#120 = EDGE_LOOP ( 'NONE', ( #98, #99, #80, #7, #74, #12 ) ) ;
#121 = ORIENTED_EDGE ( 'NONE', *, *, #119, .F. ) ;
#122 = VERTEX_POINT ( 'NONE', #276 ) ;
#123 = DIRECTION ( 'NONE',  ( -0.0000000000000000000, -1.000000000000000000, -0.0000000000000000000 ) ) ;
#124 = AXIS2_PLACEMENT_3D ( 'NONE', #101, #123, #155 ) ;
#125 = CARTESIAN_POINT ( 'NONE',  ( 9.797174393178819700E-016, 1.635526924278646800, 7.999999999999992900 ) ) ;
#126 = FACE_OUTER_BOUND ( 'NONE', #96, .T. ) ;
#127 = DIRECTION ( 'NONE',  ( -1.000000000000000000, 0.0000000000000000000, 0.0000000000000000000 ) ) ;
#128 = AXIS2_PLACEMENT_3D ( 'NONE', #147, #146, #145 ) ;
#129 = DIRECTION ( 'NONE',  ( 0.0000000000000000000, 0.0000000000000000000, -1.000000000000000000 ) ) ;
#130 = DIRECTION ( 'NONE',  ( -0.0000000000000000000, -1.000000000000000000, -0.0000000000000000000 ) ) ;
#131 = AXIS2_PLACEMENT_3D ( 'NONE', #107, #130, #129 ) ;
#132 = MANIFOLD_SOLID_BREP ( 'Revolve1', #54 ) ;
#133 = CIRCLE ( 'NONE', #140, 7.500000000000000000 ) ;
#134 = DIRECTION ( 'NONE',  ( 0.0000000000000000000, 0.0000000000000000000, -1.000000000000000000 ) ) ;
#135 = DIRECTION ( 'NONE',  ( 8.659560562354931600E-017, -0.7071067811865475700, 0.7071067811865474600 ) ) ;
#136 = VECTOR ( 'NONE', #135, 1000.000000000000000 ) ;
#137 = LINE ( 'NONE', #118, #136 ) ;
#138 = CARTESIAN_POINT ( 'NONE',  ( 0.0000000000000000000, 3.000000000000000000, 0.0000000000000000000 ) ) ;
#139 = CYLINDRICAL_SURFACE ( 'NONE', #153, 7.999999999999996400 ) ;
#140 = AXIS2_PLACEMENT_3D ( 'NONE', #138, #144, #183 ) ;
#141 = FACE_BOUND ( 'NONE', #68, .T. ) ;
#142 = CARTESIAN_POINT ( 'NONE',  ( 0.0000000000000000000, 0.0000000000000000000, 0.0000000000000000000 ) ) ;
#143 = AXIS2_PLACEMENT_3D ( 'NONE', #225, #171, #170 ) ;
#144 = DIRECTION ( 'NONE',  ( -0.0000000000000000000, -1.000000000000000000, -0.0000000000000000000 ) ) ;
#145 = DIRECTION ( 'NONE',  ( 0.0000000000000000000, 0.0000000000000000000, -1.000000000000000000 ) ) ;
#146 = DIRECTION ( 'NONE',  ( -0.0000000000000000000, -1.000000000000000000, -0.0000000000000000000 ) ) ;
#147 = CARTESIAN_POINT ( 'NONE',  ( 0.0000000000000000000, 3.000000000000000400, 0.0000000000000000000 ) ) ;
#148 = CONICAL_SURFACE ( 'NONE', #131, 8.000000000000000000, 0.7853981633974482800 ) ;
#149 = CIRCLE ( 'NONE', #128, 4.000000000000000000 ) ;
#150 = CARTESIAN_POINT ( 'NONE',  ( 7.999999999999992900, 1.635526924278646800, 0.0000000000000000000 ) ) ;
#151 = DIRECTION ( 'NONE',  ( 0.0000000000000000000, 0.0000000000000000000, -1.000000000000000000 ) ) ;
#152 = DIRECTION ( 'NONE',  ( -0.0000000000000000000, -1.000000000000000000, -0.0000000000000000000 ) ) ;
#153 = AXIS2_PLACEMENT_3D ( 'NONE', #142, #180, #134 ) ;
#154 = AXIS2_PLACEMENT_3D ( 'NONE', #226, #152, #151 ) ;
#155 = DIRECTION ( 'NONE',  ( 0.0000000000000000000, 0.0000000000000000000, -1.000000000000000000 ) ) ;
#156 = CARTESIAN_POINT ( 'NONE',  ( 0.0000000000000000000, 2.499999999999999600, -8.000000000000000000 ) ) ;
#157 = AXIS2_PLACEMENT_3D ( 'NONE', #158, #214, #221 ) ;
#158 = CARTESIAN_POINT ( 'NONE',  ( 0.0000000000000000000, 15.49193338482966800, 0.0000000000000000000 ) ) ;
#159 = DIRECTION ( 'NONE',  ( -0.0000000000000000000, -1.000000000000000000, -0.0000000000000000000 ) ) ;
#160 = CIRCLE ( 'NONE', #252, 7.999999999999992900 ) ;
#161 = FACE_OUTER_BOUND ( 'NONE', #19, .T. ) ;
#162 = PLANE ( 'NONE',  #166 ) ;
#163 = DIRECTION ( 'NONE',  ( 0.0000000000000000000, 0.0000000000000000000, -1.000000000000000000 ) ) ;
#164 = DIRECTION ( 'NONE',  ( -0.0000000000000000000, -1.000000000000000000, -0.0000000000000000000 ) ) ;
#165 = AXIS2_PLACEMENT_3D ( 'NONE', #172, #164, #163 ) ;
#166 = AXIS2_PLACEMENT_3D ( 'NONE', #174, #173, #213 ) ;
#167 = FACE_OUTER_BOUND ( 'NONE', #66, .T. ) ;
#168 = AXIS2_PLACEMENT_3D ( 'NONE', #246, #217, #241 ) ;
#169 = CIRCLE ( 'NONE', #165, 4.000000000000000000 ) ;
#170 = DIRECTION ( 'NONE',  ( 0.0000000000000000000, 0.0000000000000000000, -1.000000000000000000 ) ) ;
#171 = DIRECTION ( 'NONE',  ( -0.0000000000000000000, -1.000000000000000000, -0.0000000000000000000 ) ) ;
#172 = CARTESIAN_POINT ( 'NONE',  ( 0.0000000000000000000, 0.0000000000000000000, 0.0000000000000000000 ) ) ;
#173 = DIRECTION ( 'NONE',  ( 0.0000000000000000000, 1.000000000000000000, 0.0000000000000000000 ) ) ;
#174 = CARTESIAN_POINT ( 'NONE',  ( 4.000000000000000000, 3.000000000000000000, 0.0000000000000000000 ) ) ;
#175 = CARTESIAN_POINT ( 'NONE',  ( 9.491012693391985800E-016, 3.000000000000000000, 7.500000000000000000 ) ) ;
#176 = CARTESIAN_POINT ( 'NONE',  ( 0.0000000000000000000, 3.000000000000000000, -7.500000000000000000 ) ) ;
#177 = CARTESIAN_POINT ( 'NONE',  ( 0.0000000000000000000, 2.499999999999999600, 0.0000000000000000000 ) ) ;
#178 = CIRCLE ( 'NONE', #229, 8.000000000000000000 ) ;
#179 = CIRCLE ( 'NONE', #95, 7.999999999999992900 ) ;
#180 = DIRECTION ( 'NONE',  ( -0.0000000000000000000, -1.000000000000000000, -0.0000000000000000000 ) ) ;
#181 = CIRCLE ( 'NONE', #143, 7.500000000000000000 ) ;
#182 = FACE_OUTER_BOUND ( 'NONE', #83, .T. ) ;
#183 = DIRECTION ( 'NONE',  ( 0.0000000000000000000, 0.0000000000000000000, -1.000000000000000000 ) ) ;
#184 = CARTESIAN_POINT ( 'NONE',  ( 0.0000000000000000000, 0.0000000000000000000, -4.000000000000000000 ) ) ;
#185 = CARTESIAN_POINT ( 'NONE',  ( 4.898587196589412800E-016, 0.0000000000000000000, 4.000000000000000000 ) ) ;
#186 = CARTESIAN_POINT ( 'NONE',  ( 0.0000000000000000000, 0.0000000000000000000, 0.0000000000000000000 ) ) ;
#187 = CARTESIAN_POINT ( 'NONE',  ( 0.0000000000000000000, 0.0000000000000000000, 0.0000000000000000000 ) ) ;
#188 = DIRECTION ( 'NONE',  ( -0.0000000000000000000, -1.000000000000000000, -0.0000000000000000000 ) ) ;
#189 = CARTESIAN_POINT ( 'NONE',  ( 0.0000000000000000000, 0.0000000000000000000, 0.0000000000000000000 ) ) ;
#190 = CARTESIAN_POINT ( 'NONE',  ( 0.0000000000000000000, 3.000000000000000400, -4.000000000000000000 ) ) ;
#191 = CIRCLE ( 'NONE', #259, 4.000000000000000000 ) ;
#192 = DIRECTION ( 'NONE',  ( 0.0000000000000000000, 0.0000000000000000000, -1.000000000000000000 ) ) ;
#193 = DIRECTION ( 'NONE',  ( -0.0000000000000000000, -1.000000000000000000, -0.0000000000000000000 ) ) ;
#194 = CARTESIAN_POINT ( 'NONE',  ( 0.0000000000000000000, 1.635526924278646800, 0.0000000000000000000 ) ) ;
#195 = AXIS2_PLACEMENT_3D ( 'NONE', #194, #193, #192 ) ;
#196 = CIRCLE ( 'NONE', #195, 7.999999999999992900 ) ;
#197 = CYLINDRICAL_SURFACE ( 'NONE', #260, 4.000000000000000000 ) ;
#198 = AXIS2_PLACEMENT_3D ( 'NONE', #187, #205, #200 ) ;
#199 = DIRECTION ( 'NONE',  ( -0.0000000000000000000, -1.000000000000000000, -0.0000000000000000000 ) ) ;
#200 = DIRECTION ( 'NONE',  ( 0.0000000000000000000, 0.0000000000000000000, -1.000000000000000000 ) ) ;
#201 = CARTESIAN_POINT ( 'NONE',  ( -7.999999999999992900, 1.635526924278646800, 9.797174393178819700E-016 ) ) ;
#202 = FACE_OUTER_BOUND ( 'NONE', #64, .T. ) ;
#203 = DIRECTION ( 'NONE',  ( 0.0000000000000000000, 0.0000000000000000000, -1.000000000000000000 ) ) ;
#204 = DIRECTION ( 'NONE',  ( -0.0000000000000000000, -1.000000000000000000, -0.0000000000000000000 ) ) ;
#205 = DIRECTION ( 'NONE',  ( -0.0000000000000000000, -1.000000000000000000, -0.0000000000000000000 ) ) ;
#206 = AXIS2_PLACEMENT_3D ( 'NONE', #222, #220, #223 ) ;
#207 = CIRCLE ( 'NONE', #254, 8.000000000000000000 ) ;
#208 = DIRECTION ( 'NONE',  ( 0.0000000000000000000, -0.7071067811865475700, -0.7071067811865474600 ) ) ;
#209 = VECTOR ( 'NONE', #208, 1000.000000000000000 ) ;
#210 = LINE ( 'NONE', #156, #209 ) ;
#211 = SPHERICAL_SURFACE ( 'NONE', #157, 16.00000000000000000 ) ;
#212 = FACE_OUTER_BOUND ( 'NONE', #33, .T. ) ;
#213 = DIRECTION ( 'NONE',  ( 0.0000000000000000000, -0.0000000000000000000, 1.000000000000000000 ) ) ;
#214 = DIRECTION ( 'NONE',  ( 0.0000000000000000000, 0.0000000000000000000, 1.000000000000000000 ) ) ;
#215 = FACE_OUTER_BOUND ( 'NONE', #120, .T. ) ;
#216 = CARTESIAN_POINT ( 'NONE',  ( 0.0000000000000000000, 1.635526924278646800, 0.0000000000000000000 ) ) ;
#217 = DIRECTION ( 'NONE',  ( 0.0000000000000000000, 0.0000000000000000000, 1.000000000000000000 ) ) ;
#218 = CARTESIAN_POINT ( 'NONE',  ( 0.0000000000000000000, 2.499999999999999600, 0.0000000000000000000 ) ) ;
#219 = CARTESIAN_POINT ( 'NONE',  ( 0.0000000000000000000, 1.635526924278646800, -7.999999999999992900 ) ) ;
#220 = DIRECTION ( 'NONE',  ( -0.0000000000000000000, -1.000000000000000000, -0.0000000000000000000 ) ) ;
#221 = DIRECTION ( 'NONE',  ( 1.000000000000000000, 0.0000000000000000000, 0.0000000000000000000 ) ) ;
#222 = CARTESIAN_POINT ( 'NONE',  ( 0.0000000000000000000, 2.499999999999999600, 0.0000000000000000000 ) ) ;
#223 = DIRECTION ( 'NONE',  ( 0.0000000000000000000, 0.0000000000000000000, -1.000000000000000000 ) ) ;
#224 = CONICAL_SURFACE ( 'NONE', #206, 8.000000000000000000, 0.7853981633974482800 ) ;
#225 = CARTESIAN_POINT ( 'NONE',  ( 0.0000000000000000000, 3.000000000000000000, 0.0000000000000000000 ) ) ;
#226 = CARTESIAN_POINT ( 'NONE',  ( 0.0000000000000000000, 0.0000000000000000000, 0.0000000000000000000 ) ) ;
#227 = DIRECTION ( 'NONE',  ( 0.0000000000000000000, 0.0000000000000000000, -1.000000000000000000 ) ) ;
#228 = DIRECTION ( 'NONE',  ( -0.0000000000000000000, -1.000000000000000000, -0.0000000000000000000 ) ) ;
#229 = AXIS2_PLACEMENT_3D ( 'NONE', #177, #228, #227 ) ;
#230 = VERTEX_POINT ( 'NONE', #286 ) ;
#231 = ORIENTED_EDGE ( 'NONE', *, *, #113, .T. ) ;
#232 = EDGE_CURVE ( 'NONE', #112, #230, #335, .T. ) ;
#233 = CARTESIAN_POINT ( 'NONE',  ( 0.0000000000000000000, 2.499999999999999600, -8.000000000000000000 ) ) ;
#234 = CARTESIAN_POINT ( 'NONE',  ( 0.0000000000000000000, 0.0000000000000000000, 0.0000000000000000000 ) ) ;
#235 = CYLINDRICAL_SURFACE ( 'NONE', #198, 4.000000000000000000 ) ;
#236 = DIRECTION ( 'NONE',  ( 1.000000000000000000, 0.0000000000000000000, -1.224646799147353200E-016 ) ) ;
#237 = DIRECTION ( 'NONE',  ( 1.224646799147353200E-016, -0.0000000000000000000, 1.000000000000000000 ) ) ;
#238 = CARTESIAN_POINT ( 'NONE',  ( 4.000000000000000000, 0.0000000000000000000, 0.0000000000000000000 ) ) ;
#239 = AXIS2_PLACEMENT_3D ( 'NONE', #234, #204, #203 ) ;
#240 = AXIS2_PLACEMENT_3D ( 'NONE', #242, #237, #236 ) ;
#241 = DIRECTION ( 'NONE',  ( 1.000000000000000000, 0.0000000000000000000, 0.0000000000000000000 ) ) ;
#242 = CARTESIAN_POINT ( 'NONE',  ( 0.0000000000000000000, 15.49193338482966800, 0.0000000000000000000 ) ) ;
#243 = CARTESIAN_POINT ( 'NONE',  ( 9.797174393178825700E-016, 2.499999999999999600, 8.000000000000000000 ) ) ;
#244 = CIRCLE ( 'NONE', #239, 4.000000000000000000 ) ;
#245 = CIRCLE ( 'NONE', #240, 16.00000000000000000 ) ;
#246 = CARTESIAN_POINT ( 'NONE',  ( 0.0000000000000000000, 15.49193338482966800, 0.0000000000000000000 ) ) ;
#247 = LINE ( 'NONE', #256, #250 ) ;
#248 = DIRECTION ( 'NONE',  ( 0.0000000000000000000, 0.0000000000000000000, -1.000000000000000000 ) ) ;
#249 = DIRECTION ( 'NONE',  ( -0.0000000000000000000, -1.000000000000000000, -0.0000000000000000000 ) ) ;
#250 = VECTOR ( 'NONE', #255, 1000.000000000000000 ) ;
#251 = SPHERICAL_SURFACE ( 'NONE', #168, 16.00000000000000000 ) ;
#252 = AXIS2_PLACEMENT_3D ( 'NONE', #216, #249, #248 ) ;
#253 = DIRECTION ( 'NONE',  ( 0.0000000000000000000, 0.0000000000000000000, -1.000000000000000000 ) ) ;
#254 = AXIS2_PLACEMENT_3D ( 'NONE', #218, #159, #253 ) ;
#255 = DIRECTION ( 'NONE',  ( -0.0000000000000000000, -1.000000000000000000, -0.0000000000000000000 ) ) ;
#256 = CARTESIAN_POINT ( 'NONE',  ( 0.0000000000000000000, 0.0000000000000000000, -7.999999999999996400 ) ) ;
#257 = DIRECTION ( 'NONE',  ( 0.0000000000000000000, 0.0000000000000000000, -1.000000000000000000 ) ) ;
#258 = DIRECTION ( 'NONE',  ( -0.0000000000000000000, -1.000000000000000000, -0.0000000000000000000 ) ) ;
#259 = AXIS2_PLACEMENT_3D ( 'NONE', #186, #258, #257 ) ;
#260 = AXIS2_PLACEMENT_3D ( 'NONE', #189, #188, #275 ) ;
#261 = CARTESIAN_POINT ( 'NONE',  ( 4.898587196589412800E-016, 0.0000000000000000000, 4.000000000000000000 ) ) ;
#262 = VECTOR ( 'NONE', #199, 1000.000000000000000 ) ;
#263 = LINE ( 'NONE', #184, #262 ) ;
#264 = FACE_OUTER_BOUND ( 'NONE', #111, .T. ) ;
#265 = VERTEX_POINT ( 'NONE', #278 ) ;
#266 = DIRECTION ( 'NONE',  ( 0.0000000000000000000, 0.0000000000000000000, -1.000000000000000000 ) ) ;
#267 = DIRECTION ( 'NONE',  ( -0.0000000000000000000, -1.000000000000000000, -0.0000000000000000000 ) ) ;
#268 = CARTESIAN_POINT ( 'NONE',  ( 0.0000000000000000000, 3.000000000000000400, 0.0000000000000000000 ) ) ;
#269 = AXIS2_PLACEMENT_3D ( 'NONE', #268, #267, #266 ) ;
#270 = CIRCLE ( 'NONE', #269, 4.000000000000000000 ) ;
#271 = DIRECTION ( 'NONE',  ( -0.0000000000000000000, -1.000000000000000000, -0.0000000000000000000 ) ) ;
#272 = VECTOR ( 'NONE', #271, 1000.000000000000000 ) ;
#273 = LINE ( 'NONE', #185, #272 ) ;
#274 = MECHANICAL_DESIGN_GEOMETRIC_PRESENTATION_REPRESENTATION (  '', ( #55 ), #363 ) ;
#275 = DIRECTION ( 'NONE',  ( 0.0000000000000000000, 0.0000000000000000000, -1.000000000000000000 ) ) ;
#276 = CARTESIAN_POINT ( 'NONE',  ( 0.0000000000000000000, 0.0000000000000000000, -4.000000000000000000 ) ) ;
#277 = COLOUR_RGB ( '',0.8235294117647058400, 0.8705882352941176600, 0.9803921568627450600 ) ;
#278 = CARTESIAN_POINT ( 'NONE',  ( 4.898587196589412800E-016, 3.000000000000000400, 4.000000000000000000 ) ) ;
#279 = DIRECTION ( 'NONE',  ( 0.0000000000000000000, 0.0000000000000000000, -1.000000000000000000 ) ) ;
#280 = SURFACE_SIDE_STYLE ('',( #345 ) ) ;
#281 = FILL_AREA_STYLE ('',( #282 ) ) ;
#282 = FILL_AREA_STYLE_COLOUR ( '', #346 ) ;
#283 =( NAMED_UNIT ( * ) PLANE_ANGLE_UNIT ( ) SI_UNIT ( $, .RADIAN. ) );
#284 = UNCERTAINTY_MEASURE_WITH_UNIT (LENGTH_MEASURE( 1.000000000000000100E-005 ), #328, 'distance_accuracy_value', 'NONE');
#285 =( NAMED_UNIT ( * ) SI_UNIT ( $, .STERADIAN. ) SOLID_ANGLE_UNIT ( ) );
#286 = CARTESIAN_POINT ( 'NONE',  ( -4.000000000000000000, 0.0000000000000000000, 7.347880794884114800E-016 ) ) ;
#287 = DIRECTION ( 'NONE',  ( 1.000000000000000000, 0.0000000000000000000, 0.0000000000000000000 ) ) ;
#288 =( GEOMETRIC_REPRESENTATION_CONTEXT ( 3 ) GLOBAL_UNCERTAINTY_ASSIGNED_CONTEXT ( ( #317 ) ) GLOBAL_UNIT_ASSIGNED_CONTEXT ( ( #322, #321, #318 ) ) REPRESENTATION_CONTEXT ( 'NONE', 'WORKASPACE' ) );
#289 = PRODUCT_DEFINITION_SHAPE ( 'NONE', 'NONE',  #293 ) ;
#290 = PRODUCT_RELATED_PRODUCT_CATEGORY ( 'part', '', ( #338 ) ) ;
#291 = PRODUCT_DEFINITION_FORMATION_WITH_SPECIFIED_SOURCE ( 'ANY', '', #338, .NOT_KNOWN. ) ;
#292 = SHAPE_DEFINITION_REPRESENTATION ( #289, #301 ) ;
#293 = PRODUCT_DEFINITION ( 'UNKNOWN', '', #291, #294 ) ;
#294 = PRODUCT_DEFINITION_CONTEXT ( 'detailed design', #337, 'design' ) ;
#295 = DIRECTION ( 'NONE',  ( 0.9792680542630001200, -1.387778780781445700E-017, -0.2025686992108055300 ) ) ;
#296 = CARTESIAN_POINT ( 'NONE',  ( 5.400648600078461600E-016, 3.152961988249636200, 5.400648600078461800E-015 ) ) ;
#297 = AXIS2_PLACEMENT_3D ( 'NONE', #296, #295, #323 ) ;
#298 = DIRECTION ( 'NONE',  ( 1.000000000000000000, 0.0000000000000000000, 0.0000000000000000000 ) ) ;
#299 = DIRECTION ( 'NONE',  ( 0.0000000000000000000, 0.0000000000000000000, 1.000000000000000000 ) ) ;
#300 = CARTESIAN_POINT ( 'NONE',  ( 0.0000000000000000000, 0.0000000000000000000, 0.0000000000000000000 ) ) ;
#301 = SHAPE_REPRESENTATION ( 'WDS-803-206M', ( #342, #297 ), #288 ) ;
#302 = CARTESIAN_POINT ( 'NONE',  ( 0.0000000000000000000, 0.0000000000000000000, 0.0000000000000000000 ) ) ;
#303 = PRODUCT_DEFINITION_SHAPE ( 'NONE', 'NONE',  #307 ) ;
#304 = PRODUCT_RELATED_PRODUCT_CATEGORY ( 'part', '', ( #311 ) ) ;
#305 = PRODUCT_DEFINITION_FORMATION_WITH_SPECIFIED_SOURCE ( 'ANY', '', #311, .NOT_KNOWN. ) ;
#306 = SHAPE_DEFINITION_REPRESENTATION ( #303, #325 ) ;
#307 = PRODUCT_DEFINITION ( 'UNKNOWN', '', #305, #308 ) ;
#308 = PRODUCT_DEFINITION_CONTEXT ( 'detailed design', #310, 'design' ) ;
#309 = APPLICATION_PROTOCOL_DEFINITION ( 'draft international standard', 'automotive_design', 1998, #310 ) ;
#310 = APPLICATION_CONTEXT ( 'automotive_design' ) ;
#311 = PRODUCT ( 'WDS-803-206M_803M_803-206M', 'WDS-803-206M_803M_803-206M', '', ( #312 ) ) ;
#312 = PRODUCT_CONTEXT ( 'NONE', #360, 'mechanical' ) ;
#313 = APPLICATION_PROTOCOL_DEFINITION ( 'draft international standard', 'automotive_design', 1998, #360 ) ;
#314 = NEXT_ASSEMBLY_USAGE_OCCURRENCE ( 'NAUO1', ' ', ' ', #293, #307, $ ) ;
#315 = PRODUCT_DEFINITION_SHAPE ( 'NONE', 'NONE',  #314 ) ;
#316 =( REPRESENTATION_RELATIONSHIP ('NONE','NONE', #301, #325 ) REPRESENTATION_RELATIONSHIP_WITH_TRANSFORMATION ( #354 )SHAPE_REPRESENTATION_RELATIONSHIP( ) );
#317 = UNCERTAINTY_MEASURE_WITH_UNIT (LENGTH_MEASURE( 1.000000000000000100E-005 ), #322, 'distance_accuracy_value', 'NONE');
#318 =( NAMED_UNIT ( * ) SI_UNIT ( $, .STERADIAN. ) SOLID_ANGLE_UNIT ( ) );
#319 = UNCERTAINTY_MEASURE_WITH_UNIT (LENGTH_MEASURE( 1.000000000000000100E-005 ), #355, 'distance_accuracy_value', 'NONE');
#320 =( NAMED_UNIT ( * ) PLANE_ANGLE_UNIT ( ) SI_UNIT ( $, .RADIAN. ) );
#321 =( NAMED_UNIT ( * ) PLANE_ANGLE_UNIT ( ) SI_UNIT ( $, .RADIAN. ) );
#322 =( LENGTH_UNIT ( ) NAMED_UNIT ( * ) SI_UNIT ( .MILLI., .METRE. ) );
#323 = DIRECTION ( 'NONE',  ( -0.2025686992108054500, -6.591949208711867000E-017, -0.9792680542630003400 ) ) ;
#324 = SHAPE_REPRESENTATION_RELATIONSHIP ( 'NONE' , 'NONE' ,  #325, #332 ) ;
#325 = SHAPE_REPRESENTATION ( 'WDS-803-206M_803M_803-206M', ( #359 ), #333 ) ;
#326 = CARTESIAN_POINT ( 'NONE',  ( 0.0000000000000000000, 0.0000000000000000000, 0.0000000000000000000 ) ) ;
#327 =( GEOMETRIC_REPRESENTATION_CONTEXT ( 3 ) GLOBAL_UNCERTAINTY_ASSIGNED_CONTEXT ( ( #284 ) ) GLOBAL_UNIT_ASSIGNED_CONTEXT ( ( #328, #320, #285 ) ) REPRESENTATION_CONTEXT ( 'NONE', 'WORKASPACE' ) );
#328 =( LENGTH_UNIT ( ) NAMED_UNIT ( * ) SI_UNIT ( .MILLI., .METRE. ) );
#329 = MECHANICAL_DESIGN_GEOMETRIC_PRESENTATION_REPRESENTATION (  '', ( #331 ), #327 ) ;
#330 = PRESENTATION_LAYER_ASSIGNMENT (  '', '', ( #331 ) ) ;
#331 = STYLED_ITEM ( 'NONE', ( #343 ), #332 ) ;
#332 = ADVANCED_BREP_SHAPE_REPRESENTATION ( '', ( #132, #359 ), #333 ) ;
#333 =( GEOMETRIC_REPRESENTATION_CONTEXT ( 3 ) GLOBAL_UNCERTAINTY_ASSIGNED_CONTEXT ( ( #361 ) ) GLOBAL_UNIT_ASSIGNED_CONTEXT ( ( #349, #350, #362 ) ) REPRESENTATION_CONTEXT ( 'NONE', 'WORKASPACE' ) );
#334 =( NAMED_UNIT ( * ) SI_UNIT ( $, .STERADIAN. ) SOLID_ANGLE_UNIT ( ) );
#335 = CIRCLE ( 'NONE', #348, 4.000000000000000000 ) ;
#336 = APPLICATION_PROTOCOL_DEFINITION ( 'draft international standard', 'automotive_design', 1998, #337 ) ;
#337 = APPLICATION_CONTEXT ( 'automotive_design' ) ;
#338 = PRODUCT ( 'WDS-803-206M', 'WDS-803-206M', '', ( #339 ) ) ;
#339 = PRODUCT_CONTEXT ( 'NONE', #353, 'mechanical' ) ;
#340 = APPLICATION_PROTOCOL_DEFINITION ( 'draft international standard', 'automotive_design', 1998, #353 ) ;
#341 = CONTEXT_DEPENDENT_SHAPE_REPRESENTATION ( #316, #315 ) ;
#342 = AXIS2_PLACEMENT_3D ( 'NONE', #302, #351, #287 ) ;
#343 = PRESENTATION_STYLE_ASSIGNMENT (( #344 ) ) ;
#344 = SURFACE_STYLE_USAGE ( .BOTH. , #280 ) ;
#345 = SURFACE_STYLE_FILL_AREA ( #281 ) ;
#346 = COLOUR_RGB ( '',0.8235294117647058400, 0.8705882352941176600, 0.9803921568627450600 ) ;
#347 = DIRECTION ( 'NONE',  ( -0.0000000000000000000, -1.000000000000000000, -0.0000000000000000000 ) ) ;
#348 = AXIS2_PLACEMENT_3D ( 'NONE', #326, #347, #279 ) ;
#349 =( LENGTH_UNIT ( ) NAMED_UNIT ( * ) SI_UNIT ( .MILLI., .METRE. ) );
#350 =( NAMED_UNIT ( * ) PLANE_ANGLE_UNIT ( ) SI_UNIT ( $, .RADIAN. ) );
#351 = DIRECTION ( 'NONE',  ( 0.0000000000000000000, 0.0000000000000000000, 1.000000000000000000 ) ) ;
#352 = AXIS2_PLACEMENT_3D ( 'NONE', #300, #299, #298 ) ;
#353 = APPLICATION_CONTEXT ( 'automotive_design' ) ;
#354 = ITEM_DEFINED_TRANSFORMATION ( 'NONE', 'NONE', #297,  #359 ) ;
#355 =( LENGTH_UNIT ( ) NAMED_UNIT ( * ) SI_UNIT ( .MILLI., .METRE. ) );
#356 = DIRECTION ( 'NONE',  ( 1.000000000000000000, 0.0000000000000000000, 0.0000000000000000000 ) ) ;
#357 = DIRECTION ( 'NONE',  ( 0.0000000000000000000, 0.0000000000000000000, 1.000000000000000000 ) ) ;
#358 = CARTESIAN_POINT ( 'NONE',  ( 0.0000000000000000000, 0.0000000000000000000, 0.0000000000000000000 ) ) ;
#359 = AXIS2_PLACEMENT_3D ( 'NONE', #358, #357, #356 ) ;
#360 = APPLICATION_CONTEXT ( 'automotive_design' ) ;
#361 = UNCERTAINTY_MEASURE_WITH_UNIT (LENGTH_MEASURE( 1.000000000000000100E-005 ), #349, 'distance_accuracy_value', 'NONE');
#362 =( NAMED_UNIT ( * ) SI_UNIT ( $, .STERADIAN. ) SOLID_ANGLE_UNIT ( ) );
#363 =( GEOMETRIC_REPRESENTATION_CONTEXT ( 3 ) GLOBAL_UNCERTAINTY_ASSIGNED_CONTEXT ( ( #319 ) ) GLOBAL_UNIT_ASSIGNED_CONTEXT ( ( #355, #283, #334 ) ) REPRESENTATION_CONTEXT ( 'NONE', 'WORKASPACE' ) );
ENDSEC;
END-ISO-10303-21;
