ISO-10303-21;
HEADER;
FILE_DESCRIPTION (( 'STEP AP203' ),
    '1' );
FILE_NAME ('WDS-629-205.step',
    '2012-04-05T13:24:54',
    ( 'SysAdmin' ),
    ( 'SolidWorks' ),
    'SwSTEP 2.0',
    'SolidWorks 2012',
    '' );
FILE_SCHEMA (( 'CONFIG_CONTROL_DESIGN' ));
ENDSEC;

DATA;
#1 = PRODUCT ( 'WDS-629-205', 'WDS-629-205', '', ( #63 ) ) ;
#2 = DIRECTION ( 'NONE',  ( 0.0000000000000000000, 0.0000000000000000000, -1.000000000000000000 ) ) ;
#3 = DIRECTION ( 'NONE',  ( 0.5000000000000017800, 6.123233995736788200E-017, -0.8660254037844377100 ) ) ;
#4 = DIRECTION ( 'NONE',  ( -0.0000000000000000000, -0.0000000000000000000, 1.000000000000000000 ) ) ;
#5 = APPROVAL_DATE_TIME ( #6, #345 ) ;
#6 = DATE_AND_TIME ( #243, #344 ) ;
#7 = DATE_TIME_ROLE ( 'creation_date' ) ;
#8 = APPROVAL_STATUS ( 'not_yet_approved' ) ;
#9 = DIRECTION ( 'NONE',  ( -1.000000000000000000, 0.0000000000000000000, 0.0000000000000000000 ) ) ;
#10 = PLANE ( 'NONE',  #242 ) ;
#11 = DIRECTION ( 'NONE',  ( 1.000000000000000000, 0.0000000000000000000, 0.0000000000000000000 ) ) ;
#12 = DIRECTION ( 'NONE',  ( 0.0000000000000000000, 0.0000000000000000000, -1.000000000000000000 ) ) ;
#13 = CARTESIAN_POINT ( 'NONE',  ( 0.0000000000000000000, 0.0000000000000000000, -3.000000000000000000 ) ) ;
#14 = DIRECTION ( 'NONE',  ( 1.000000000000000000, 0.0000000000000000000, -0.0000000000000000000 ) ) ;
#15 = DATE_AND_TIME ( #249, #321 ) ;
#16 = PERSON_AND_ORGANIZATION ( #310, #285 ) ;
#17 = APPROVAL_ROLE ( '' ) ;
#18 = PERSON_AND_ORGANIZATION ( #310, #285 ) ;
#19 = CARTESIAN_POINT ( 'NONE',  ( 0.0000000000000000000, -6.000000000000000000, -2.999999999999999100 ) ) ;
#20 = CARTESIAN_POINT ( 'NONE',  ( 0.0000000000000000000, 0.0000000000000000000, -3.000000000000000000 ) ) ;
#21 = PLANE ( 'NONE',  #252 ) ;
#22 = CARTESIAN_POINT ( 'NONE',  ( 15.76794919243111600, 1.931016850762885800E-015, 0.0000000000000000000 ) ) ;
#23 = DIRECTION ( 'NONE',  ( 1.000000000000000000, 0.0000000000000000000, 0.0000000000000000000 ) ) ;
#24 = APPROVAL_DATE_TIME ( #27, #370 ) ;
#25 = PERSON_AND_ORGANIZATION ( #310, #285 ) ;
#26 = APPLICATION_PROTOCOL_DEFINITION ( 'international standard', 'config_control_design', 1994, #232 ) ;
#27 = DATE_AND_TIME ( #279, #371 ) ;
#28 = APPROVAL_STATUS ( 'not_yet_approved' ) ;
#29 = CARTESIAN_POINT ( 'NONE',  ( 0.0000000000000000000, 0.0000000000000000000, 0.0000000000000000000 ) ) ;
#30 = DIRECTION ( 'NONE',  ( -0.0000000000000000000, -0.0000000000000000000, -1.000000000000000000 ) ) ;
#31 = DIRECTION ( 'NONE',  ( 0.0000000000000000000, 0.0000000000000000000, 1.000000000000000000 ) ) ;
#32 = DIRECTION ( 'NONE',  ( 1.000000000000000000, 0.0000000000000000000, 0.0000000000000000000 ) ) ;
#33 = PERSON_AND_ORGANIZATION_ROLE ( 'creator' ) ;
#34 = PERSON_AND_ORGANIZATION ( #310, #285 ) ;
#35 = PERSON_AND_ORGANIZATION_ROLE ( 'design_owner' ) ;
#36 = PERSON_AND_ORGANIZATION ( #310, #285 ) ;
#37 = APPLICATION_PROTOCOL_DEFINITION ( 'international standard', 'config_control_design', 1994, #231 ) ;
#38 = CARTESIAN_POINT ( 'NONE',  ( 0.0000000000000000000, -6.000000000000000000, 0.0000000000000000000 ) ) ;
#39 = DIRECTION ( 'NONE',  ( -1.000000000000000000, 0.0000000000000000000, 0.0000000000000000000 ) ) ;
#40 = DIRECTION ( 'NONE',  ( -0.0000000000000000000, -0.0000000000000000000, -1.000000000000000000 ) ) ;
#41 = CARTESIAN_POINT ( 'NONE',  ( 0.0000000000000000000, 0.0000000000000000000, 0.0000000000000000000 ) ) ;
#42 = DATE_AND_TIME ( #277, #375 ) ;
#43 = SECURITY_CLASSIFICATION_LEVEL ( 'unclassified' ) ;
#44 = CARTESIAN_POINT ( 'NONE',  ( 0.0000000000000000000, 0.0000000000000000000, 0.0000000000000000000 ) ) ;
#45 = DIRECTION ( 'NONE',  ( 1.000000000000000000, 0.0000000000000000000, 0.0000000000000000000 ) ) ;
#46 = DIRECTION ( 'NONE',  ( 0.0000000000000000000, 0.0000000000000000000, -1.000000000000000000 ) ) ;
#47 = DATE_TIME_ROLE ( 'classification_date' ) ;
#48 = PERSON_AND_ORGANIZATION ( #310, #285 ) ;
#49 = DIRECTION ( 'NONE',  ( 1.000000000000000000, 0.0000000000000000000, 0.0000000000000000000 ) ) ;
#50 = DIRECTION ( 'NONE',  ( -1.000000000000000000, 0.0000000000000000000, 0.0000000000000000000 ) ) ;
#51 = CARTESIAN_POINT ( 'NONE',  ( 0.0000000000000000000, -6.000000000000000000, -2.999999999999999100 ) ) ;
#52 = PERSON_AND_ORGANIZATION_ROLE ( 'design_supplier' ) ;
#53 = APPROVAL_ROLE ( '' ) ;
#54 = SHAPE_DEFINITION_REPRESENTATION ( #312, #308 ) ;
#55 = DIRECTION ( 'NONE',  ( -0.0000000000000000000, -0.0000000000000000000, 1.000000000000000000 ) ) ;
#56 = CARTESIAN_POINT ( 'NONE',  ( 0.0000000000000000000, -6.000000000000000000, -2.999999999999999100 ) ) ;
#57 = DIRECTION ( 'NONE',  ( 1.000000000000000000, 0.0000000000000000000, 0.0000000000000000000 ) ) ;
#58 = CARTESIAN_POINT ( 'NONE',  ( 0.0000000000000000000, -6.000000000000000000, -2.999999999999999100 ) ) ;
#59 = DIRECTION ( 'NONE',  ( -0.0000000000000000000, -0.0000000000000000000, -1.000000000000000000 ) ) ;
#60 = DIRECTION ( 'NONE',  ( -1.000000000000000000, 0.0000000000000000000, 0.0000000000000000000 ) ) ;
#61 = PERSON_AND_ORGANIZATION_ROLE ( 'creator' ) ;
#62 = DIRECTION ( 'NONE',  ( 0.0000000000000000000, 0.0000000000000000000, 1.000000000000000000 ) ) ;
#63 = MECHANICAL_CONTEXT ( 'NONE', #232, 'mechanical' ) ;
#64 = PERSON_AND_ORGANIZATION_ROLE ( 'classification_officer' ) ;
#65 = PERSON_AND_ORGANIZATION ( #310, #285 ) ;
#66 = DIRECTION ( 'NONE',  ( 1.000000000000000000, 0.0000000000000000000, -0.0000000000000000000 ) ) ;
#67 = CARTESIAN_POINT ( 'NONE',  ( 0.0000000000000000000, -6.000000000000000000, -2.999999999999999100 ) ) ;
#68 = CARTESIAN_POINT ( 'NONE',  ( 0.0000000000000000000, 0.0000000000000000000, -13.00000000000000000 ) ) ;
#69 = DIRECTION ( 'NONE',  ( 0.0000000000000000000, 0.0000000000000000000, 1.000000000000000000 ) ) ;
#70 = DIRECTION ( 'NONE',  ( 0.0000000000000000000, 0.0000000000000000000, 1.000000000000000000 ) ) ;
#71 = PERSON_AND_ORGANIZATION ( #310, #285 ) ;
#72 = EDGE_LOOP ( 'NONE', ( #140, #148 ) ) ;
#73 = DIRECTION ( 'NONE',  ( -0.0000000000000000000, -0.0000000000000000000, -1.000000000000000000 ) ) ;
#74 = DIRECTION ( 'NONE',  ( 0.0000000000000000000, 0.0000000000000000000, 1.000000000000000000 ) ) ;
#75 =( NAMED_UNIT ( * ) SI_UNIT ( $, .STERADIAN. ) SOLID_ANGLE_UNIT ( ) );
#76 = DIRECTION ( 'NONE',  ( 1.000000000000000000, 0.0000000000000000000, 0.0000000000000000000 ) ) ;
#77 = CARTESIAN_POINT ( 'NONE',  ( 0.0000000000000000000, -6.000000000000000000, 0.0000000000000000000 ) ) ;
#78 = DIRECTION ( 'NONE',  ( -1.000000000000000000, 0.0000000000000000000, 0.0000000000000000000 ) ) ;
#79 = EDGE_LOOP ( 'NONE', ( #166, #147, #149, #175 ) ) ;
#80 = EDGE_LOOP ( 'NONE', ( #167, #141, #171, #164 ) ) ;
#81 = EDGE_LOOP ( 'NONE', ( #155, #159 ) ) ;
#82 = EDGE_LOOP ( 'NONE', ( #172, #151 ) ) ;
#83 = EDGE_LOOP ( 'NONE', ( #158, #152 ) ) ;
#84 = EDGE_LOOP ( 'NONE', ( #139, #177, #157, #153 ) ) ;
#85 = EDGE_LOOP ( 'NONE', ( #145, #168, #146, #154 ) ) ;
#86 = ORIENTED_EDGE ( 'NONE', *, *, #326, .T. ) ;
#87 = DIRECTION ( 'NONE',  ( -1.000000000000000000, 0.0000000000000000000, 0.0000000000000000000 ) ) ;
#88 = DIRECTION ( 'NONE',  ( 0.0000000000000000000, 0.0000000000000000000, -1.000000000000000000 ) ) ;
#89 = VERTEX_POINT ( 'NONE', #122 ) ;
#90 = CARTESIAN_POINT ( 'NONE',  ( 0.0000000000000000000, -6.000000000000000000, 0.0000000000000000000 ) ) ;
#91 =( NAMED_UNIT ( * ) PLANE_ANGLE_UNIT ( ) SI_UNIT ( $, .RADIAN. ) );
#92 = DIRECTION ( 'NONE',  ( -0.0000000000000000000, -0.0000000000000000000, 1.000000000000000000 ) ) ;
#93 = DIRECTION ( 'NONE',  ( 1.000000000000000000, 0.0000000000000000000, 0.0000000000000000000 ) ) ;
#94 = DIRECTION ( 'NONE',  ( 1.000000000000000000, 0.0000000000000000000, 0.0000000000000000000 ) ) ;
#95 = CARTESIAN_POINT ( 'NONE',  ( 0.0000000000000000000, 0.0000000000000000000, 0.0000000000000000000 ) ) ;
#96 = CARTESIAN_POINT ( 'NONE',  ( 0.0000000000000000000, 0.0000000000000000000, -13.00000000000000000 ) ) ;
#97 = DIRECTION ( 'NONE',  ( 0.0000000000000000000, 0.0000000000000000000, 1.000000000000000000 ) ) ;
#98 = CARTESIAN_POINT ( 'NONE',  ( -15.76794919243111600, 0.0000000000000000000, 0.0000000000000000000 ) ) ;
#99 = DIRECTION ( 'NONE',  ( -0.5000000000000017800, 0.0000000000000000000, -0.8660254037844377100 ) ) ;
#100 = LINE ( 'NONE', #98, #283 ) ;
#101 = CARTESIAN_POINT ( 'NONE',  ( -17.50000000000000000, 2.143131898507868200E-015, -3.000000000000000000 ) ) ;
#102 = CARTESIAN_POINT ( 'NONE',  ( -5.250000000000000000, -6.000000000000000000, -2.999999999999999100 ) ) ;
#103 = CARTESIAN_POINT ( 'NONE',  ( 17.50000000000000400, 0.0000000000000000000, -13.00000000000000000 ) ) ;
#104 = CARTESIAN_POINT ( 'NONE',  ( -15.76794919243111600, 0.0000000000000000000, 0.0000000000000000000 ) ) ;
#105 = CARTESIAN_POINT ( 'NONE',  ( 5.250000000000000000, -5.999999999999999100, 0.0000000000000000000 ) ) ;
#106 = CARTESIAN_POINT ( 'NONE',  ( -8.250000000000000000, -6.000000000000000000, -2.999999999999999100 ) ) ;
#107 = CARTESIAN_POINT ( 'NONE',  ( 17.50000000000000000, 0.0000000000000000000, -3.000000000000000000 ) ) ;
#108 = CARTESIAN_POINT ( 'NONE',  ( -8.250000000000000000, -6.000000000000000000, -13.00000000000000000 ) ) ;
#109 = CARTESIAN_POINT ( 'NONE',  ( -17.50000000000000400, 2.143131898507868200E-015, -13.00000000000000000 ) ) ;
#110 = CARTESIAN_POINT ( 'NONE',  ( -5.250000000000000000, -6.000000000000000000, 0.0000000000000000000 ) ) ;
#111 = CARTESIAN_POINT ( 'NONE',  ( 0.0000000000000000000, 0.0000000000000000000, 0.0000000000000000000 ) ) ;
#112 = DIRECTION ( 'NONE',  ( 0.0000000000000000000, 0.0000000000000000000, -1.000000000000000000 ) ) ;
#113 = CARTESIAN_POINT ( 'NONE',  ( 8.250000000000000000, -5.999999999999999100, -2.999999999999999100 ) ) ;
#114 =( LENGTH_UNIT ( ) NAMED_UNIT ( * ) SI_UNIT ( .MILLI., .METRE. ) );
#115 = CARTESIAN_POINT ( 'NONE',  ( 5.250000000000000000, -5.999999999999999100, -2.999999999999999100 ) ) ;
#116 = CARTESIAN_POINT ( 'NONE',  ( 15.76794919243111600, 2.037074374635377200E-015, 0.0000000000000000000 ) ) ;
#117 = DIRECTION ( 'NONE',  ( -1.000000000000000000, 0.0000000000000000000, 0.0000000000000000000 ) ) ;
#118 = VERTEX_POINT ( 'NONE', #115 ) ;
#119 = VERTEX_POINT ( 'NONE', #113 ) ;
#120 = VERTEX_POINT ( 'NONE', #110 ) ;
#121 = VERTEX_POINT ( 'NONE', #108 ) ;
#122 = CARTESIAN_POINT ( 'NONE',  ( 8.250000000000000000, -5.999999999999999100, -13.00000000000000000 ) ) ;
#123 = EDGE_LOOP ( 'NONE', ( #161, #170, #169, #163 ) ) ;
#124 = VERTEX_POINT ( 'NONE', #109 ) ;
#125 = VERTEX_POINT ( 'NONE', #106 ) ;
#126 = VERTEX_POINT ( 'NONE', #105 ) ;
#127 = VERTEX_POINT ( 'NONE', #107 ) ;
#128 = VERTEX_POINT ( 'NONE', #116 ) ;
#129 = VERTEX_POINT ( 'NONE', #104 ) ;
#130 = ORIENTED_EDGE ( 'NONE', *, *, #334, .F. ) ;
#131 = ORIENTED_EDGE ( 'NONE', *, *, #328, .T. ) ;
#132 = ORIENTED_EDGE ( 'NONE', *, *, #339, .T. ) ;
#133 = ORIENTED_EDGE ( 'NONE', *, *, #331, .T. ) ;
#134 = ORIENTED_EDGE ( 'NONE', *, *, #366, .T. ) ;
#135 = ORIENTED_EDGE ( 'NONE', *, *, #329, .F. ) ;
#136 = EDGE_LOOP ( 'NONE', ( #162, #143, #144, #156 ) ) ;
#137 = EDGE_LOOP ( 'NONE', ( #165, #142 ) ) ;
#138 = VERTEX_POINT ( 'NONE', #102 ) ;
#139 = ORIENTED_EDGE ( 'NONE', *, *, #331, .F. ) ;
#140 = ORIENTED_EDGE ( 'NONE', *, *, #340, .F. ) ;
#141 = ORIENTED_EDGE ( 'NONE', *, *, #327, .T. ) ;
#142 = ORIENTED_EDGE ( 'NONE', *, *, #316, .F. ) ;
#143 = ORIENTED_EDGE ( 'NONE', *, *, #335, .T. ) ;
#144 = ORIENTED_EDGE ( 'NONE', *, *, #338, .T. ) ;
#145 = ORIENTED_EDGE ( 'NONE', *, *, #335, .F. ) ;
#146 = ORIENTED_EDGE ( 'NONE', *, *, #315, .T. ) ;
#147 = ORIENTED_EDGE ( 'NONE', *, *, #316, .T. ) ;
#148 = ORIENTED_EDGE ( 'NONE', *, *, #339, .F. ) ;
#149 = ORIENTED_EDGE ( 'NONE', *, *, #319, .T. ) ;
#150 = ORIENTED_EDGE ( 'NONE', *, *, #317, .T. ) ;
#151 = ORIENTED_EDGE ( 'NONE', *, *, #333, .T. ) ;
#152 = ORIENTED_EDGE ( 'NONE', *, *, #336, .T. ) ;
#153 = ORIENTED_EDGE ( 'NONE', *, *, #340, .T. ) ;
#154 = ORIENTED_EDGE ( 'NONE', *, *, #337, .T. ) ;
#155 = ORIENTED_EDGE ( 'NONE', *, *, #366, .F. ) ;
#156 = ORIENTED_EDGE ( 'NONE', *, *, #315, .F. ) ;
#157 = ORIENTED_EDGE ( 'NONE', *, *, #332, .T. ) ;
#158 = ORIENTED_EDGE ( 'NONE', *, *, #318, .T. ) ;
#159 = ORIENTED_EDGE ( 'NONE', *, *, #327, .F. ) ;
#160 = ORIENTED_EDGE ( 'NONE', *, *, #332, .F. ) ;
#161 = ORIENTED_EDGE ( 'NONE', *, *, #320, .T. ) ;
#162 = ORIENTED_EDGE ( 'NONE', *, *, #326, .F. ) ;
#163 = ORIENTED_EDGE ( 'NONE', *, *, #319, .F. ) ;
#164 = ORIENTED_EDGE ( 'NONE', *, *, #333, .F. ) ;
#165 = ORIENTED_EDGE ( 'NONE', *, *, #320, .F. ) ;
#166 = ORIENTED_EDGE ( 'NONE', *, *, #330, .F. ) ;
#167 = ORIENTED_EDGE ( 'NONE', *, *, #328, .F. ) ;
#168 = ORIENTED_EDGE ( 'NONE', *, *, #317, .F. ) ;
#169 = ORIENTED_EDGE ( 'NONE', *, *, #338, .F. ) ;
#170 = ORIENTED_EDGE ( 'NONE', *, *, #330, .T. ) ;
#171 = ORIENTED_EDGE ( 'NONE', *, *, #334, .T. ) ;
#172 = ORIENTED_EDGE ( 'NONE', *, *, #329, .T. ) ;
#173 = EDGE_LOOP ( 'NONE', ( #174, #133, #132, #160 ) ) ;
#174 = ORIENTED_EDGE ( 'NONE', *, *, #336, .F. ) ;
#175 = ORIENTED_EDGE ( 'NONE', *, *, #337, .F. ) ;
#176 = EDGE_LOOP ( 'NONE', ( #134, #131, #135, #130 ) ) ;
#177 = ORIENTED_EDGE ( 'NONE', *, *, #318, .F. ) ;
#178 = VERTEX_POINT ( 'NONE', #103 ) ;
#179 = CARTESIAN_POINT ( 'NONE',  ( 0.0000000000000000000, 0.0000000000000000000, -13.00000000000000000 ) ) ;
#180 = VERTEX_POINT ( 'NONE', #101 ) ;
#181 = CARTESIAN_POINT ( 'NONE',  ( 17.50000000000000400, 0.0000000000000000000, -13.00000000000000000 ) ) ;
#182 = LINE ( 'NONE', #181, #241 ) ;
#183 = DIRECTION ( 'NONE',  ( 0.0000000000000000000, 0.0000000000000000000, 1.000000000000000000 ) ) ;
#184 = DIRECTION ( 'NONE',  ( 0.0000000000000000000, 0.0000000000000000000, 1.000000000000000000 ) ) ;
#185 = DIRECTION ( 'NONE',  ( 1.000000000000000000, 0.0000000000000000000, 0.0000000000000000000 ) ) ;
#186 = CARTESIAN_POINT ( 'NONE',  ( 0.0000000000000000000, -6.000000000000000000, -2.999999999999999100 ) ) ;
#187 = DIRECTION ( 'NONE',  ( 0.0000000000000000000, 0.0000000000000000000, -1.000000000000000000 ) ) ;
#188 = DIRECTION ( 'NONE',  ( -1.000000000000000000, 0.0000000000000000000, 0.0000000000000000000 ) ) ;
#189 = CARTESIAN_POINT ( 'NONE',  ( 0.0000000000000000000, 0.0000000000000000000, -13.00000000000000000 ) ) ;
#190 = DIRECTION ( 'NONE',  ( 0.0000000000000000000, 0.0000000000000000000, 1.000000000000000000 ) ) ;
#191 = DIRECTION ( 'NONE',  ( 1.000000000000000000, 0.0000000000000000000, 0.0000000000000000000 ) ) ;
#192 = DIRECTION ( 'NONE',  ( 1.000000000000000000, 0.0000000000000000000, -0.0000000000000000000 ) ) ;
#193 = PLANE ( 'NONE',  #297 ) ;
#194 = CARTESIAN_POINT ( 'NONE',  ( 0.0000000000000000000, 0.0000000000000000000, -13.00000000000000000 ) ) ;
#195 = DIRECTION ( 'NONE',  ( 0.0000000000000000000, 0.0000000000000000000, 1.000000000000000000 ) ) ;
#196 = EDGE_LOOP ( 'NONE', ( #150, #86 ) ) ;
#197 = CARTESIAN_POINT ( 'NONE',  ( 0.0000000000000000000, 0.0000000000000000000, 0.0000000000000000000 ) ) ;
#198 = DIRECTION ( 'NONE',  ( -0.0000000000000000000, -0.0000000000000000000, 1.000000000000000000 ) ) ;
#199 = DIRECTION ( 'NONE',  ( 1.000000000000000000, 0.0000000000000000000, 0.0000000000000000000 ) ) ;
#200 = DIRECTION ( 'NONE',  ( 0.0000000000000000000, 0.0000000000000000000, 1.000000000000000000 ) ) ;
#201 = CARTESIAN_POINT ( 'NONE',  ( 0.0000000000000000000, -6.000000000000000000, -2.999999999999999100 ) ) ;
#202 = DIRECTION ( 'NONE',  ( 1.000000000000000000, 0.0000000000000000000, 0.0000000000000000000 ) ) ;
#203 = CARTESIAN_POINT ( 'NONE',  ( 0.0000000000000000000, -6.000000000000000000, -13.00000000000000000 ) ) ;
#204 = LINE ( 'NONE', #206, #296 ) ;
#205 = CARTESIAN_POINT ( 'NONE',  ( 0.0000000000000000000, -6.000000000000000000, -13.00000000000000000 ) ) ;
#206 = CARTESIAN_POINT ( 'NONE',  ( 8.250000000000000000, -5.999999999999999100, -2.999999999999999100 ) ) ;
#207 = DIRECTION ( 'NONE',  ( 0.0000000000000000000, 0.0000000000000000000, -1.000000000000000000 ) ) ;
#208 = DIRECTION ( 'NONE',  ( 0.0000000000000000000, 0.0000000000000000000, 1.000000000000000000 ) ) ;
#209 = DIRECTION ( 'NONE',  ( 1.000000000000000000, 0.0000000000000000000, 0.0000000000000000000 ) ) ;
#210 = LINE ( 'NONE', #211, #265 ) ;
#211 = CARTESIAN_POINT ( 'NONE',  ( -17.50000000000000400, 2.143131898507868200E-015, -13.00000000000000000 ) ) ;
#212 = DIRECTION ( 'NONE',  ( 0.0000000000000000000, 0.0000000000000000000, 1.000000000000000000 ) ) ;
#213 = LINE ( 'NONE', #214, #292 ) ;
#214 = CARTESIAN_POINT ( 'NONE',  ( 5.250000000000000000, -5.999999999999999100, 0.0000000000000000000 ) ) ;
#215 = DIRECTION ( 'NONE',  ( -0.0000000000000000000, -0.0000000000000000000, -1.000000000000000000 ) ) ;
#216 = LINE ( 'NONE', #217, #288 ) ;
#217 = CARTESIAN_POINT ( 'NONE',  ( -5.250000000000000000, -6.000000000000000000, 0.0000000000000000000 ) ) ;
#218 = DIRECTION ( 'NONE',  ( -0.0000000000000000000, -0.0000000000000000000, -1.000000000000000000 ) ) ;
#219 = LINE ( 'NONE', #22, #280 ) ;
#220 = DIRECTION ( 'NONE',  ( 0.0000000000000000000, 0.0000000000000000000, 1.000000000000000000 ) ) ;
#221 = DIRECTION ( 'NONE',  ( 1.000000000000000000, 0.0000000000000000000, 0.0000000000000000000 ) ) ;
#222 = CARTESIAN_POINT ( 'NONE',  ( 0.0000000000000000000, -6.000000000000000000, 0.0000000000000000000 ) ) ;
#223 = LINE ( 'NONE', #224, #246 ) ;
#224 = CARTESIAN_POINT ( 'NONE',  ( -8.250000000000000000, -6.000000000000000000, -2.999999999999999100 ) ) ;
#225 = DIRECTION ( 'NONE',  ( 0.0000000000000000000, 0.0000000000000000000, -1.000000000000000000 ) ) ;
#226 = APPROVAL_ROLE ( '' ) ;
#227 = APPROVAL_STATUS ( 'not_yet_approved' ) ;
#228 = DATE_AND_TIME ( #262, #378 ) ;
#229 = APPROVAL_DATE_TIME ( #228, #377 ) ;
#230 =( GEOMETRIC_REPRESENTATION_CONTEXT ( 3 ) GLOBAL_UNCERTAINTY_ASSIGNED_CONTEXT ( ( #309 ) ) GLOBAL_UNIT_ASSIGNED_CONTEXT ( ( #114, #91, #75 ) ) REPRESENTATION_CONTEXT ( 'NONE', 'WORKASPACE' ) );
#231 = APPLICATION_CONTEXT ( 'configuration controlled 3d designs of mechanical parts and assemblies' ) ;
#232 = APPLICATION_CONTEXT ( 'configuration controlled 3d designs of mechanical parts and assemblies' ) ;
#233 = AXIS2_PLACEMENT_3D ( 'NONE', #58, #74, #76 ) ;
#234 = AXIS2_PLACEMENT_3D ( 'NONE', #95, #92, #93 ) ;
#235 = APPROVAL_PERSON_ORGANIZATION ( #25, #370, #53 ) ;
#236 = COORDINATED_UNIVERSAL_TIME_OFFSET ( 5, 0, .BEHIND. ) ;
#237 = AXIS2_PLACEMENT_3D ( 'NONE', #203, #208, #209 ) ;
#238 = FACE_OUTER_BOUND ( 'NONE', #80, .T. ) ;
#239 = COORDINATED_UNIVERSAL_TIME_OFFSET ( 5, 0, .BEHIND. ) ;
#240 = CYLINDRICAL_SURFACE ( 'NONE', #303, 5.250000000000000000 ) ;
#241 = VECTOR ( 'NONE', #183, 1000.000000000000000 ) ;
#242 = AXIS2_PLACEMENT_3D ( 'NONE', #67, #69, #66 ) ;
#243 = CALENDAR_DATE ( 2012, 5, 4 ) ;
#244 = FACE_OUTER_BOUND ( 'NONE', #123, .T. ) ;
#245 = CYLINDRICAL_SURFACE ( 'NONE', #272, 17.50000000000000400 ) ;
#246 = VECTOR ( 'NONE', #225, 1000.000000000000000 ) ;
#247 = FACE_OUTER_BOUND ( 'NONE', #85, .T. ) ;
#248 = AXIS2_PLACEMENT_3D ( 'NONE', #96, #97, #94 ) ;
#249 = CALENDAR_DATE ( 2012, 5, 4 ) ;
#250 = AXIS2_PLACEMENT_3D ( 'NONE', #111, #112, #117 ) ;
#251 = AXIS2_PLACEMENT_3D ( 'NONE', #20, #4, #11 ) ;
#252 = AXIS2_PLACEMENT_3D ( 'NONE', #29, #31, #14 ) ;
#253 = AXIS2_PLACEMENT_3D ( 'NONE', #222, #2, #9 ) ;
#254 = AXIS2_PLACEMENT_3D ( 'NONE', #19, #12, #50 ) ;
#255 = AXIS2_PLACEMENT_3D ( 'NONE', #205, #220, #221 ) ;
#256 = AXIS2_PLACEMENT_3D ( 'NONE', #189, #190, #191 ) ;
#257 = CC_DESIGN_APPROVAL ( #370, ( #286 ) ) ;
#258 = FACE_OUTER_BOUND ( 'NONE', #196, .T. ) ;
#259 = FACE_BOUND ( 'NONE', #82, .T. ) ;
#260 = FACE_OUTER_BOUND ( 'NONE', #137, .T. ) ;
#261 = CC_DESIGN_SECURITY_CLASSIFICATION ( #305, ( #286 ) ) ;
#262 = CALENDAR_DATE ( 2012, 5, 4 ) ;
#263 = AXIS2_PLACEMENT_3D ( 'NONE', #38, #40, #60 ) ;
#264 = AXIS2_PLACEMENT_3D ( 'NONE', #56, #59, #57 ) ;
#265 = VECTOR ( 'NONE', #212, 1000.000000000000000 ) ;
#266 = COORDINATED_UNIVERSAL_TIME_OFFSET ( 5, 0, .BEHIND. ) ;
#267 = AXIS2_PLACEMENT_3D ( 'NONE', #13, #55, #49 ) ;
#268 = CYLINDRICAL_SURFACE ( 'NONE', #254, 8.250000000000000000 ) ;
#269 = FACE_OUTER_BOUND ( 'NONE', #173, .T. ) ;
#270 = AXIS2_PLACEMENT_3D ( 'NONE', #51, #30, #32 ) ;
#271 = APPROVAL_PERSON_ORGANIZATION ( #65, #377, #226 ) ;
#272 = AXIS2_PLACEMENT_3D ( 'NONE', #68, #70, #23 ) ;
#273 = AXIS2_PLACEMENT_3D ( 'NONE', #186, #187, #188 ) ;
#274 = CC_DESIGN_APPROVAL ( #377, ( #305 ) ) ;
#275 = FACE_OUTER_BOUND ( 'NONE', #81, .T. ) ;
#276 = CYLINDRICAL_SURFACE ( 'NONE', #256, 17.50000000000000400 ) ;
#277 = CALENDAR_DATE ( 2012, 5, 4 ) ;
#278 = CC_DESIGN_APPROVAL ( #345, ( #341 ) ) ;
#279 = CALENDAR_DATE ( 2012, 5, 4 ) ;
#280 = VECTOR ( 'NONE', #3, 999.9999999999998900 ) ;
#281 = FACE_OUTER_BOUND ( 'NONE', #79, .T. ) ;
#282 = CLOSED_SHELL ( 'NONE', ( #323, #367, #368, #324, #325, #357, #365, #361, #356, #355, #364 ) ) ;
#283 = VECTOR ( 'NONE', #99, 999.9999999999998900 ) ;
#284 = AXIS2_PLACEMENT_3D ( 'NONE', #90, #88, #87 ) ;
#285 = ORGANIZATION ( 'UNSPECIFIED', 'UNSPECIFIED', '' ) ;
#286 = PRODUCT_DEFINITION_FORMATION_WITH_SPECIFIED_SOURCE ( 'ANY', '', #1, .NOT_KNOWN. ) ;
#287 = AXIS2_PLACEMENT_3D ( 'NONE', #41, #46, #39 ) ;
#288 = VECTOR ( 'NONE', #218, 1000.000000000000000 ) ;
#289 = AXIS2_PLACEMENT_3D ( 'NONE', #179, #184, #185 ) ;
#290 = COORDINATED_UNIVERSAL_TIME_OFFSET ( 5, 0, .BEHIND. ) ;
#291 = CYLINDRICAL_SURFACE ( 'NONE', #263, 5.250000000000000000 ) ;
#292 = VECTOR ( 'NONE', #215, 1000.000000000000000 ) ;
#293 = FACE_BOUND ( 'NONE', #72, .T. ) ;
#294 = AXIS2_PLACEMENT_3D ( 'NONE', #44, #62, #45 ) ;
#295 = AXIS2_PLACEMENT_3D ( 'NONE', #201, #200, #202 ) ;
#296 = VECTOR ( 'NONE', #207, 1000.000000000000000 ) ;
#297 = AXIS2_PLACEMENT_3D ( 'NONE', #194, #195, #192 ) ;
#298 = FACE_OUTER_BOUND ( 'NONE', #84, .T. ) ;
#299 = CYLINDRICAL_SURFACE ( 'NONE', #273, 8.250000000000000000 ) ;
#300 = FACE_OUTER_BOUND ( 'NONE', #176, .T. ) ;
#301 = FACE_OUTER_BOUND ( 'NONE', #136, .T. ) ;
#302 = FACE_BOUND ( 'NONE', #83, .T. ) ;
#303 = AXIS2_PLACEMENT_3D ( 'NONE', #77, #73, #78 ) ;
#304 = AXIS2_PLACEMENT_3D ( 'NONE', #197, #198, #199 ) ;
#305 = SECURITY_CLASSIFICATION ( '', '', #43 ) ;
#306 = COORDINATED_UNIVERSAL_TIME_OFFSET ( 5, 0, .BEHIND. ) ;
#307 = APPROVAL_PERSON_ORGANIZATION ( #18, #345, #17 ) ;
#308 = ADVANCED_BREP_SHAPE_REPRESENTATION ( 'WDS-629-205', ( #311, #294 ), #230 ) ;
#309 = UNCERTAINTY_MEASURE_WITH_UNIT (LENGTH_MEASURE( 1.000000000000000100E-005 ), #114, 'distance_accuracy_value', 'NONE');
#310 = PERSON ( 'UNSPECIFIED', 'UNSPECIFIED', 'UNSPECIFIED', ('UNSPECIFIED'), ('UNSPECIFIED'), ('UNSPECIFIED') ) ;
#311 = MANIFOLD_SOLID_BREP ( 'Cbore', #282 ) ;
#312 = PRODUCT_DEFINITION_SHAPE ( 'NONE', 'NONE',  #341 ) ;
#313 = DESIGN_CONTEXT ( 'detailed design', #231, 'design' ) ;
#314 = CIRCLE ( 'NONE', #234, 15.76794919243111600 ) ;
#315 = EDGE_CURVE ( 'NONE', #129, #180, #100, .T. ) ;
#316 = EDGE_CURVE ( 'NONE', #124, #178, #353, .T. ) ;
#317 = EDGE_CURVE ( 'NONE', #129, #128, #314, .T. ) ;
#318 = EDGE_CURVE ( 'NONE', #120, #126, #354, .T. ) ;
#319 = EDGE_CURVE ( 'NONE', #178, #127, #182, .T. ) ;
#320 = EDGE_CURVE ( 'NONE', #178, #124, #351, .T. ) ;
#321 = LOCAL_TIME ( 9, 24, 54.00000000000000000, #290 ) ;
#322 = CC_DESIGN_PERSON_AND_ORGANIZATION_ASSIGNMENT ( #16, #61, ( #341 ) ) ;
#323 = ADVANCED_FACE ( 'NONE', ( #300 ), #299, .F. ) ;
#324 = ADVANCED_FACE ( 'NONE', ( #244 ), #276, .T. ) ;
#325 = ADVANCED_FACE ( 'NONE', ( #260, #259 ), #193, .F. ) ;
#326 = EDGE_CURVE ( 'NONE', #128, #129, #350, .T. ) ;
#327 = EDGE_CURVE ( 'NONE', #119, #125, #352, .T. ) ;
#328 = EDGE_CURVE ( 'NONE', #119, #89, #204, .T. ) ;
#329 = EDGE_CURVE ( 'NONE', #121, #89, #349, .T. ) ;
#330 = EDGE_CURVE ( 'NONE', #124, #180, #210, .T. ) ;
#331 = EDGE_CURVE ( 'NONE', #126, #118, #213, .T. ) ;
#332 = EDGE_CURVE ( 'NONE', #120, #138, #216, .T. ) ;
#333 = EDGE_CURVE ( 'NONE', #89, #121, #362, .T. ) ;
#334 = EDGE_CURVE ( 'NONE', #125, #121, #223, .T. ) ;
#335 = EDGE_CURVE ( 'NONE', #128, #127, #219, .T. ) ;
#336 = EDGE_CURVE ( 'NONE', #126, #120, #360, .T. ) ;
#337 = EDGE_CURVE ( 'NONE', #180, #127, #359, .T. ) ;
#338 = EDGE_CURVE ( 'NONE', #127, #180, #358, .T. ) ;
#339 = EDGE_CURVE ( 'NONE', #118, #138, #363, .T. ) ;
#340 = EDGE_CURVE ( 'NONE', #138, #118, #348, .T. ) ;
#341 = PRODUCT_DEFINITION ( 'UNKNOWN', '', #286, #313 ) ;
#342 = CC_DESIGN_PERSON_AND_ORGANIZATION_ASSIGNMENT ( #34, #35, ( #1 ) ) ;
#343 = CONICAL_SURFACE ( 'NONE', #250, 15.76794919243111600, 0.5235987755983009300 ) ;
#344 = LOCAL_TIME ( 9, 24, 54.00000000000000000, #239 ) ;
#345 = APPROVAL ( #8, 'UNSPECIFIED' ) ;
#346 = CONICAL_SURFACE ( 'NONE', #287, 15.76794919243111600, 0.5235987755983009300 ) ;
#347 = CIRCLE ( 'NONE', #233, 8.250000000000000000 ) ;
#348 = CIRCLE ( 'NONE', #270, 5.250000000000000000 ) ;
#349 = CIRCLE ( 'NONE', #237, 8.250000000000000000 ) ;
#350 = CIRCLE ( 'NONE', #304, 15.76794919243111600 ) ;
#351 = CIRCLE ( 'NONE', #289, 17.50000000000000400 ) ;
#352 = CIRCLE ( 'NONE', #295, 8.250000000000000000 ) ;
#353 = CIRCLE ( 'NONE', #248, 17.50000000000000400 ) ;
#354 = CIRCLE ( 'NONE', #284, 5.250000000000000000 ) ;
#355 = ADVANCED_FACE ( 'NONE', ( #275, #293 ), #10, .F. ) ;
#356 = ADVANCED_FACE ( 'NONE', ( #298 ), #291, .F. ) ;
#357 = ADVANCED_FACE ( 'NONE', ( #281 ), #245, .T. ) ;
#358 = CIRCLE ( 'NONE', #267, 17.50000000000000000 ) ;
#359 = CIRCLE ( 'NONE', #251, 17.50000000000000000 ) ;
#360 = CIRCLE ( 'NONE', #253, 5.250000000000000000 ) ;
#361 = ADVANCED_FACE ( 'NONE', ( #302, #258 ), #21, .T. ) ;
#362 = CIRCLE ( 'NONE', #255, 8.250000000000000000 ) ;
#363 = CIRCLE ( 'NONE', #264, 5.250000000000000000 ) ;
#364 = ADVANCED_FACE ( 'NONE', ( #238 ), #268, .F. ) ;
#365 = ADVANCED_FACE ( 'NONE', ( #247 ), #346, .T. ) ;
#366 = EDGE_CURVE ( 'NONE', #125, #119, #347, .T. ) ;
#367 = ADVANCED_FACE ( 'NONE', ( #269 ), #240, .F. ) ;
#368 = ADVANCED_FACE ( 'NONE', ( #301 ), #343, .T. ) ;
#369 = CC_DESIGN_DATE_AND_TIME_ASSIGNMENT ( #15, #7, ( #341 ) ) ;
#370 = APPROVAL ( #28, 'UNSPECIFIED' ) ;
#371 = LOCAL_TIME ( 9, 24, 54.00000000000000000, #236 ) ;
#372 = CC_DESIGN_PERSON_AND_ORGANIZATION_ASSIGNMENT ( #71, #33, ( #286 ) ) ;
#373 = CC_DESIGN_PERSON_AND_ORGANIZATION_ASSIGNMENT ( #36, #52, ( #286 ) ) ;
#374 = CC_DESIGN_PERSON_AND_ORGANIZATION_ASSIGNMENT ( #48, #64, ( #305 ) ) ;
#375 = LOCAL_TIME ( 9, 24, 54.00000000000000000, #266 ) ;
#376 = CC_DESIGN_DATE_AND_TIME_ASSIGNMENT ( #42, #47, ( #305 ) ) ;
#377 = APPROVAL ( #227, 'UNSPECIFIED' ) ;
#378 = LOCAL_TIME ( 9, 24, 54.00000000000000000, #306 ) ;
#379 = PRODUCT_RELATED_PRODUCT_CATEGORY ( 'detail', '', ( #1 ) ) ;
ENDSEC;
END-ISO-10303-21;
