ISO-10303-21;
HEADER;
FILE_DESCRIPTION (( 'STEP AP203' ),
    '1' );
FILE_NAME ('WDS-629-203.step',
    '2012-04-05T13:24:28',
    ( 'sysAdmin' ),
    ( 'SolidWorks' ),
    'SwSTEP 2.0',
    'SolidWorks 2012',
    '' );
FILE_SCHEMA (( 'CONFIG_CONTROL_DESIGN' ));
ENDSEC;

DATA;
#1 = APPROVAL_PERSON_ORGANIZATION ( #7, #3, #2 ) ;
#2 = APPROVAL_ROLE ( '' ) ;
#3 = APPROVAL ( #10, 'UNSPECIFIED' ) ;
#4 = PERSON_AND_ORGANIZATION_ROLE ( 'design_owner' ) ;
#5 = PERSON_AND_ORGANIZATION ( #293, #292 ) ;
#6 = APPLICATION_CONTEXT ( 'configuration controlled 3d designs of mechanical parts and assemblies' ) ;
#7 = PERSON_AND_ORGANIZATION ( #293, #292 ) ;
#8 = APPLICATION_PROTOCOL_DEFINITION ( 'international standard', 'config_control_design', 1994, #6 ) ;
#9 = DESIGN_CONTEXT ( 'detailed design', #6, 'design' ) ;
#10 = APPROVAL_STATUS ( 'not_yet_approved' ) ;
#11 = PRODUCT_DEFINITION ( 'UNKNOWN', '', #87, #9 ) ;
#12 = CC_DESIGN_PERSON_AND_ORGANIZATION_ASSIGNMENT ( #5, #4, ( #294 ) ) ;
#13 = ADVANCED_FACE ( 'NONE', ( #97 ), #120, .T. ) ;
#14 = ORIENTED_EDGE ( 'NONE', *, *, #82, .T. ) ;
#15 = EDGE_CURVE ( 'NONE', #58, #57, #121, .T. ) ;
#16 = ORIENTED_EDGE ( 'NONE', *, *, #15, .F. ) ;
#17 = ADVANCED_FACE ( 'NONE', ( #48 ), #161, .T. ) ;
#18 = EDGE_CURVE ( 'NONE', #19, #32, #155, .T. ) ;
#19 = VERTEX_POINT ( 'NONE', #93 ) ;
#20 = VERTEX_POINT ( 'NONE', #160 ) ;
#21 = AXIS2_PLACEMENT_3D ( 'NONE', #165, #164, #163 ) ;
#22 = CARTESIAN_POINT ( 'NONE',  ( 0.0000000000000000000, 0.0000000000000000000, -13.00000000000000000 ) ) ;
#23 = ADVANCED_FACE ( 'NONE', ( #149 ), #162, .F. ) ;
#24 = VERTEX_POINT ( 'NONE', #305 ) ;
#25 = EDGE_CURVE ( 'NONE', #32, #30, #301, .T. ) ;
#26 = VERTEX_POINT ( 'NONE', #303 ) ;
#27 = ORIENTED_EDGE ( 'NONE', *, *, #67, .F. ) ;
#28 = ORIENTED_EDGE ( 'NONE', *, *, #25, .T. ) ;
#29 = EDGE_CURVE ( 'NONE', #65, #30, #306, .T. ) ;
#30 = VERTEX_POINT ( 'NONE', #221 ) ;
#31 = EDGE_CURVE ( 'NONE', #20, #71, #215, .T. ) ;
#32 = VERTEX_POINT ( 'NONE', #219 ) ;
#33 = EDGE_LOOP ( 'NONE', ( #64, #28, #66, #27 ) ) ;
#34 = EDGE_LOOP ( 'NONE', ( #74, #73, #69, #68 ) ) ;
#35 = ORIENTED_EDGE ( 'NONE', *, *, #83, .F. ) ;
#36 = EDGE_LOOP ( 'NONE', ( #139, #39, #14, #16 ) ) ;
#37 = ORIENTED_EDGE ( 'NONE', *, *, #82, .F. ) ;
#38 = ADVANCED_FACE ( 'NONE', ( #220, #297 ), #222, .F. ) ;
#39 = ORIENTED_EDGE ( 'NONE', *, *, #83, .T. ) ;
#40 = ORIENTED_EDGE ( 'NONE', *, *, #46, .F. ) ;
#41 = EDGE_CURVE ( 'NONE', #30, #65, #212, .T. ) ;
#42 = EDGE_LOOP ( 'NONE', ( #43, #140 ) ) ;
#43 = ORIENTED_EDGE ( 'NONE', *, *, #29, .T. ) ;
#44 = EDGE_CURVE ( 'NONE', #72, #76, #198, .T. ) ;
#45 = EDGE_CURVE ( 'NONE', #55, #58, #199, .T. ) ;
#46 = EDGE_CURVE ( 'NONE', #47, #55, #193, .T. ) ;
#47 = VERTEX_POINT ( 'NONE', #187 ) ;
#48 = FACE_OUTER_BOUND ( 'NONE', #110, .T. ) ;
#49 = DIRECTION ( 'NONE',  ( 1.000000000000000000, 0.0000000000000000000, 0.0000000000000000000 ) ) ;
#50 = DIRECTION ( 'NONE',  ( 0.0000000000000000000, 0.0000000000000000000, 1.000000000000000000 ) ) ;
#51 = MANIFOLD_SOLID_BREP ( 'Cbore', #168 ) ;
#52 = LOCAL_TIME ( 9, 24, 28.00000000000000000, #157 ) ;
#53 = EDGE_LOOP ( 'NONE', ( #86, #85, #56, #37 ) ) ;
#54 = EDGE_CURVE ( 'NONE', #71, #76, #185, .T. ) ;
#55 = VERTEX_POINT ( 'NONE', #182 ) ;
#56 = ORIENTED_EDGE ( 'NONE', *, *, #77, .F. ) ;
#57 = VERTEX_POINT ( 'NONE', #189 ) ;
#58 = VERTEX_POINT ( 'NONE', #175 ) ;
#59 = ADVANCED_FACE ( 'NONE', ( #174 ), #188, .T. ) ;
#60 = ORIENTED_EDGE ( 'NONE', *, *, #62, .T. ) ;
#61 = ORIENTED_EDGE ( 'NONE', *, *, #63, .F. ) ;
#62 = EDGE_CURVE ( 'NONE', #24, #57, #171, .T. ) ;
#63 = EDGE_CURVE ( 'NONE', #24, #26, #176, .T. ) ;
#64 = ORIENTED_EDGE ( 'NONE', *, *, #18, .T. ) ;
#65 = VERTEX_POINT ( 'NONE', #335 ) ;
#66 = ORIENTED_EDGE ( 'NONE', *, *, #29, .F. ) ;
#67 = EDGE_CURVE ( 'NONE', #19, #65, #328, .T. ) ;
#68 = ORIENTED_EDGE ( 'NONE', *, *, #54, .F. ) ;
#69 = ORIENTED_EDGE ( 'NONE', *, *, #44, .T. ) ;
#70 = ADVANCED_FACE ( 'NONE', ( #336 ), #330, .F. ) ;
#71 = VERTEX_POINT ( 'NONE', #320 ) ;
#72 = VERTEX_POINT ( 'NONE', #323 ) ;
#73 = ORIENTED_EDGE ( 'NONE', *, *, #75, .T. ) ;
#74 = ORIENTED_EDGE ( 'NONE', *, *, #31, .F. ) ;
#75 = EDGE_CURVE ( 'NONE', #20, #72, #316, .T. ) ;
#76 = VERTEX_POINT ( 'NONE', #318 ) ;
#77 = EDGE_CURVE ( 'NONE', #57, #58, #329, .T. ) ;
#78 = EDGE_LOOP ( 'NONE', ( #40, #35 ) ) ;
#79 = ORIENTED_EDGE ( 'NONE', *, *, #81, .F. ) ;
#80 = ORIENTED_EDGE ( 'NONE', *, *, #77, .T. ) ;
#81 = EDGE_CURVE ( 'NONE', #26, #58, #311, .T. ) ;
#82 = EDGE_CURVE ( 'NONE', #47, #57, #288, .T. ) ;
#83 = EDGE_CURVE ( 'NONE', #55, #47, #324, .T. ) ;
#84 = ADVANCED_FACE ( 'NONE', ( #282 ), #319, .T. ) ;
#85 = ORIENTED_EDGE ( 'NONE', *, *, #45, .T. ) ;
#86 = ORIENTED_EDGE ( 'NONE', *, *, #46, .T. ) ;
#87 = PRODUCT_DEFINITION_FORMATION_WITH_SPECIFIED_SOURCE ( 'ANY', '', #294, .NOT_KNOWN. ) ;
#88 = CC_DESIGN_DATE_AND_TIME_ASSIGNMENT ( #90, #89, ( #11 ) ) ;
#89 = DATE_TIME_ROLE ( 'creation_date' ) ;
#90 = DATE_AND_TIME ( #91, #92 ) ;
#91 = CALENDAR_DATE ( 2012, 5, 4 ) ;
#92 = LOCAL_TIME ( 9, 24, 28.00000000000000000, #141 ) ;
#93 = CARTESIAN_POINT ( 'NONE',  ( -6.750000000000000000, -3.000000000000000000, -4.999999999999999100 ) ) ;
#94 = AXIS2_PLACEMENT_3D ( 'NONE', #154, #153, #152 ) ;
#95 = CARTESIAN_POINT ( 'NONE',  ( 0.0000000000000000000, 0.0000000000000000000, 0.0000000000000000000 ) ) ;
#96 = AXIS2_PLACEMENT_3D ( 'NONE', #22, #50, #49 ) ;
#97 = FACE_OUTER_BOUND ( 'NONE', #36, .T. ) ;
#98 = APPROVAL_ROLE ( '' ) ;
#99 = APPROVAL ( #100, 'UNSPECIFIED' ) ;
#100 = APPROVAL_STATUS ( 'not_yet_approved' ) ;
#101 = PERSON_AND_ORGANIZATION ( #293, #292 ) ;
#102 = EDGE_CURVE ( 'NONE', #76, #72, #275, .T. ) ;
#103 = ORIENTED_EDGE ( 'NONE', *, *, #18, .F. ) ;
#104 = ORIENTED_EDGE ( 'NONE', *, *, #102, .T. ) ;
#105 = ORIENTED_EDGE ( 'NONE', *, *, #137, .F. ) ;
#106 = ADVANCED_FACE ( 'NONE', ( #317, #272 ), #271, .F. ) ;
#107 = ORIENTED_EDGE ( 'NONE', *, *, #137, .T. ) ;
#108 = ORIENTED_EDGE ( 'NONE', *, *, #44, .F. ) ;
#109 = ORIENTED_EDGE ( 'NONE', *, *, #102, .F. ) ;
#110 = EDGE_LOOP ( 'NONE', ( #130, #123, #116, #114 ) ) ;
#111 = ORIENTED_EDGE ( 'NONE', *, *, #133, .T. ) ;
#112 = EDGE_LOOP ( 'NONE', ( #111, #129 ) ) ;
#113 = EDGE_CURVE ( 'NONE', #26, #24, #266, .T. ) ;
#114 = ORIENTED_EDGE ( 'NONE', *, *, #15, .T. ) ;
#115 = EDGE_LOOP ( 'NONE', ( #118, #135, #138, #104 ) ) ;
#116 = ORIENTED_EDGE ( 'NONE', *, *, #81, .T. ) ;
#117 = EDGE_LOOP ( 'NONE', ( #109, #108 ) ) ;
#118 = ORIENTED_EDGE ( 'NONE', *, *, #75, .F. ) ;
#119 = ORIENTED_EDGE ( 'NONE', *, *, #113, .T. ) ;
#120 = CYLINDRICAL_SURFACE ( 'NONE', #96, 12.50000000000000000 ) ;
#121 = CIRCLE ( 'NONE', #21, 12.50000000000000000 ) ;
#122 = EDGE_LOOP ( 'NONE', ( #127, #107, #126, #128 ) ) ;
#123 = ORIENTED_EDGE ( 'NONE', *, *, #113, .F. ) ;
#124 = EDGE_LOOP ( 'NONE', ( #119, #132 ) ) ;
#125 = ADVANCED_FACE ( 'NONE', ( #261 ), #280, .F. ) ;
#126 = ORIENTED_EDGE ( 'NONE', *, *, #67, .T. ) ;
#127 = ORIENTED_EDGE ( 'NONE', *, *, #25, .F. ) ;
#128 = ORIENTED_EDGE ( 'NONE', *, *, #41, .F. ) ;
#129 = ORIENTED_EDGE ( 'NONE', *, *, #31, .T. ) ;
#130 = ORIENTED_EDGE ( 'NONE', *, *, #62, .F. ) ;
#131 = ADVANCED_FACE ( 'NONE', ( #259, #265 ), #252, .T. ) ;
#132 = ORIENTED_EDGE ( 'NONE', *, *, #63, .T. ) ;
#133 = EDGE_CURVE ( 'NONE', #71, #20, #245, .T. ) ;
#134 = EDGE_LOOP ( 'NONE', ( #103, #105 ) ) ;
#135 = ORIENTED_EDGE ( 'NONE', *, *, #133, .F. ) ;
#136 = ADVANCED_FACE ( 'NONE', ( #254 ), #240, .F. ) ;
#137 = EDGE_CURVE ( 'NONE', #32, #19, #234, .T. ) ;
#138 = ORIENTED_EDGE ( 'NONE', *, *, #54, .T. ) ;
#139 = ORIENTED_EDGE ( 'NONE', *, *, #45, .F. ) ;
#140 = ORIENTED_EDGE ( 'NONE', *, *, #41, .T. ) ;
#141 = COORDINATED_UNIVERSAL_TIME_OFFSET ( 5, 0, .BEHIND. ) ;
#142 = PERSON_AND_ORGANIZATION_ROLE ( 'creator' ) ;
#143 = PERSON_AND_ORGANIZATION ( #293, #292 ) ;
#144 = DIRECTION ( 'NONE',  ( -1.000000000000000000, 0.0000000000000000000, 0.0000000000000000000 ) ) ;
#145 = DATE_AND_TIME ( #156, #52 ) ;
#146 = APPROVAL_DATE_TIME ( #145, #3 ) ;
#147 = DIRECTION ( 'NONE',  ( 0.0000000000000000000, 0.0000000000000000000, -1.000000000000000000 ) ) ;
#148 = CC_DESIGN_PERSON_AND_ORGANIZATION_ASSIGNMENT ( #143, #142, ( #11 ) ) ;
#149 = FACE_OUTER_BOUND ( 'NONE', #33, .T. ) ;
#150 = AXIS2_PLACEMENT_3D ( 'NONE', #166, #147, #144 ) ;
#151 = CC_DESIGN_APPROVAL ( #3, ( #11 ) ) ;
#152 = DIRECTION ( 'NONE',  ( 1.000000000000000000, 0.0000000000000000000, 0.0000000000000000000 ) ) ;
#153 = DIRECTION ( 'NONE',  ( 0.0000000000000000000, 0.0000000000000000000, 1.000000000000000000 ) ) ;
#154 = CARTESIAN_POINT ( 'NONE',  ( 0.0000000000000000000, -3.000000000000000000, -4.999999999999999100 ) ) ;
#155 = CIRCLE ( 'NONE', #94, 6.750000000000000000 ) ;
#156 = CALENDAR_DATE ( 2012, 5, 4 ) ;
#157 = COORDINATED_UNIVERSAL_TIME_OFFSET ( 5, 0, .BEHIND. ) ;
#158 = DIRECTION ( 'NONE',  ( -1.000000000000000000, 0.0000000000000000000, 0.0000000000000000000 ) ) ;
#159 = DIRECTION ( 'NONE',  ( 0.0000000000000000000, 0.0000000000000000000, -1.000000000000000000 ) ) ;
#160 = CARTESIAN_POINT ( 'NONE',  ( 4.250000000000000000, -2.999999999999999600, 0.0000000000000000000 ) ) ;
#161 = CONICAL_SURFACE ( 'NONE', #167, 10.76794919243111600, 0.5235987755983005900 ) ;
#162 = CYLINDRICAL_SURFACE ( 'NONE', #150, 6.750000000000000000 ) ;
#163 = DIRECTION ( 'NONE',  ( 1.000000000000000000, 0.0000000000000000000, 0.0000000000000000000 ) ) ;
#164 = DIRECTION ( 'NONE',  ( -0.0000000000000000000, -0.0000000000000000000, 1.000000000000000000 ) ) ;
#165 = CARTESIAN_POINT ( 'NONE',  ( 0.0000000000000000000, 0.0000000000000000000, -3.000000000000000000 ) ) ;
#166 = CARTESIAN_POINT ( 'NONE',  ( 0.0000000000000000000, -3.000000000000000000, -4.999999999999999100 ) ) ;
#167 = AXIS2_PLACEMENT_3D ( 'NONE', #95, #159, #158 ) ;
#168 = CLOSED_SHELL ( 'NONE', ( #23, #70, #59, #84, #38, #13, #17, #131, #136, #106, #125 ) ) ;
#169 = EDGE_LOOP ( 'NONE', ( #61, #60, #80, #79 ) ) ;
#170 = CARTESIAN_POINT ( 'NONE',  ( 10.76794919243111600, 1.318693451189209300E-015, 0.0000000000000000000 ) ) ;
#171 = LINE ( 'NONE', #170, #339 ) ;
#172 = AXIS2_PLACEMENT_3D ( 'NONE', #334, #337, #321 ) ;
#173 = DIRECTION ( 'NONE',  ( -1.000000000000000000, 0.0000000000000000000, 0.0000000000000000000 ) ) ;
#174 = FACE_OUTER_BOUND ( 'NONE', #169, .T. ) ;
#175 = CARTESIAN_POINT ( 'NONE',  ( -12.50000000000000000, 1.530808498934191100E-015, -3.000000000000000000 ) ) ;
#176 = CIRCLE ( 'NONE', #181, 10.76794919243111600 ) ;
#177 = DIRECTION ( 'NONE',  ( 0.0000000000000000000, 0.0000000000000000000, -1.000000000000000000 ) ) ;
#178 = CARTESIAN_POINT ( 'NONE',  ( 0.0000000000000000000, 0.0000000000000000000, 0.0000000000000000000 ) ) ;
#179 = DIRECTION ( 'NONE',  ( -0.0000000000000000000, -0.0000000000000000000, -1.000000000000000000 ) ) ;
#180 = VECTOR ( 'NONE', #179, 1000.000000000000000 ) ;
#181 = AXIS2_PLACEMENT_3D ( 'NONE', #333, #332, #331 ) ;
#182 = CARTESIAN_POINT ( 'NONE',  ( -12.50000000000000000, 1.530808498934191100E-015, -13.00000000000000000 ) ) ;
#183 = DIRECTION ( 'NONE',  ( 1.000000000000000000, 0.0000000000000000000, 0.0000000000000000000 ) ) ;
#184 = DIRECTION ( 'NONE',  ( 0.0000000000000000000, 0.0000000000000000000, 1.000000000000000000 ) ) ;
#185 = LINE ( 'NONE', #186, #180 ) ;
#186 = CARTESIAN_POINT ( 'NONE',  ( -4.250000000000000000, -3.000000000000000000, 0.0000000000000000000 ) ) ;
#187 = CARTESIAN_POINT ( 'NONE',  ( 12.50000000000000000, 0.0000000000000000000, -13.00000000000000000 ) ) ;
#188 = CONICAL_SURFACE ( 'NONE', #213, 10.76794919243111600, 0.5235987755983005900 ) ;
#189 = CARTESIAN_POINT ( 'NONE',  ( 12.50000000000000000, 0.0000000000000000000, -3.000000000000000000 ) ) ;
#190 = DIRECTION ( 'NONE',  ( 0.0000000000000000000, 0.0000000000000000000, 1.000000000000000000 ) ) ;
#191 = VECTOR ( 'NONE', #190, 1000.000000000000000 ) ;
#192 = CARTESIAN_POINT ( 'NONE',  ( -12.50000000000000000, 1.530808498934191100E-015, -13.00000000000000000 ) ) ;
#193 = CIRCLE ( 'NONE', #207, 12.50000000000000000 ) ;
#194 = DIRECTION ( 'NONE',  ( 1.000000000000000000, 0.0000000000000000000, 0.0000000000000000000 ) ) ;
#195 = DIRECTION ( 'NONE',  ( -0.0000000000000000000, -0.0000000000000000000, -1.000000000000000000 ) ) ;
#196 = CARTESIAN_POINT ( 'NONE',  ( 0.0000000000000000000, -3.000000000000000000, -4.999999999999999100 ) ) ;
#197 = AXIS2_PLACEMENT_3D ( 'NONE', #196, #195, #194 ) ;
#198 = CIRCLE ( 'NONE', #197, 4.250000000000000000 ) ;
#199 = LINE ( 'NONE', #192, #191 ) ;
#200 = CARTESIAN_POINT ( 'NONE',  ( 0.0000000000000000000, 0.0000000000000000000, -13.00000000000000000 ) ) ;
#201 = DIRECTION ( 'NONE',  ( 1.000000000000000000, 0.0000000000000000000, 0.0000000000000000000 ) ) ;
#202 = DIRECTION ( 'NONE',  ( 0.0000000000000000000, 0.0000000000000000000, 1.000000000000000000 ) ) ;
#203 = CARTESIAN_POINT ( 'NONE',  ( 0.0000000000000000000, -3.000000000000000000, -13.00000000000000000 ) ) ;
#204 = AXIS2_PLACEMENT_3D ( 'NONE', #203, #202, #201 ) ;
#205 = DIRECTION ( 'NONE',  ( 1.000000000000000000, 0.0000000000000000000, -0.0000000000000000000 ) ) ;
#206 = DIRECTION ( 'NONE',  ( 0.0000000000000000000, 0.0000000000000000000, 1.000000000000000000 ) ) ;
#207 = AXIS2_PLACEMENT_3D ( 'NONE', #200, #184, #183 ) ;
#208 = AXIS2_PLACEMENT_3D ( 'NONE', #214, #206, #205 ) ;
#209 = DIRECTION ( 'NONE',  ( -1.000000000000000000, 0.0000000000000000000, 0.0000000000000000000 ) ) ;
#210 = DIRECTION ( 'NONE',  ( 0.0000000000000000000, 0.0000000000000000000, -1.000000000000000000 ) ) ;
#211 = CARTESIAN_POINT ( 'NONE',  ( 0.0000000000000000000, -3.000000000000000000, 0.0000000000000000000 ) ) ;
#212 = CIRCLE ( 'NONE', #204, 6.750000000000000000 ) ;
#213 = AXIS2_PLACEMENT_3D ( 'NONE', #178, #177, #173 ) ;
#214 = CARTESIAN_POINT ( 'NONE',  ( 0.0000000000000000000, 0.0000000000000000000, -13.00000000000000000 ) ) ;
#215 = CIRCLE ( 'NONE', #304, 4.250000000000000000 ) ;
#216 = DIRECTION ( 'NONE',  ( 1.000000000000000000, 0.0000000000000000000, 0.0000000000000000000 ) ) ;
#217 = DIRECTION ( 'NONE',  ( 0.0000000000000000000, 0.0000000000000000000, 1.000000000000000000 ) ) ;
#218 = CARTESIAN_POINT ( 'NONE',  ( 0.0000000000000000000, -3.000000000000000000, -13.00000000000000000 ) ) ;
#219 = CARTESIAN_POINT ( 'NONE',  ( 6.750000000000000000, -2.999999999999999100, -4.999999999999999100 ) ) ;
#220 = FACE_OUTER_BOUND ( 'NONE', #78, .T. ) ;
#221 = CARTESIAN_POINT ( 'NONE',  ( 6.750000000000000000, -2.999999999999999100, -13.00000000000000000 ) ) ;
#222 = PLANE ( 'NONE',  #208 ) ;
#223 = DIRECTION ( 'NONE',  ( 1.000000000000000000, 0.0000000000000000000, 0.0000000000000000000 ) ) ;
#224 = DIRECTION ( 'NONE',  ( 0.0000000000000000000, 0.0000000000000000000, 1.000000000000000000 ) ) ;
#225 = APPLICATION_CONTEXT ( 'configuration controlled 3d designs of mechanical parts and assemblies' ) ;
#226 = ADVANCED_BREP_SHAPE_REPRESENTATION ( 'WDS-629-203', ( #51, #235 ), #227 ) ;
#227 =( GEOMETRIC_REPRESENTATION_CONTEXT ( 3 ) GLOBAL_UNCERTAINTY_ASSIGNED_CONTEXT ( ( #228 ) ) GLOBAL_UNIT_ASSIGNED_CONTEXT ( ( #236, #230, #229 ) ) REPRESENTATION_CONTEXT ( 'NONE', 'WORKASPACE' ) );
#228 = UNCERTAINTY_MEASURE_WITH_UNIT (LENGTH_MEASURE( 1.000000000000000100E-005 ), #236, 'distance_accuracy_value', 'NONE');
#229 =( NAMED_UNIT ( * ) SI_UNIT ( $, .STERADIAN. ) SOLID_ANGLE_UNIT ( ) );
#230 =( NAMED_UNIT ( * ) PLANE_ANGLE_UNIT ( ) SI_UNIT ( $, .RADIAN. ) );
#231 = DIRECTION ( 'NONE',  ( 1.000000000000000000, 0.0000000000000000000, 0.0000000000000000000 ) ) ;
#232 = DIRECTION ( 'NONE',  ( 0.0000000000000000000, 0.0000000000000000000, 1.000000000000000000 ) ) ;
#233 = CARTESIAN_POINT ( 'NONE',  ( 0.0000000000000000000, -3.000000000000000000, -4.999999999999999100 ) ) ;
#234 = CIRCLE ( 'NONE', #246, 6.750000000000000000 ) ;
#235 = AXIS2_PLACEMENT_3D ( 'NONE', #340, #224, #223 ) ;
#236 =( LENGTH_UNIT ( ) NAMED_UNIT ( * ) SI_UNIT ( .MILLI., .METRE. ) );
#237 = DIRECTION ( 'NONE',  ( -1.000000000000000000, 0.0000000000000000000, 0.0000000000000000000 ) ) ;
#238 = DIRECTION ( 'NONE',  ( -0.0000000000000000000, -0.0000000000000000000, -1.000000000000000000 ) ) ;
#239 = CARTESIAN_POINT ( 'NONE',  ( 0.0000000000000000000, -3.000000000000000000, 0.0000000000000000000 ) ) ;
#240 = CYLINDRICAL_SURFACE ( 'NONE', #253, 4.250000000000000000 ) ;
#241 = DIRECTION ( 'NONE',  ( -1.000000000000000000, 0.0000000000000000000, 0.0000000000000000000 ) ) ;
#242 = DIRECTION ( 'NONE',  ( 0.0000000000000000000, 0.0000000000000000000, -1.000000000000000000 ) ) ;
#243 = CARTESIAN_POINT ( 'NONE',  ( 0.0000000000000000000, -3.000000000000000000, 0.0000000000000000000 ) ) ;
#244 = AXIS2_PLACEMENT_3D ( 'NONE', #243, #242, #241 ) ;
#245 = CIRCLE ( 'NONE', #244, 4.250000000000000000 ) ;
#246 = AXIS2_PLACEMENT_3D ( 'NONE', #233, #232, #231 ) ;
#247 = DIRECTION ( 'NONE',  ( 1.000000000000000000, 0.0000000000000000000, -0.0000000000000000000 ) ) ;
#248 = DIRECTION ( 'NONE',  ( 0.0000000000000000000, 0.0000000000000000000, 1.000000000000000000 ) ) ;
#249 = CARTESIAN_POINT ( 'NONE',  ( 0.0000000000000000000, 0.0000000000000000000, 0.0000000000000000000 ) ) ;
#250 = AXIS2_PLACEMENT_3D ( 'NONE', #249, #248, #247 ) ;
#251 = DIRECTION ( 'NONE',  ( -1.000000000000000000, 0.0000000000000000000, 0.0000000000000000000 ) ) ;
#252 = PLANE ( 'NONE',  #250 ) ;
#253 = AXIS2_PLACEMENT_3D ( 'NONE', #239, #238, #237 ) ;
#254 = FACE_OUTER_BOUND ( 'NONE', #115, .T. ) ;
#255 = DIRECTION ( 'NONE',  ( 1.000000000000000000, 0.0000000000000000000, 0.0000000000000000000 ) ) ;
#256 = DIRECTION ( 'NONE',  ( -0.0000000000000000000, -0.0000000000000000000, 1.000000000000000000 ) ) ;
#257 = CARTESIAN_POINT ( 'NONE',  ( 0.0000000000000000000, 0.0000000000000000000, 0.0000000000000000000 ) ) ;
#258 = AXIS2_PLACEMENT_3D ( 'NONE', #257, #256, #255 ) ;
#259 = FACE_BOUND ( 'NONE', #112, .T. ) ;
#260 = CARTESIAN_POINT ( 'NONE',  ( 0.0000000000000000000, -3.000000000000000000, -4.999999999999999100 ) ) ;
#261 = FACE_OUTER_BOUND ( 'NONE', #122, .T. ) ;
#262 = DIRECTION ( 'NONE',  ( 1.000000000000000000, 0.0000000000000000000, -0.0000000000000000000 ) ) ;
#263 = DIRECTION ( 'NONE',  ( 0.0000000000000000000, 0.0000000000000000000, -1.000000000000000000 ) ) ;
#264 = AXIS2_PLACEMENT_3D ( 'NONE', #274, #279, #262 ) ;
#265 = FACE_OUTER_BOUND ( 'NONE', #124, .T. ) ;
#266 = CIRCLE ( 'NONE', #258, 10.76794919243111600 ) ;
#267 = DIRECTION ( 'NONE',  ( 1.000000000000000000, 0.0000000000000000000, 0.0000000000000000000 ) ) ;
#268 = DIRECTION ( 'NONE',  ( -0.0000000000000000000, -0.0000000000000000000, -1.000000000000000000 ) ) ;
#269 = CARTESIAN_POINT ( 'NONE',  ( 0.0000000000000000000, -3.000000000000000000, -4.999999999999999100 ) ) ;
#270 = AXIS2_PLACEMENT_3D ( 'NONE', #260, #263, #251 ) ;
#271 = PLANE ( 'NONE',  #264 ) ;
#272 = FACE_BOUND ( 'NONE', #117, .T. ) ;
#273 = AXIS2_PLACEMENT_3D ( 'NONE', #269, #268, #267 ) ;
#274 = CARTESIAN_POINT ( 'NONE',  ( 0.0000000000000000000, -3.000000000000000000, -4.999999999999999100 ) ) ;
#275 = CIRCLE ( 'NONE', #273, 4.250000000000000000 ) ;
#276 = CARTESIAN_POINT ( 'NONE',  ( 0.0000000000000000000, 0.0000000000000000000, -13.00000000000000000 ) ) ;
#277 = DIRECTION ( 'NONE',  ( 1.000000000000000000, 0.0000000000000000000, 0.0000000000000000000 ) ) ;
#278 = DIRECTION ( 'NONE',  ( 0.0000000000000000000, 0.0000000000000000000, 1.000000000000000000 ) ) ;
#279 = DIRECTION ( 'NONE',  ( 0.0000000000000000000, 0.0000000000000000000, 1.000000000000000000 ) ) ;
#280 = CYLINDRICAL_SURFACE ( 'NONE', #270, 6.750000000000000000 ) ;
#281 = DIRECTION ( 'NONE',  ( 1.000000000000000000, 0.0000000000000000000, 0.0000000000000000000 ) ) ;
#282 = FACE_OUTER_BOUND ( 'NONE', #53, .T. ) ;
#283 = AXIS2_PLACEMENT_3D ( 'NONE', #276, #287, #281 ) ;
#284 = DIRECTION ( 'NONE',  ( 0.0000000000000000000, 0.0000000000000000000, 1.000000000000000000 ) ) ;
#285 = VECTOR ( 'NONE', #284, 1000.000000000000000 ) ;
#286 = CARTESIAN_POINT ( 'NONE',  ( 12.50000000000000000, 0.0000000000000000000, -13.00000000000000000 ) ) ;
#287 = DIRECTION ( 'NONE',  ( 0.0000000000000000000, 0.0000000000000000000, 1.000000000000000000 ) ) ;
#288 = LINE ( 'NONE', #286, #285 ) ;
#289 = DIRECTION ( 'NONE',  ( -0.5000000000000014400, 0.0000000000000000000, -0.8660254037844379300 ) ) ;
#290 = AXIS2_PLACEMENT_3D ( 'NONE', #322, #278, #277 ) ;
#291 = VECTOR ( 'NONE', #289, 999.9999999999998900 ) ;
#292 = ORGANIZATION ( 'UNSPECIFIED', 'UNSPECIFIED', '' ) ;
#293 = PERSON ( 'UNSPECIFIED', 'UNSPECIFIED', 'UNSPECIFIED', ('UNSPECIFIED'), ('UNSPECIFIED'), ('UNSPECIFIED') ) ;
#294 = PRODUCT ( 'WDS-629-203', 'WDS-629-203', '', ( #295 ) ) ;
#295 = MECHANICAL_CONTEXT ( 'NONE', #225, 'mechanical' ) ;
#296 = APPLICATION_PROTOCOL_DEFINITION ( 'international standard', 'config_control_design', 1994, #225 ) ;
#297 = FACE_BOUND ( 'NONE', #42, .T. ) ;
#298 = DIRECTION ( 'NONE',  ( 0.0000000000000000000, 0.0000000000000000000, -1.000000000000000000 ) ) ;
#299 = VECTOR ( 'NONE', #298, 1000.000000000000000 ) ;
#300 = CARTESIAN_POINT ( 'NONE',  ( 6.750000000000000000, -2.999999999999999100, -4.999999999999999100 ) ) ;
#301 = LINE ( 'NONE', #300, #299 ) ;
#302 = AXIS2_PLACEMENT_3D ( 'NONE', #218, #217, #216 ) ;
#303 = CARTESIAN_POINT ( 'NONE',  ( -10.76794919243111600, 0.0000000000000000000, 0.0000000000000000000 ) ) ;
#304 = AXIS2_PLACEMENT_3D ( 'NONE', #211, #210, #209 ) ;
#305 = CARTESIAN_POINT ( 'NONE',  ( 10.76794919243111600, 1.424750975061700500E-015, 0.0000000000000000000 ) ) ;
#306 = CIRCLE ( 'NONE', #302, 6.750000000000000000 ) ;
#307 = DIRECTION ( 'NONE',  ( 1.000000000000000000, 0.0000000000000000000, 0.0000000000000000000 ) ) ;
#308 = DIRECTION ( 'NONE',  ( -0.0000000000000000000, -0.0000000000000000000, 1.000000000000000000 ) ) ;
#309 = CARTESIAN_POINT ( 'NONE',  ( 0.0000000000000000000, 0.0000000000000000000, -3.000000000000000000 ) ) ;
#310 = AXIS2_PLACEMENT_3D ( 'NONE', #309, #308, #307 ) ;
#311 = LINE ( 'NONE', #312, #291 ) ;
#312 = CARTESIAN_POINT ( 'NONE',  ( -10.76794919243111600, 0.0000000000000000000, 0.0000000000000000000 ) ) ;
#313 = DIRECTION ( 'NONE',  ( -0.0000000000000000000, -0.0000000000000000000, -1.000000000000000000 ) ) ;
#314 = VECTOR ( 'NONE', #313, 1000.000000000000000 ) ;
#315 = CARTESIAN_POINT ( 'NONE',  ( 4.250000000000000000, -2.999999999999999600, 0.0000000000000000000 ) ) ;
#316 = LINE ( 'NONE', #315, #314 ) ;
#317 = FACE_OUTER_BOUND ( 'NONE', #134, .T. ) ;
#318 = CARTESIAN_POINT ( 'NONE',  ( -4.250000000000000000, -3.000000000000000000, -4.999999999999999100 ) ) ;
#319 = CYLINDRICAL_SURFACE ( 'NONE', #283, 12.50000000000000000 ) ;
#320 = CARTESIAN_POINT ( 'NONE',  ( -4.250000000000000000, -3.000000000000000000, 0.0000000000000000000 ) ) ;
#321 = DIRECTION ( 'NONE',  ( -1.000000000000000000, 0.0000000000000000000, 0.0000000000000000000 ) ) ;
#322 = CARTESIAN_POINT ( 'NONE',  ( 0.0000000000000000000, 0.0000000000000000000, -13.00000000000000000 ) ) ;
#323 = CARTESIAN_POINT ( 'NONE',  ( 4.250000000000000000, -2.999999999999999600, -4.999999999999999100 ) ) ;
#324 = CIRCLE ( 'NONE', #290, 12.50000000000000000 ) ;
#325 = DIRECTION ( 'NONE',  ( 0.0000000000000000000, 0.0000000000000000000, -1.000000000000000000 ) ) ;
#326 = VECTOR ( 'NONE', #325, 1000.000000000000000 ) ;
#327 = CARTESIAN_POINT ( 'NONE',  ( -6.750000000000000000, -3.000000000000000000, -4.999999999999999100 ) ) ;
#328 = LINE ( 'NONE', #327, #326 ) ;
#329 = CIRCLE ( 'NONE', #310, 12.50000000000000000 ) ;
#330 = CYLINDRICAL_SURFACE ( 'NONE', #172, 4.250000000000000000 ) ;
#331 = DIRECTION ( 'NONE',  ( 1.000000000000000000, 0.0000000000000000000, 0.0000000000000000000 ) ) ;
#332 = DIRECTION ( 'NONE',  ( -0.0000000000000000000, -0.0000000000000000000, 1.000000000000000000 ) ) ;
#333 = CARTESIAN_POINT ( 'NONE',  ( 0.0000000000000000000, 0.0000000000000000000, 0.0000000000000000000 ) ) ;
#334 = CARTESIAN_POINT ( 'NONE',  ( 0.0000000000000000000, -3.000000000000000000, 0.0000000000000000000 ) ) ;
#335 = CARTESIAN_POINT ( 'NONE',  ( -6.750000000000000000, -3.000000000000000000, -13.00000000000000000 ) ) ;
#336 = FACE_OUTER_BOUND ( 'NONE', #34, .T. ) ;
#337 = DIRECTION ( 'NONE',  ( -0.0000000000000000000, -0.0000000000000000000, -1.000000000000000000 ) ) ;
#338 = DIRECTION ( 'NONE',  ( 0.5000000000000014400, 6.123233995736784500E-017, -0.8660254037844379300 ) ) ;
#339 = VECTOR ( 'NONE', #338, 999.9999999999998900 ) ;
#340 = CARTESIAN_POINT ( 'NONE',  ( 0.0000000000000000000, 0.0000000000000000000, 0.0000000000000000000 ) ) ;
#341 = LOCAL_TIME ( 9, 24, 28.00000000000000000, #342 ) ;
#342 = COORDINATED_UNIVERSAL_TIME_OFFSET ( 5, 0, .BEHIND. ) ;
#343 = CC_DESIGN_PERSON_AND_ORGANIZATION_ASSIGNMENT ( #345, #344, ( #346 ) ) ;
#344 = PERSON_AND_ORGANIZATION_ROLE ( 'classification_officer' ) ;
#345 = PERSON_AND_ORGANIZATION ( #293, #292 ) ;
#346 = SECURITY_CLASSIFICATION ( '', '', #347 ) ;
#347 = SECURITY_CLASSIFICATION_LEVEL ( 'unclassified' ) ;
#348 = CC_DESIGN_PERSON_AND_ORGANIZATION_ASSIGNMENT ( #354, #353, ( #87 ) ) ;
#349 = CC_DESIGN_APPROVAL ( #99, ( #87 ) ) ;
#350 = APPROVAL_DATE_TIME ( #351, #99 ) ;
#351 = DATE_AND_TIME ( #352, #358 ) ;
#352 = CALENDAR_DATE ( 2012, 5, 4 ) ;
#353 = PERSON_AND_ORGANIZATION_ROLE ( 'design_supplier' ) ;
#354 = PERSON_AND_ORGANIZATION ( #293, #292 ) ;
#355 = CC_DESIGN_PERSON_AND_ORGANIZATION_ASSIGNMENT ( #357, #356, ( #87 ) ) ;
#356 = PERSON_AND_ORGANIZATION_ROLE ( 'creator' ) ;
#357 = PERSON_AND_ORGANIZATION ( #293, #292 ) ;
#358 = LOCAL_TIME ( 9, 24, 28.00000000000000000, #359 ) ;
#359 = COORDINATED_UNIVERSAL_TIME_OFFSET ( 5, 0, .BEHIND. ) ;
#360 = APPROVAL_PERSON_ORGANIZATION ( #101, #99, #98 ) ;
#361 = SHAPE_DEFINITION_REPRESENTATION ( #362, #226 ) ;
#362 = PRODUCT_DEFINITION_SHAPE ( 'NONE', 'NONE',  #11 ) ;
#363 = PRODUCT_RELATED_PRODUCT_CATEGORY ( 'detail', '', ( #294 ) ) ;
#364 = CC_DESIGN_SECURITY_CLASSIFICATION ( #346, ( #87 ) ) ;
#365 = CC_DESIGN_APPROVAL ( #373, ( #346 ) ) ;
#366 = APPROVAL_DATE_TIME ( #367, #373 ) ;
#367 = DATE_AND_TIME ( #368, #369 ) ;
#368 = CALENDAR_DATE ( 2012, 5, 4 ) ;
#369 = LOCAL_TIME ( 9, 24, 28.00000000000000000, #370 ) ;
#370 = COORDINATED_UNIVERSAL_TIME_OFFSET ( 5, 0, .BEHIND. ) ;
#371 = APPROVAL_PERSON_ORGANIZATION ( #375, #373, #372 ) ;
#372 = APPROVAL_ROLE ( '' ) ;
#373 = APPROVAL ( #374, 'UNSPECIFIED' ) ;
#374 = APPROVAL_STATUS ( 'not_yet_approved' ) ;
#375 = PERSON_AND_ORGANIZATION ( #293, #292 ) ;
#376 = CC_DESIGN_DATE_AND_TIME_ASSIGNMENT ( #378, #377, ( #346 ) ) ;
#377 = DATE_TIME_ROLE ( 'classification_date' ) ;
#378 = DATE_AND_TIME ( #379, #341 ) ;
#379 = CALENDAR_DATE ( 2012, 5, 4 ) ;
ENDSEC;
END-ISO-10303-21;
