ISO-10303-21;
HEADER;
FILE_DESCRIPTION (( 'STEP AP203' ),
    '1' );
FILE_NAME ('62629-20219710468307.step',
    '2008-02-19T12:10:50',
    ( 'sysAdmin' ),
    ( 'SolidWorks' ),
    'SwSTEP 2.0',
    'SolidWorks 2008',
    '' );
FILE_SCHEMA (( 'CONFIG_CONTROL_DESIGN' ));
ENDSEC;

DATA;
#1 = ORIENTED_EDGE ( 'NONE', *, *, #71, .T. ) ;
#2 = ORIENTED_EDGE ( 'NONE', *, *, #29, .T. ) ;
#3 = EDGE_LOOP ( 'NONE', ( #1, #4 ) ) ;
#4 = ORIENTED_EDGE ( 'NONE', *, *, #108, .T. ) ;
#5 = ADVANCED_FACE ( 'NONE', ( #123 ), #233, .F. ) ;
#6 = ORIENTED_EDGE ( 'NONE', *, *, #122, .T. ) ;
#7 = ORIENTED_EDGE ( 'NONE', *, *, #8, .T. ) ;
#8 = EDGE_CURVE ( 'NONE', #31, #30, #75, .T. ) ;
#9 = EDGE_LOOP ( 'NONE', ( #49, #40, #37, #44 ) ) ;
#10 = CLOSED_SHELL ( 'NONE', ( #107, #26, #41, #12, #17, #145, #106, #34, #5, #48, #38 ) ) ;
#11 = EDGE_CURVE ( 'NONE', #67, #64, #99, .T. ) ;
#12 = ADVANCED_FACE ( 'NONE', ( #100 ), #134, .T. ) ;
#13 = EDGE_LOOP ( 'NONE', ( #125, #176, #69, #70 ) ) ;
#14 = ORIENTED_EDGE ( 'NONE', *, *, #15, .F. ) ;
#15 = EDGE_CURVE ( 'NONE', #31, #67, #95, .T. ) ;
#16 = EDGE_CURVE ( 'NONE', #174, #57, #234, .T. ) ;
#17 = ADVANCED_FACE ( 'NONE', ( #226, #225 ), #186, .F. ) ;
#18 = EDGE_LOOP ( 'NONE', ( #19, #20 ) ) ;
#19 = ORIENTED_EDGE ( 'NONE', *, *, #126, .F. ) ;
#20 = ORIENTED_EDGE ( 'NONE', *, *, #21, .F. ) ;
#21 = EDGE_CURVE ( 'NONE', #175, #174, #155, .T. ) ;
#22 = EDGE_CURVE ( 'NONE', #23, #128, #202, .T. ) ;
#23 = VERTEX_POINT ( 'NONE', #203 ) ;
#24 = ORIENTED_EDGE ( 'NONE', *, *, #25, .F. ) ;
#25 = EDGE_CURVE ( 'NONE', #116, #23, #188, .T. ) ;
#26 = ADVANCED_FACE ( 'NONE', ( #158 ), #157, .F. ) ;
#27 = EDGE_LOOP ( 'NONE', ( #28, #32, #65, #14 ) ) ;
#28 = ORIENTED_EDGE ( 'NONE', *, *, #29, .F. ) ;
#29 = EDGE_CURVE ( 'NONE', #30, #31, #84, .T. ) ;
#30 = VERTEX_POINT ( 'NONE', #236 ) ;
#31 = VERTEX_POINT ( 'NONE', #235 ) ;
#32 = ORIENTED_EDGE ( 'NONE', *, *, #33, .T. ) ;
#33 = EDGE_CURVE ( 'NONE', #30, #64, #215, .T. ) ;
#34 = ADVANCED_FACE ( 'NONE', ( #74, #73 ), #72, .T. ) ;
#35 = EDGE_LOOP ( 'NONE', ( #52, #55, #54, #45 ) ) ;
#36 = EDGE_CURVE ( 'NONE', #117, #116, #173, .T. ) ;
#37 = ORIENTED_EDGE ( 'NONE', *, *, #15, .T. ) ;
#38 = ADVANCED_FACE ( 'NONE', ( #168 ), #132, .F. ) ;
#39 = EDGE_LOOP ( 'NONE', ( #46, #47 ) ) ;
#40 = ORIENTED_EDGE ( 'NONE', *, *, #8, .F. ) ;
#41 = ADVANCED_FACE ( 'NONE', ( #222 ), #92, .T. ) ;
#42 = EDGE_LOOP ( 'NONE', ( #43, #110, #58, #61 ) ) ;
#43 = ORIENTED_EDGE ( 'NONE', *, *, #108, .F. ) ;
#44 = ORIENTED_EDGE ( 'NONE', *, *, #11, .T. ) ;
#45 = ORIENTED_EDGE ( 'NONE', *, *, #139, .F. ) ;
#46 = ORIENTED_EDGE ( 'NONE', *, *, #11, .F. ) ;
#47 = ORIENTED_EDGE ( 'NONE', *, *, #66, .F. ) ;
#48 = ADVANCED_FACE ( 'NONE', ( #94, #93 ), #105, .F. ) ;
#49 = ORIENTED_EDGE ( 'NONE', *, *, #33, .F. ) ;
#50 = EDGE_LOOP ( 'NONE', ( #63, #53 ) ) ;
#51 = VERTEX_POINT ( 'NONE', #91 ) ;
#52 = ORIENTED_EDGE ( 'NONE', *, *, #127, .F. ) ;
#53 = ORIENTED_EDGE ( 'NONE', *, *, #36, .F. ) ;
#54 = ORIENTED_EDGE ( 'NONE', *, *, #25, .T. ) ;
#55 = ORIENTED_EDGE ( 'NONE', *, *, #36, .T. ) ;
#56 = EDGE_CURVE ( 'NONE', #51, #57, #239, .T. ) ;
#57 = VERTEX_POINT ( 'NONE', #77 ) ;
#58 = ORIENTED_EDGE ( 'NONE', *, *, #59, .T. ) ;
#59 = EDGE_CURVE ( 'NONE', #57, #60, #221, .T. ) ;
#60 = VERTEX_POINT ( 'NONE', #216 ) ;
#61 = ORIENTED_EDGE ( 'NONE', *, *, #62, .F. ) ;
#62 = EDGE_CURVE ( 'NONE', #109, #60, #164, .T. ) ;
#63 = ORIENTED_EDGE ( 'NONE', *, *, #115, .F. ) ;
#64 = VERTEX_POINT ( 'NONE', #192 ) ;
#65 = ORIENTED_EDGE ( 'NONE', *, *, #66, .T. ) ;
#66 = EDGE_CURVE ( 'NONE', #64, #67, #191, .T. ) ;
#67 = VERTEX_POINT ( 'NONE', #182 ) ;
#68 = EDGE_CURVE ( 'NONE', #175, #60, #181, .T. ) ;
#69 = ORIENTED_EDGE ( 'NONE', *, *, #59, .F. ) ;
#70 = ORIENTED_EDGE ( 'NONE', *, *, #16, .F. ) ;
#71 = EDGE_CURVE ( 'NONE', #109, #51, #208, .T. ) ;
#72 = PLANE ( 'NONE',  #135 ) ;
#73 = FACE_OUTER_BOUND ( 'NONE', #3, .T. ) ;
#74 = FACE_BOUND ( 'NONE', #124, .T. ) ;
#75 = CIRCLE ( 'NONE', #232, 3.399999999999999900 ) ;
#76 = DIRECTION ( 'NONE',  ( -0.0000000000000000000, -0.0000000000000000000, -1.000000000000000000 ) ) ;
#77 = CARTESIAN_POINT ( 'NONE',  ( 8.000000000000000000, 0.0000000000000000000, -3.000000000000000000 ) ) ;
#78 = DIRECTION ( 'NONE',  ( 0.5000000000000014400, 6.123031769111904800E-017, -0.8660254037844379300 ) ) ;
#79 = VECTOR ( 'NONE', #78, 999.9999999999998900 ) ;
#80 = CARTESIAN_POINT ( 'NONE',  ( 6.267949192431116100, 7.675770406486983500E-016, 0.0000000000000000000 ) ) ;
#81 = EDGE_LOOP ( 'NONE', ( #140, #82, #197, #6 ) ) ;
#82 = ORIENTED_EDGE ( 'NONE', *, *, #71, .F. ) ;
#83 = CARTESIAN_POINT ( 'NONE',  ( 0.0000000000000000000, -1.499999999999999600, 0.0000000000000000000 ) ) ;
#84 = CIRCLE ( 'NONE', #238, 3.399999999999999900 ) ;
#85 = DIRECTION ( 'NONE',  ( -0.0000000000000000000, -0.0000000000000000000, -1.000000000000000000 ) ) ;
#86 = VECTOR ( 'NONE', #85, 1000.000000000000000 ) ;
#87 = CARTESIAN_POINT ( 'NONE',  ( -3.399999999999999900, -1.499999999999999600, 0.0000000000000000000 ) ) ;
#88 = DIRECTION ( 'NONE',  ( 1.000000000000000000, 0.0000000000000000000, -0.0000000000000000000 ) ) ;
#89 = DIRECTION ( 'NONE',  ( 0.0000000000000000000, 0.0000000000000000000, 1.000000000000000000 ) ) ;
#90 = AXIS2_PLACEMENT_3D ( 'NONE', #104, #89, #88 ) ;
#91 = CARTESIAN_POINT ( 'NONE',  ( 6.267949192431116100, 8.736310618533001800E-016, 0.0000000000000000000 ) ) ;
#92 = CONICAL_SURFACE ( 'NONE', #144, 6.267949192431116100, 0.5235987755983005900 ) ;
#93 = FACE_BOUND ( 'NONE', #39, .T. ) ;
#94 = FACE_OUTER_BOUND ( 'NONE', #50, .T. ) ;
#95 = LINE ( 'NONE', #87, #86 ) ;
#96 = DIRECTION ( 'NONE',  ( 1.000000000000000000, 0.0000000000000000000, 0.0000000000000000000 ) ) ;
#97 = DIRECTION ( 'NONE',  ( 0.0000000000000000000, 0.0000000000000000000, 1.000000000000000000 ) ) ;
#98 = CARTESIAN_POINT ( 'NONE',  ( 0.0000000000000000000, -1.499999999999999600, -6.500000000000000000 ) ) ;
#99 = CIRCLE ( 'NONE', #103, 3.399999999999999900 ) ;
#100 = FACE_OUTER_BOUND ( 'NONE', #13, .T. ) ;
#101 = CARTESIAN_POINT ( 'NONE',  ( 0.0000000000000000000, 0.0000000000000000000, -13.00000000000000000 ) ) ;
#102 = DIRECTION ( 'NONE',  ( 1.000000000000000000, 0.0000000000000000000, 0.0000000000000000000 ) ) ;
#103 = AXIS2_PLACEMENT_3D ( 'NONE', #98, #76, #102 ) ;
#104 = CARTESIAN_POINT ( 'NONE',  ( 0.0000000000000000000, -1.499999999999999600, -6.500000000000000000 ) ) ;
#105 = PLANE ( 'NONE',  #90 ) ;
#106 = ADVANCED_FACE ( 'NONE', ( #302 ), #290, .T. ) ;
#107 = ADVANCED_FACE ( 'NONE', ( #250 ), #296, .F. ) ;
#108 = EDGE_CURVE ( 'NONE', #51, #109, #281, .T. ) ;
#109 = VERTEX_POINT ( 'NONE', #261 ) ;
#110 = ORIENTED_EDGE ( 'NONE', *, *, #56, .T. ) ;
#111 = CARTESIAN_POINT ( 'NONE',  ( 0.0000000000000000000, -1.499999999999999600, 0.0000000000000000000 ) ) ;
#112 = AXIS2_PLACEMENT_3D ( 'NONE', #111, #179, #178 ) ;
#113 = CARTESIAN_POINT ( 'NONE',  ( 0.0000000000000000000, -1.499999999999999600, 0.0000000000000000000 ) ) ;
#114 = ORIENTED_EDGE ( 'NONE', *, *, #115, .T. ) ;
#115 = EDGE_CURVE ( 'NONE', #116, #117, #266, .T. ) ;
#116 = VERTEX_POINT ( 'NONE', #267 ) ;
#117 = VERTEX_POINT ( 'NONE', #271 ) ;
#118 = ORIENTED_EDGE ( 'NONE', *, *, #127, .T. ) ;
#119 = ORIENTED_EDGE ( 'NONE', *, *, #21, .T. ) ;
#120 = ORIENTED_EDGE ( 'NONE', *, *, #16, .T. ) ;
#121 = ORIENTED_EDGE ( 'NONE', *, *, #122, .F. ) ;
#122 = EDGE_CURVE ( 'NONE', #60, #57, #255, .T. ) ;
#123 = FACE_OUTER_BOUND ( 'NONE', #9, .T. ) ;
#124 = EDGE_LOOP ( 'NONE', ( #7, #2 ) ) ;
#125 = ORIENTED_EDGE ( 'NONE', *, *, #126, .T. ) ;
#126 = EDGE_CURVE ( 'NONE', #174, #175, #260, .T. ) ;
#127 = EDGE_CURVE ( 'NONE', #117, #128, #256, .T. ) ;
#128 = VERTEX_POINT ( 'NONE', #244 ) ;
#129 = ORIENTED_EDGE ( 'NONE', *, *, #22, .F. ) ;
#130 = MANIFOLD_SOLID_BREP ( 'NONE', #10 ) ;
#131 = AXIS2_PLACEMENT_3D ( 'NONE', #167, #224, #223 ) ;
#132 = CYLINDRICAL_SURFACE ( 'NONE', #131, 5.250000000000000000 ) ;
#133 = AXIS2_PLACEMENT_3D ( 'NONE', #101, #97, #96 ) ;
#134 = CYLINDRICAL_SURFACE ( 'NONE', #133, 8.000000000000000000 ) ;
#135 = AXIS2_PLACEMENT_3D ( 'NONE', #196, #166, #165 ) ;
#136 = EDGE_LOOP ( 'NONE', ( #137, #138 ) ) ;
#137 = ORIENTED_EDGE ( 'NONE', *, *, #22, .T. ) ;
#138 = ORIENTED_EDGE ( 'NONE', *, *, #139, .T. ) ;
#139 = EDGE_CURVE ( 'NONE', #128, #23, #249, .T. ) ;
#140 = ORIENTED_EDGE ( 'NONE', *, *, #56, .F. ) ;
#141 = DIRECTION ( 'NONE',  ( -1.000000000000000000, 0.0000000000000000000, 0.0000000000000000000 ) ) ;
#142 = DIRECTION ( 'NONE',  ( 0.0000000000000000000, 0.0000000000000000000, -1.000000000000000000 ) ) ;
#143 = CARTESIAN_POINT ( 'NONE',  ( 0.0000000000000000000, 0.0000000000000000000, 0.0000000000000000000 ) ) ;
#144 = AXIS2_PLACEMENT_3D ( 'NONE', #143, #142, #141 ) ;
#145 = ADVANCED_FACE ( 'NONE', ( #283 ), #298, .T. ) ;
#146 = EDGE_LOOP ( 'NONE', ( #147, #119, #120, #121 ) ) ;
#147 = ORIENTED_EDGE ( 'NONE', *, *, #68, .F. ) ;
#148 = DIRECTION ( 'NONE',  ( 0.0000000000000000000, 0.0000000000000000000, 1.000000000000000000 ) ) ;
#149 = CARTESIAN_POINT ( 'NONE',  ( 0.0000000000000000000, 0.0000000000000000000, -13.00000000000000000 ) ) ;
#150 = AXIS2_PLACEMENT_3D ( 'NONE', #149, #148, #185 ) ;
#151 = DIRECTION ( 'NONE',  ( 1.000000000000000000, 0.0000000000000000000, 0.0000000000000000000 ) ) ;
#152 = DIRECTION ( 'NONE',  ( 0.0000000000000000000, 0.0000000000000000000, 1.000000000000000000 ) ) ;
#153 = CARTESIAN_POINT ( 'NONE',  ( 0.0000000000000000000, 0.0000000000000000000, -13.00000000000000000 ) ) ;
#154 = AXIS2_PLACEMENT_3D ( 'NONE', #153, #152, #151 ) ;
#155 = CIRCLE ( 'NONE', #154, 8.000000000000000000 ) ;
#156 = AXIS2_PLACEMENT_3D ( 'NONE', #198, #201, #200 ) ;
#157 = CYLINDRICAL_SURFACE ( 'NONE', #156, 3.399999999999999900 ) ;
#158 = FACE_OUTER_BOUND ( 'NONE', #27, .T. ) ;
#159 = DIRECTION ( 'NONE',  ( 0.0000000000000000000, 0.0000000000000000000, -1.000000000000000000 ) ) ;
#160 = VECTOR ( 'NONE', #159, 1000.000000000000000 ) ;
#161 = DIRECTION ( 'NONE',  ( -0.5000000000000014400, 0.0000000000000000000, -0.8660254037844379300 ) ) ;
#162 = VECTOR ( 'NONE', #161, 999.9999999999998900 ) ;
#163 = CARTESIAN_POINT ( 'NONE',  ( -6.267949192431116100, 0.0000000000000000000, 0.0000000000000000000 ) ) ;
#164 = LINE ( 'NONE', #163, #162 ) ;
#165 = DIRECTION ( 'NONE',  ( 1.000000000000000000, 0.0000000000000000000, -0.0000000000000000000 ) ) ;
#166 = DIRECTION ( 'NONE',  ( 0.0000000000000000000, 0.0000000000000000000, 1.000000000000000000 ) ) ;
#167 = CARTESIAN_POINT ( 'NONE',  ( 0.0000000000000000000, -1.499999999999999600, -6.500000000000000000 ) ) ;
#168 = FACE_OUTER_BOUND ( 'NONE', #35, .T. ) ;
#169 = DIRECTION ( 'NONE',  ( 1.000000000000000000, 0.0000000000000000000, 0.0000000000000000000 ) ) ;
#170 = DIRECTION ( 'NONE',  ( 0.0000000000000000000, 0.0000000000000000000, 1.000000000000000000 ) ) ;
#171 = AXIS2_PLACEMENT_3D ( 'NONE', #172, #170, #169 ) ;
#172 = CARTESIAN_POINT ( 'NONE',  ( 0.0000000000000000000, -1.499999999999999600, -6.500000000000000000 ) ) ;
#173 = CIRCLE ( 'NONE', #171, 5.250000000000000000 ) ;
#174 = VERTEX_POINT ( 'NONE', #285 ) ;
#175 = VERTEX_POINT ( 'NONE', #284 ) ;
#176 = ORIENTED_EDGE ( 'NONE', *, *, #68, .T. ) ;
#177 = EDGE_LOOP ( 'NONE', ( #114, #118, #129, #24 ) ) ;
#178 = DIRECTION ( 'NONE',  ( -1.000000000000000000, 0.0000000000000000000, 0.0000000000000000000 ) ) ;
#179 = DIRECTION ( 'NONE',  ( -0.0000000000000000000, -0.0000000000000000000, -1.000000000000000000 ) ) ;
#180 = CARTESIAN_POINT ( 'NONE',  ( -8.000000000000000000, 9.796850830579016100E-016, -13.00000000000000000 ) ) ;
#181 = LINE ( 'NONE', #180, #210 ) ;
#182 = CARTESIAN_POINT ( 'NONE',  ( -3.399999999999999900, -1.499999999999999600, -6.500000000000000000 ) ) ;
#183 = DIRECTION ( 'NONE',  ( 1.000000000000000000, 0.0000000000000000000, 0.0000000000000000000 ) ) ;
#184 = DIRECTION ( 'NONE',  ( -0.0000000000000000000, -0.0000000000000000000, -1.000000000000000000 ) ) ;
#185 = DIRECTION ( 'NONE',  ( 1.000000000000000000, 0.0000000000000000000, -0.0000000000000000000 ) ) ;
#186 = PLANE ( 'NONE',  #150 ) ;
#187 = CARTESIAN_POINT ( 'NONE',  ( -5.250000000000000000, -1.499999999999999600, -6.500000000000000000 ) ) ;
#188 = LINE ( 'NONE', #187, #160 ) ;
#189 = CARTESIAN_POINT ( 'NONE',  ( 0.0000000000000000000, -1.499999999999999600, -6.500000000000000000 ) ) ;
#190 = AXIS2_PLACEMENT_3D ( 'NONE', #189, #184, #183 ) ;
#191 = CIRCLE ( 'NONE', #190, 3.399999999999999900 ) ;
#192 = CARTESIAN_POINT ( 'NONE',  ( 3.399999999999999900, -1.499999999999999100, -6.500000000000000000 ) ) ;
#193 = DIRECTION ( 'NONE',  ( -0.0000000000000000000, -0.0000000000000000000, -1.000000000000000000 ) ) ;
#194 = VECTOR ( 'NONE', #193, 1000.000000000000000 ) ;
#195 = CARTESIAN_POINT ( 'NONE',  ( 3.399999999999999900, -1.499999999999999100, 0.0000000000000000000 ) ) ;
#196 = CARTESIAN_POINT ( 'NONE',  ( 0.0000000000000000000, 0.0000000000000000000, 0.0000000000000000000 ) ) ;
#197 = ORIENTED_EDGE ( 'NONE', *, *, #62, .T. ) ;
#198 = CARTESIAN_POINT ( 'NONE',  ( 0.0000000000000000000, -1.499999999999999600, 0.0000000000000000000 ) ) ;
#199 = DIRECTION ( 'NONE',  ( 0.0000000000000000000, 0.0000000000000000000, -1.000000000000000000 ) ) ;
#200 = DIRECTION ( 'NONE',  ( -1.000000000000000000, 0.0000000000000000000, 0.0000000000000000000 ) ) ;
#201 = DIRECTION ( 'NONE',  ( -0.0000000000000000000, -0.0000000000000000000, -1.000000000000000000 ) ) ;
#202 = CIRCLE ( 'NONE', #214, 5.250000000000000000 ) ;
#203 = CARTESIAN_POINT ( 'NONE',  ( -5.250000000000000000, -1.499999999999999600, -13.00000000000000000 ) ) ;
#204 = DIRECTION ( 'NONE',  ( 1.000000000000000000, 0.0000000000000000000, 0.0000000000000000000 ) ) ;
#205 = DIRECTION ( 'NONE',  ( -0.0000000000000000000, -0.0000000000000000000, 1.000000000000000000 ) ) ;
#206 = CARTESIAN_POINT ( 'NONE',  ( 0.0000000000000000000, 0.0000000000000000000, 0.0000000000000000000 ) ) ;
#207 = AXIS2_PLACEMENT_3D ( 'NONE', #206, #205, #204 ) ;
#208 = CIRCLE ( 'NONE', #207, 6.267949192431116100 ) ;
#209 = DIRECTION ( 'NONE',  ( 0.0000000000000000000, 0.0000000000000000000, 1.000000000000000000 ) ) ;
#210 = VECTOR ( 'NONE', #209, 1000.000000000000000 ) ;
#211 = DIRECTION ( 'NONE',  ( 1.000000000000000000, 0.0000000000000000000, 0.0000000000000000000 ) ) ;
#212 = DIRECTION ( 'NONE',  ( 0.0000000000000000000, 0.0000000000000000000, 1.000000000000000000 ) ) ;
#213 = CARTESIAN_POINT ( 'NONE',  ( 0.0000000000000000000, -1.499999999999999600, -13.00000000000000000 ) ) ;
#214 = AXIS2_PLACEMENT_3D ( 'NONE', #213, #212, #211 ) ;
#215 = LINE ( 'NONE', #195, #194 ) ;
#216 = CARTESIAN_POINT ( 'NONE',  ( -8.000000000000000000, 9.796850830579016100E-016, -3.000000000000000000 ) ) ;
#217 = DIRECTION ( 'NONE',  ( 1.000000000000000000, 0.0000000000000000000, 0.0000000000000000000 ) ) ;
#218 = DIRECTION ( 'NONE',  ( -0.0000000000000000000, -0.0000000000000000000, 1.000000000000000000 ) ) ;
#219 = CARTESIAN_POINT ( 'NONE',  ( 0.0000000000000000000, 0.0000000000000000000, -3.000000000000000000 ) ) ;
#220 = AXIS2_PLACEMENT_3D ( 'NONE', #219, #218, #217 ) ;
#221 = CIRCLE ( 'NONE', #220, 8.000000000000000000 ) ;
#222 = FACE_OUTER_BOUND ( 'NONE', #42, .T. ) ;
#223 = DIRECTION ( 'NONE',  ( -1.000000000000000000, 0.0000000000000000000, 0.0000000000000000000 ) ) ;
#224 = DIRECTION ( 'NONE',  ( 0.0000000000000000000, 0.0000000000000000000, -1.000000000000000000 ) ) ;
#225 = FACE_BOUND ( 'NONE', #136, .T. ) ;
#226 = FACE_OUTER_BOUND ( 'NONE', #18, .T. ) ;
#227 = DIRECTION ( 'NONE',  ( 0.0000000000000000000, 0.0000000000000000000, 1.000000000000000000 ) ) ;
#228 = VECTOR ( 'NONE', #227, 1000.000000000000000 ) ;
#229 = CARTESIAN_POINT ( 'NONE',  ( 8.000000000000000000, 0.0000000000000000000, -13.00000000000000000 ) ) ;
#230 = DIRECTION ( 'NONE',  ( -1.000000000000000000, 0.0000000000000000000, 0.0000000000000000000 ) ) ;
#231 = DIRECTION ( 'NONE',  ( 0.0000000000000000000, 0.0000000000000000000, -1.000000000000000000 ) ) ;
#232 = AXIS2_PLACEMENT_3D ( 'NONE', #113, #231, #230 ) ;
#233 = CYLINDRICAL_SURFACE ( 'NONE', #112, 3.399999999999999900 ) ;
#234 = LINE ( 'NONE', #229, #228 ) ;
#235 = CARTESIAN_POINT ( 'NONE',  ( -3.399999999999999900, -1.499999999999999600, 0.0000000000000000000 ) ) ;
#236 = CARTESIAN_POINT ( 'NONE',  ( 3.399999999999999900, -1.499999999999999100, 0.0000000000000000000 ) ) ;
#237 = DIRECTION ( 'NONE',  ( -1.000000000000000000, 0.0000000000000000000, 0.0000000000000000000 ) ) ;
#238 = AXIS2_PLACEMENT_3D ( 'NONE', #83, #199, #237 ) ;
#239 = LINE ( 'NONE', #80, #79 ) ;
#240 = CARTESIAN_POINT ( 'NONE',  ( 0.0000000000000000000, 0.0000000000000000000, -13.00000000000000000 ) ) ;
#241 = DIRECTION ( 'NONE',  ( 0.0000000000000000000, 0.0000000000000000000, -1.000000000000000000 ) ) ;
#242 = VECTOR ( 'NONE', #241, 1000.000000000000000 ) ;
#243 = CARTESIAN_POINT ( 'NONE',  ( 5.250000000000000000, -1.499999999999998900, -6.500000000000000000 ) ) ;
#244 = CARTESIAN_POINT ( 'NONE',  ( 5.250000000000000000, -1.499999999999998900, -13.00000000000000000 ) ) ;
#245 = DIRECTION ( 'NONE',  ( 1.000000000000000000, 0.0000000000000000000, 0.0000000000000000000 ) ) ;
#246 = DIRECTION ( 'NONE',  ( 0.0000000000000000000, 0.0000000000000000000, 1.000000000000000000 ) ) ;
#247 = CARTESIAN_POINT ( 'NONE',  ( 0.0000000000000000000, -1.499999999999999600, -13.00000000000000000 ) ) ;
#248 = AXIS2_PLACEMENT_3D ( 'NONE', #247, #246, #245 ) ;
#249 = CIRCLE ( 'NONE', #248, 5.250000000000000000 ) ;
#250 = FACE_OUTER_BOUND ( 'NONE', #177, .T. ) ;
#251 = DIRECTION ( 'NONE',  ( 1.000000000000000000, 0.0000000000000000000, 0.0000000000000000000 ) ) ;
#252 = DIRECTION ( 'NONE',  ( -0.0000000000000000000, -0.0000000000000000000, 1.000000000000000000 ) ) ;
#253 = CARTESIAN_POINT ( 'NONE',  ( 0.0000000000000000000, 0.0000000000000000000, -3.000000000000000000 ) ) ;
#254 = AXIS2_PLACEMENT_3D ( 'NONE', #253, #252, #251 ) ;
#255 = CIRCLE ( 'NONE', #254, 8.000000000000000000 ) ;
#256 = LINE ( 'NONE', #243, #242 ) ;
#257 = DIRECTION ( 'NONE',  ( 1.000000000000000000, 0.0000000000000000000, 0.0000000000000000000 ) ) ;
#258 = DIRECTION ( 'NONE',  ( 0.0000000000000000000, 0.0000000000000000000, 1.000000000000000000 ) ) ;
#259 = AXIS2_PLACEMENT_3D ( 'NONE', #240, #258, #257 ) ;
#260 = CIRCLE ( 'NONE', #259, 8.000000000000000000 ) ;
#261 = CARTESIAN_POINT ( 'NONE',  ( -6.267949192431116100, 0.0000000000000000000, 0.0000000000000000000 ) ) ;
#262 = DIRECTION ( 'NONE',  ( 1.000000000000000000, 0.0000000000000000000, 0.0000000000000000000 ) ) ;
#263 = DIRECTION ( 'NONE',  ( -0.0000000000000000000, -0.0000000000000000000, 1.000000000000000000 ) ) ;
#264 = CARTESIAN_POINT ( 'NONE',  ( 0.0000000000000000000, 0.0000000000000000000, 0.0000000000000000000 ) ) ;
#265 = AXIS2_PLACEMENT_3D ( 'NONE', #264, #263, #262 ) ;
#266 = CIRCLE ( 'NONE', #270, 5.250000000000000000 ) ;
#267 = CARTESIAN_POINT ( 'NONE',  ( -5.250000000000000000, -1.499999999999999600, -6.500000000000000000 ) ) ;
#268 = DIRECTION ( 'NONE',  ( 1.000000000000000000, 0.0000000000000000000, 0.0000000000000000000 ) ) ;
#269 = DIRECTION ( 'NONE',  ( 0.0000000000000000000, 0.0000000000000000000, 1.000000000000000000 ) ) ;
#270 = AXIS2_PLACEMENT_3D ( 'NONE', #282, #269, #268 ) ;
#271 = CARTESIAN_POINT ( 'NONE',  ( 5.250000000000000000, -1.499999999999998900, -6.500000000000000000 ) ) ;
#272 =( NAMED_UNIT ( * ) PLANE_ANGLE_UNIT ( ) SI_UNIT ( $, .RADIAN. ) );
#273 =( LENGTH_UNIT ( ) NAMED_UNIT ( * ) SI_UNIT ( .MILLI., .METRE. ) );
#274 = ADVANCED_BREP_SHAPE_REPRESENTATION ( '62629-20219710468307', ( #130, #295 ), #275 ) ;
#275 =( GEOMETRIC_REPRESENTATION_CONTEXT ( 3 ) GLOBAL_UNCERTAINTY_ASSIGNED_CONTEXT ( ( #300 ) ) GLOBAL_UNIT_ASSIGNED_CONTEXT ( ( #273, #272, #301 ) ) REPRESENTATION_CONTEXT ( 'NONE', 'WORKASPACE' ) );
#276 = DIRECTION ( 'NONE',  ( -1.000000000000000000, 0.0000000000000000000, 0.0000000000000000000 ) ) ;
#277 = CARTESIAN_POINT ( 'NONE',  ( 0.0000000000000000000, 0.0000000000000000000, 0.0000000000000000000 ) ) ;
#278 = DIRECTION ( 'NONE',  ( 0.0000000000000000000, 0.0000000000000000000, -1.000000000000000000 ) ) ;
#279 = CARTESIAN_POINT ( 'NONE',  ( 0.0000000000000000000, -1.499999999999999600, -6.500000000000000000 ) ) ;
#280 = AXIS2_PLACEMENT_3D ( 'NONE', #279, #292, #291 ) ;
#281 = CIRCLE ( 'NONE', #265, 6.267949192431116100 ) ;
#282 = CARTESIAN_POINT ( 'NONE',  ( 0.0000000000000000000, -1.499999999999999600, -6.500000000000000000 ) ) ;
#283 = FACE_OUTER_BOUND ( 'NONE', #146, .T. ) ;
#284 = CARTESIAN_POINT ( 'NONE',  ( -8.000000000000000000, 9.796850830579016100E-016, -13.00000000000000000 ) ) ;
#285 = CARTESIAN_POINT ( 'NONE',  ( 8.000000000000000000, 0.0000000000000000000, -13.00000000000000000 ) ) ;
#286 = DIRECTION ( 'NONE',  ( 1.000000000000000000, 0.0000000000000000000, 0.0000000000000000000 ) ) ;
#287 = AXIS2_PLACEMENT_3D ( 'NONE', #297, #299, #286 ) ;
#288 = CARTESIAN_POINT ( 'NONE',  ( 0.0000000000000000000, 0.0000000000000000000, 0.0000000000000000000 ) ) ;
#289 = AXIS2_PLACEMENT_3D ( 'NONE', #277, #278, #276 ) ;
#290 = CONICAL_SURFACE ( 'NONE', #289, 6.267949192431116100, 0.5235987755983005900 ) ;
#291 = DIRECTION ( 'NONE',  ( -1.000000000000000000, 0.0000000000000000000, 0.0000000000000000000 ) ) ;
#292 = DIRECTION ( 'NONE',  ( 0.0000000000000000000, 0.0000000000000000000, -1.000000000000000000 ) ) ;
#293 = DIRECTION ( 'NONE',  ( 1.000000000000000000, 0.0000000000000000000, 0.0000000000000000000 ) ) ;
#294 = DIRECTION ( 'NONE',  ( 0.0000000000000000000, 0.0000000000000000000, 1.000000000000000000 ) ) ;
#295 = AXIS2_PLACEMENT_3D ( 'NONE', #288, #294, #293 ) ;
#296 = CYLINDRICAL_SURFACE ( 'NONE', #280, 5.250000000000000000 ) ;
#297 = CARTESIAN_POINT ( 'NONE',  ( 0.0000000000000000000, 0.0000000000000000000, -13.00000000000000000 ) ) ;
#298 = CYLINDRICAL_SURFACE ( 'NONE', #287, 8.000000000000000000 ) ;
#299 = DIRECTION ( 'NONE',  ( 0.0000000000000000000, 0.0000000000000000000, 1.000000000000000000 ) ) ;
#300 = UNCERTAINTY_MEASURE_WITH_UNIT (LENGTH_MEASURE( 1.000000000000000100E-005 ), #273, 'distance_accuracy_value', 'NONE');
#301 =( NAMED_UNIT ( * ) SI_UNIT ( $, .STERADIAN. ) SOLID_ANGLE_UNIT ( ) );
#302 = FACE_OUTER_BOUND ( 'NONE', #81, .T. ) ;
#303 = PERSON_AND_ORGANIZATION ( #374, #355 ) ;
#304 = PRODUCT_DEFINITION_FORMATION_WITH_SPECIFIED_SOURCE ( 'ANY', '', #357, .NOT_KNOWN. ) ;
#305 = CC_DESIGN_DATE_AND_TIME_ASSIGNMENT ( #307, #306, ( #348 ) ) ;
#306 = DATE_TIME_ROLE ( 'creation_date' ) ;
#307 = DATE_AND_TIME ( #308, #309 ) ;
#308 = CALENDAR_DATE ( 2008, 19, 2 ) ;
#309 = LOCAL_TIME ( 7, 10, 50.00000000000000000, #310 ) ;
#310 = COORDINATED_UNIVERSAL_TIME_OFFSET ( 5, 0, .BEHIND. ) ;
#311 = CC_DESIGN_PERSON_AND_ORGANIZATION_ASSIGNMENT ( #313, #312, ( #348 ) ) ;
#312 = PERSON_AND_ORGANIZATION_ROLE ( 'creator' ) ;
#313 = PERSON_AND_ORGANIZATION ( #374, #355 ) ;
#314 = CC_DESIGN_APPROVAL ( #345, ( #348 ) ) ;
#315 = APPROVAL_DATE_TIME ( #316, #345 ) ;
#316 = DATE_AND_TIME ( #340, #341 ) ;
#317 = APPROVAL_DATE_TIME ( #318, #324 ) ;
#318 = DATE_AND_TIME ( #319, #320 ) ;
#319 = CALENDAR_DATE ( 2008, 19, 2 ) ;
#320 = LOCAL_TIME ( 7, 10, 50.00000000000000000, #321 ) ;
#321 = COORDINATED_UNIVERSAL_TIME_OFFSET ( 5, 0, .BEHIND. ) ;
#322 = APPROVAL_PERSON_ORGANIZATION ( #326, #324, #323 ) ;
#323 = APPROVAL_ROLE ( '' ) ;
#324 = APPROVAL ( #325, 'UNSPECIFIED' ) ;
#325 = APPROVAL_STATUS ( 'not_yet_approved' ) ;
#326 = PERSON_AND_ORGANIZATION ( #374, #355 ) ;
#327 = CC_DESIGN_DATE_AND_TIME_ASSIGNMENT ( #329, #328, ( #336 ) ) ;
#328 = DATE_TIME_ROLE ( 'classification_date' ) ;
#329 = DATE_AND_TIME ( #330, #331 ) ;
#330 = CALENDAR_DATE ( 2008, 19, 2 ) ;
#331 = LOCAL_TIME ( 7, 10, 50.00000000000000000, #332 ) ;
#332 = COORDINATED_UNIVERSAL_TIME_OFFSET ( 5, 0, .BEHIND. ) ;
#333 = CC_DESIGN_PERSON_AND_ORGANIZATION_ASSIGNMENT ( #335, #334, ( #336 ) ) ;
#334 = PERSON_AND_ORGANIZATION_ROLE ( 'classification_officer' ) ;
#335 = PERSON_AND_ORGANIZATION ( #374, #355 ) ;
#336 = SECURITY_CLASSIFICATION ( '', '', #337 ) ;
#337 = SECURITY_CLASSIFICATION_LEVEL ( 'unclassified' ) ;
#338 = CC_DESIGN_PERSON_AND_ORGANIZATION_ASSIGNMENT ( #360, #339, ( #304 ) ) ;
#339 = PERSON_AND_ORGANIZATION_ROLE ( 'design_supplier' ) ;
#340 = CALENDAR_DATE ( 2008, 19, 2 ) ;
#341 = LOCAL_TIME ( 7, 10, 50.00000000000000000, #342 ) ;
#342 = COORDINATED_UNIVERSAL_TIME_OFFSET ( 5, 0, .BEHIND. ) ;
#343 = APPROVAL_PERSON_ORGANIZATION ( #347, #345, #344 ) ;
#344 = APPROVAL_ROLE ( '' ) ;
#345 = APPROVAL ( #346, 'UNSPECIFIED' ) ;
#346 = APPROVAL_STATUS ( 'not_yet_approved' ) ;
#347 = PERSON_AND_ORGANIZATION ( #374, #355 ) ;
#348 = PRODUCT_DEFINITION ( 'UNKNOWN', '', #304, #349 ) ;
#349 = DESIGN_CONTEXT ( 'detailed design', #351, 'design' ) ;
#350 = APPLICATION_PROTOCOL_DEFINITION ( 'international standard', 'config_control_design', 1994, #351 ) ;
#351 = APPLICATION_CONTEXT ( 'configuration controlled 3d designs of mechanical parts and assemblies' ) ;
#352 = CC_DESIGN_PERSON_AND_ORGANIZATION_ASSIGNMENT ( #354, #353, ( #357 ) ) ;
#353 = PERSON_AND_ORGANIZATION_ROLE ( 'design_owner' ) ;
#354 = PERSON_AND_ORGANIZATION ( #374, #355 ) ;
#355 = ORGANIZATION ( 'UNSPECIFIED', 'UNSPECIFIED', '' ) ;
#356 = APPLICATION_CONTEXT ( 'configuration controlled 3d designs of mechanical parts and assemblies' ) ;
#357 = PRODUCT ( '62629-20219710468307', '62629-20219710468307', '', ( #358 ) ) ;
#358 = MECHANICAL_CONTEXT ( 'NONE', #356, 'mechanical' ) ;
#359 = APPLICATION_PROTOCOL_DEFINITION ( 'international standard', 'config_control_design', 1994, #356 ) ;
#360 = PERSON_AND_ORGANIZATION ( #374, #355 ) ;
#361 = CC_DESIGN_PERSON_AND_ORGANIZATION_ASSIGNMENT ( #363, #362, ( #304 ) ) ;
#362 = PERSON_AND_ORGANIZATION_ROLE ( 'creator' ) ;
#363 = PERSON_AND_ORGANIZATION ( #374, #355 ) ;
#364 = CC_DESIGN_APPROVAL ( #372, ( #304 ) ) ;
#365 = APPROVAL_DATE_TIME ( #366, #372 ) ;
#366 = DATE_AND_TIME ( #367, #368 ) ;
#367 = CALENDAR_DATE ( 2008, 19, 2 ) ;
#368 = LOCAL_TIME ( 7, 10, 50.00000000000000000, #369 ) ;
#369 = COORDINATED_UNIVERSAL_TIME_OFFSET ( 5, 0, .BEHIND. ) ;
#370 = APPROVAL_PERSON_ORGANIZATION ( #303, #372, #371 ) ;
#371 = APPROVAL_ROLE ( '' ) ;
#372 = APPROVAL ( #373, 'UNSPECIFIED' ) ;
#373 = APPROVAL_STATUS ( 'not_yet_approved' ) ;
#374 = PERSON ( 'UNSPECIFIED', 'UNSPECIFIED', 'UNSPECIFIED', ('UNSPECIFIED'), ('UNSPECIFIED'), ('UNSPECIFIED') ) ;
#375 = PRODUCT_DEFINITION_SHAPE ( 'NONE', 'NONE',  #348 ) ;
#376 = PRODUCT_RELATED_PRODUCT_CATEGORY ( 'detail', '', ( #357 ) ) ;
#377 = CC_DESIGN_SECURITY_CLASSIFICATION ( #336, ( #304 ) ) ;
#378 = CC_DESIGN_APPROVAL ( #324, ( #336 ) ) ;
#379 = SHAPE_DEFINITION_REPRESENTATION ( #375, #274 ) ;
ENDSEC;
END-ISO-10303-21;
