ISO-10303-21;
HEADER;
FILE_DESCRIPTION (( 'STEP AP214' ),
    '1' );
FILE_NAME ('WDS-600-206.step',
    '2012-04-05T13:14:14',
    ( 'SysAdmin' ),
    ( 'SolidWorks' ),
    'SwSTEP 2.0',
    'SolidWorks 2012',
    '' );
FILE_SCHEMA (( 'AUTOMOTIVE_DESIGN' ));
ENDSEC;

DATA;
#1 = CARTESIAN_POINT ( 'NONE',  ( -16.00000000000000000, 1.959434878635765100E-015, -19.00000000000000000 ) ) ;
#2 = VECTOR ( 'NONE', #3, 1000.000000000000000 ) ;
#3 = DIRECTION ( 'NONE',  ( 0.0000000000000000000, 0.0000000000000000000, 1.000000000000000000 ) ) ;
#4 = CARTESIAN_POINT ( 'NONE',  ( 16.00000000000000000, 0.0000000000000000000, -19.00000000000000000 ) ) ;
#5 = LINE ( 'NONE', #4, #6 ) ;
#6 = VECTOR ( 'NONE', #7, 1000.000000000000000 ) ;
#7 = DIRECTION ( 'NONE',  ( 0.0000000000000000000, 0.0000000000000000000, 1.000000000000000000 ) ) ;
#8 = DIRECTION ( 'NONE',  ( 1.000000000000000000, 0.0000000000000000000, 0.0000000000000000000 ) ) ;
#9 = LINE ( 'NONE', #1, #2 ) ;
#10 = CARTESIAN_POINT ( 'NONE',  ( 0.0000000000000000000, 0.0000000000000000000, -19.00000000000000000 ) ) ;
#11 = CYLINDRICAL_SURFACE ( 'NONE', #12, 16.00000000000000000 ) ;
#12 = AXIS2_PLACEMENT_3D ( 'NONE', #10, #13, #8 ) ;
#13 = DIRECTION ( 'NONE',  ( 0.0000000000000000000, 0.0000000000000000000, 1.000000000000000000 ) ) ;
#14 = DIRECTION ( 'NONE',  ( -0.0000000000000000000, -0.0000000000000000000, -1.000000000000000000 ) ) ;
#15 = CARTESIAN_POINT ( 'NONE',  ( 0.0000000000000000000, 0.0000000000000000000, 0.001000000000001000100 ) ) ;
#16 = CONICAL_SURFACE ( 'NONE', #136, 15.50000000000000200, 0.7853981633974431700 ) ;
#17 = DIRECTION ( 'NONE',  ( 1.000000000000000000, 0.0000000000000000000, 0.0000000000000000000 ) ) ;
#18 = DIRECTION ( 'NONE',  ( -0.0000000000000000000, -0.0000000000000000000, -1.000000000000000000 ) ) ;
#19 = CARTESIAN_POINT ( 'NONE',  ( 0.0000000000000000000, 0.0000000000000000000, -11.00000000000000000 ) ) ;
#20 = CIRCLE ( 'NONE', #37, 5.250000000000000000 ) ;
#21 = FACE_OUTER_BOUND ( 'NONE', #77, .T. ) ;
#22 = DIRECTION ( 'NONE',  ( -0.7071067811865439100, 0.0000000000000000000, -0.7071067811865512400 ) ) ;
#23 = VECTOR ( 'NONE', #22, 1000.000000000000000 ) ;
#24 = FACE_OUTER_BOUND ( 'NONE', #91, .T. ) ;
#25 = AXIS2_PLACEMENT_3D ( 'NONE', #15, #14, #141 ) ;
#26 = CIRCLE ( 'NONE', #132, 8.500000000000000000 ) ;
#27 = CARTESIAN_POINT ( 'NONE',  ( -15.50000000000000200, 0.0000000000000000000, 0.0000000000000000000 ) ) ;
#28 = LINE ( 'NONE', #27, #23 ) ;
#29 = DIRECTION ( 'NONE',  ( 1.000000000000000000, 0.0000000000000000000, 0.0000000000000000000 ) ) ;
#30 = DIRECTION ( 'NONE',  ( 0.0000000000000000000, 0.0000000000000000000, -1.000000000000000000 ) ) ;
#31 = CARTESIAN_POINT ( 'NONE',  ( 0.0000000000000000000, 0.0000000000000000000, -0.5000000000000038900 ) ) ;
#32 = CARTESIAN_POINT ( 'NONE',  ( -16.00000000000000000, 1.959434878635765100E-015, -0.5000000000000038900 ) ) ;
#33 = AXIS2_PLACEMENT_3D ( 'NONE', #121, #120, #119 ) ;
#34 = DIRECTION ( 'NONE',  ( 0.7071067811865439100, 8.659560562354888500E-017, -0.7071067811865512400 ) ) ;
#35 = VECTOR ( 'NONE', #34, 1000.000000000000000 ) ;
#36 = CARTESIAN_POINT ( 'NONE',  ( 15.50000000000000200, 1.898202538678397600E-015, 0.0000000000000000000 ) ) ;
#37 = AXIS2_PLACEMENT_3D ( 'NONE', #19, #18, #17 ) ;
#38 = CARTESIAN_POINT ( 'NONE',  ( 5.250000000000000000, 6.429395695523604200E-016, -19.00000000000000000 ) ) ;
#39 = LINE ( 'NONE', #36, #35 ) ;
#40 = CIRCLE ( 'NONE', #179, 16.00000000000000000 ) ;
#41 = DIRECTION ( 'NONE',  ( -0.0000000000000000000, -0.0000000000000000000, -1.000000000000000000 ) ) ;
#42 = VECTOR ( 'NONE', #41, 1000.000000000000000 ) ;
#43 = ORIENTED_EDGE ( 'NONE', *, *, #217, .T. ) ;
#44 = EDGE_CURVE ( 'NONE', #153, #150, #208, .T. ) ;
#45 = VERTEX_POINT ( 'NONE', #211 ) ;
#46 = VERTEX_POINT ( 'NONE', #169 ) ;
#47 = VERTEX_POINT ( 'NONE', #204 ) ;
#48 = ADVANCED_FACE ( 'NONE', ( #202 ), #203, .T. ) ;
#49 = ORIENTED_EDGE ( 'NONE', *, *, #68, .T. ) ;
#50 = ORIENTED_EDGE ( 'NONE', *, *, #75, .F. ) ;
#51 = EDGE_LOOP ( 'NONE', ( #52, #56, #43, #55 ) ) ;
#52 = ORIENTED_EDGE ( 'NONE', *, *, #213, .F. ) ;
#53 = EDGE_CURVE ( 'NONE', #214, #151, #200, .T. ) ;
#54 = VERTEX_POINT ( 'NONE', #198 ) ;
#55 = ORIENTED_EDGE ( 'NONE', *, *, #44, .F. ) ;
#56 = ORIENTED_EDGE ( 'NONE', *, *, #53, .T. ) ;
#57 = VERTEX_POINT ( 'NONE', #212 ) ;
#58 = VERTEX_POINT ( 'NONE', #188 ) ;
#59 = ADVANCED_FACE ( 'NONE', ( #187 ), #210, .F. ) ;
#60 = ORIENTED_EDGE ( 'NONE', *, *, #76, .F. ) ;
#61 = EDGE_CURVE ( 'NONE', #57, #69, #185, .T. ) ;
#62 = ORIENTED_EDGE ( 'NONE', *, *, #61, .T. ) ;
#63 = EDGE_CURVE ( 'NONE', #69, #66, #183, .T. ) ;
#64 = ORIENTED_EDGE ( 'NONE', *, *, #63, .T. ) ;
#65 = EDGE_CURVE ( 'NONE', #58, #66, #194, .T. ) ;
#66 = VERTEX_POINT ( 'NONE', #178 ) ;
#67 = ORIENTED_EDGE ( 'NONE', *, *, #152, .F. ) ;
#68 = EDGE_CURVE ( 'NONE', #46, #155, #39, .T. ) ;
#69 = VERTEX_POINT ( 'NONE', #38 ) ;
#70 = EDGE_CURVE ( 'NONE', #71, #155, #40, .T. ) ;
#71 = VERTEX_POINT ( 'NONE', #32 ) ;
#72 = EDGE_LOOP ( 'NONE', ( #60, #62, #64, #149 ) ) ;
#73 = ORIENTED_EDGE ( 'NONE', *, *, #70, .T. ) ;
#74 = ORIENTED_EDGE ( 'NONE', *, *, #70, .F. ) ;
#75 = EDGE_CURVE ( 'NONE', #47, #71, #28, .T. ) ;
#76 = EDGE_CURVE ( 'NONE', #57, #58, #20, .T. ) ;
#77 = EDGE_LOOP ( 'NONE', ( #111, #112, #107, #106 ) ) ;
#78 = ADVANCED_FACE ( 'NONE', ( #21 ), #175, .F. ) ;
#79 = ORIENTED_EDGE ( 'NONE', *, *, #147, .T. ) ;
#80 = ADVANCED_FACE ( 'NONE', ( #24 ), #16, .T. ) ;
#81 = ORIENTED_EDGE ( 'NONE', *, *, #75, .T. ) ;
#82 = ORIENTED_EDGE ( 'NONE', *, *, #68, .F. ) ;
#83 = ORIENTED_EDGE ( 'NONE', *, *, #170, .T. ) ;
#84 = ORIENTED_EDGE ( 'NONE', *, *, #217, .F. ) ;
#85 = ORIENTED_EDGE ( 'NONE', *, *, #142, .F. ) ;
#86 = ORIENTED_EDGE ( 'NONE', *, *, #44, .T. ) ;
#87 = EDGE_LOOP ( 'NONE', ( #94, #84 ) ) ;
#88 = EDGE_CURVE ( 'NONE', #150, #151, #26, .T. ) ;
#89 = ORIENTED_EDGE ( 'NONE', *, *, #88, .T. ) ;
#90 = ORIENTED_EDGE ( 'NONE', *, *, #103, .F. ) ;
#91 = EDGE_LOOP ( 'NONE', ( #82, #173, #81, #159 ) ) ;
#92 = EDGE_CURVE ( 'NONE', #153, #214, #137, .T. ) ;
#93 = ORIENTED_EDGE ( 'NONE', *, *, #152, .T. ) ;
#94 = ORIENTED_EDGE ( 'NONE', *, *, #88, .F. ) ;
#95 = ADVANCED_FACE ( 'NONE', ( #140, #139 ), #123, .F. ) ;
#96 = ORIENTED_EDGE ( 'NONE', *, *, #110, .F. ) ;
#97 = EDGE_CURVE ( 'NONE', #155, #71, #116, .T. ) ;
#98 = ORIENTED_EDGE ( 'NONE', *, *, #63, .F. ) ;
#99 = EDGE_LOOP ( 'NONE', ( #96, #98 ) ) ;
#100 = ORIENTED_EDGE ( 'NONE', *, *, #146, .F. ) ;
#101 = ORIENTED_EDGE ( 'NONE', *, *, #97, .T. ) ;
#102 = ORIENTED_EDGE ( 'NONE', *, *, #103, .T. ) ;
#103 = EDGE_CURVE ( 'NONE', #54, #45, #128, .T. ) ;
#104 = ADVANCED_FACE ( 'NONE', ( #237 ), #243, .T. ) ;
#105 = EDGE_LOOP ( 'NONE', ( #100, #102, #79, #101 ) ) ;
#106 = ORIENTED_EDGE ( 'NONE', *, *, #110, .T. ) ;
#107 = ORIENTED_EDGE ( 'NONE', *, *, #65, .T. ) ;
#108 = EDGE_CURVE ( 'NONE', #58, #57, #138, .T. ) ;
#109 = EDGE_LOOP ( 'NONE', ( #85, #90 ) ) ;
#110 = EDGE_CURVE ( 'NONE', #66, #69, #235, .T. ) ;
#111 = ORIENTED_EDGE ( 'NONE', *, *, #61, .F. ) ;
#112 = ORIENTED_EDGE ( 'NONE', *, *, #108, .F. ) ;
#113 = DIRECTION ( 'NONE',  ( 1.000000000000000000, 0.0000000000000000000, 0.0000000000000000000 ) ) ;
#114 = DIRECTION ( 'NONE',  ( 0.0000000000000000000, 0.0000000000000000000, -1.000000000000000000 ) ) ;
#115 = CARTESIAN_POINT ( 'NONE',  ( 0.0000000000000000000, 0.0000000000000000000, -0.5000000000000038900 ) ) ;
#116 = CIRCLE ( 'NONE', #122, 16.00000000000000000 ) ;
#117 = AXIS2_PLACEMENT_3D ( 'NONE', #234, #233, #232 ) ;
#118 = CARTESIAN_POINT ( 'NONE',  ( 0.0000000000000000000, 0.0000000000000000000, -19.00000000000000000 ) ) ;
#119 = DIRECTION ( 'NONE',  ( 1.000000000000000000, 0.0000000000000000000, -0.0000000000000000000 ) ) ;
#120 = DIRECTION ( 'NONE',  ( 0.0000000000000000000, 0.0000000000000000000, 1.000000000000000000 ) ) ;
#121 = CARTESIAN_POINT ( 'NONE',  ( 0.0000000000000000000, 0.0000000000000000000, -19.00000000000000000 ) ) ;
#122 = AXIS2_PLACEMENT_3D ( 'NONE', #115, #114, #113 ) ;
#123 = PLANE ( 'NONE',  #33 ) ;
#124 = DIRECTION ( 'NONE',  ( 1.000000000000000000, 0.0000000000000000000, 0.0000000000000000000 ) ) ;
#125 = DIRECTION ( 'NONE',  ( 0.0000000000000000000, 0.0000000000000000000, 1.000000000000000000 ) ) ;
#126 = CARTESIAN_POINT ( 'NONE',  ( 0.0000000000000000000, 0.0000000000000000000, -11.00000000000000000 ) ) ;
#127 = AXIS2_PLACEMENT_3D ( 'NONE', #126, #125, #124 ) ;
#128 = CIRCLE ( 'NONE', #241, 16.00000000000000000 ) ;
#129 = DIRECTION ( 'NONE',  ( 1.000000000000000000, 0.0000000000000000000, 0.0000000000000000000 ) ) ;
#130 = DIRECTION ( 'NONE',  ( 0.0000000000000000000, 0.0000000000000000000, 1.000000000000000000 ) ) ;
#131 = CARTESIAN_POINT ( 'NONE',  ( 0.0000000000000000000, 0.0000000000000000000, 0.0000000000000000000 ) ) ;
#132 = AXIS2_PLACEMENT_3D ( 'NONE', #131, #130, #129 ) ;
#133 = DIRECTION ( 'NONE',  ( -1.000000000000000000, 0.0000000000000000000, 0.0000000000000000000 ) ) ;
#134 = DIRECTION ( 'NONE',  ( 0.0000000000000000000, 0.0000000000000000000, -1.000000000000000000 ) ) ;
#135 = CARTESIAN_POINT ( 'NONE',  ( 0.0000000000000000000, 0.0000000000000000000, 0.0000000000000000000 ) ) ;
#136 = AXIS2_PLACEMENT_3D ( 'NONE', #135, #134, #133 ) ;
#137 = CIRCLE ( 'NONE', #127, 8.500000000000000000 ) ;
#138 = CIRCLE ( 'NONE', #242, 5.250000000000000000 ) ;
#139 = FACE_OUTER_BOUND ( 'NONE', #109, .T. ) ;
#140 = FACE_BOUND ( 'NONE', #99, .T. ) ;
#141 = DIRECTION ( 'NONE',  ( -1.000000000000000000, 0.0000000000000000000, 0.0000000000000000000 ) ) ;
#142 = EDGE_CURVE ( 'NONE', #45, #54, #236, .T. ) ;
#143 = ADVANCED_FACE ( 'NONE', ( #219 ), #11, .T. ) ;
#144 = ORIENTED_EDGE ( 'NONE', *, *, #146, .T. ) ;
#145 = ORIENTED_EDGE ( 'NONE', *, *, #142, .T. ) ;
#146 = EDGE_CURVE ( 'NONE', #54, #71, #9, .T. ) ;
#147 = EDGE_CURVE ( 'NONE', #45, #155, #5, .T. ) ;
#148 = ORIENTED_EDGE ( 'NONE', *, *, #147, .F. ) ;
#149 = ORIENTED_EDGE ( 'NONE', *, *, #65, .F. ) ;
#150 = VERTEX_POINT ( 'NONE', #230 ) ;
#151 = VERTEX_POINT ( 'NONE', #224 ) ;
#152 = EDGE_CURVE ( 'NONE', #46, #47, #250, .T. ) ;
#153 = VERTEX_POINT ( 'NONE', #251 ) ;
#154 = EDGE_LOOP ( 'NONE', ( #67, #49, #74, #50 ) ) ;
#155 = VERTEX_POINT ( 'NONE', #257 ) ;
#156 = EDGE_LOOP ( 'NONE', ( #83, #93 ) ) ;
#157 = ADVANCED_FACE ( 'NONE', ( #282, #286 ), #284, .T. ) ;
#158 = EDGE_LOOP ( 'NONE', ( #165, #163, #86, #89 ) ) ;
#159 = ORIENTED_EDGE ( 'NONE', *, *, #97, .F. ) ;
#160 = ADVANCED_FACE ( 'NONE', ( #280, #291 ), #336, .T. ) ;
#161 = ORIENTED_EDGE ( 'NONE', *, *, #213, .T. ) ;
#162 = ORIENTED_EDGE ( 'NONE', *, *, #76, .T. ) ;
#163 = ORIENTED_EDGE ( 'NONE', *, *, #92, .F. ) ;
#164 = EDGE_LOOP ( 'NONE', ( #166, #162 ) ) ;
#165 = ORIENTED_EDGE ( 'NONE', *, *, #53, .F. ) ;
#166 = ORIENTED_EDGE ( 'NONE', *, *, #108, .T. ) ;
#167 = ADVANCED_FACE ( 'NONE', ( #293 ), #252, .F. ) ;
#168 = CLOSED_SHELL ( 'NONE', ( #216, #48, #143, #59, #78, #104, #95, #157, #80, #160, #167 ) ) ;
#169 = CARTESIAN_POINT ( 'NONE',  ( 15.50000000000000200, 1.928818708657081300E-015, 0.0000000000000000000 ) ) ;
#170 = EDGE_CURVE ( 'NONE', #47, #46, #260, .T. ) ;
#171 = EDGE_LOOP ( 'NONE', ( #172, #161 ) ) ;
#172 = ORIENTED_EDGE ( 'NONE', *, *, #92, .T. ) ;
#173 = ORIENTED_EDGE ( 'NONE', *, *, #170, .F. ) ;
#174 = CARTESIAN_POINT ( 'NONE',  ( -5.250000000000000000, 0.0000000000000000000, 0.001000000000001000100 ) ) ;
#175 = CYLINDRICAL_SURFACE ( 'NONE', #25, 5.250000000000000000 ) ;
#176 = DIRECTION ( 'NONE',  ( -1.000000000000000000, 0.0000000000000000000, 0.0000000000000000000 ) ) ;
#177 = DIRECTION ( 'NONE',  ( 0.0000000000000000000, 0.0000000000000000000, -1.000000000000000000 ) ) ;
#178 = CARTESIAN_POINT ( 'NONE',  ( -5.250000000000000000, 0.0000000000000000000, -19.00000000000000000 ) ) ;
#179 = AXIS2_PLACEMENT_3D ( 'NONE', #31, #30, #29 ) ;
#180 = DIRECTION ( 'NONE',  ( -0.0000000000000000000, -0.0000000000000000000, -1.000000000000000000 ) ) ;
#181 = VECTOR ( 'NONE', #180, 1000.000000000000000 ) ;
#182 = CARTESIAN_POINT ( 'NONE',  ( 5.250000000000000000, 6.429395695523604200E-016, 0.001000000000001000100 ) ) ;
#183 = CIRCLE ( 'NONE', #186, 5.250000000000000000 ) ;
#184 = DIRECTION ( 'NONE',  ( -1.000000000000000000, 0.0000000000000000000, 0.0000000000000000000 ) ) ;
#185 = LINE ( 'NONE', #182, #181 ) ;
#186 = AXIS2_PLACEMENT_3D ( 'NONE', #199, #177, #176 ) ;
#187 = FACE_OUTER_BOUND ( 'NONE', #72, .T. ) ;
#188 = CARTESIAN_POINT ( 'NONE',  ( -5.250000000000000000, 0.0000000000000000000, -11.00000000000000000 ) ) ;
#189 = AXIS2_PLACEMENT_3D ( 'NONE', #193, #201, #184 ) ;
#190 = DIRECTION ( 'NONE',  ( -0.0000000000000000000, -0.0000000000000000000, 1.000000000000000000 ) ) ;
#191 = VECTOR ( 'NONE', #190, 1000.000000000000000 ) ;
#192 = CARTESIAN_POINT ( 'NONE',  ( -8.500000000000000000, 1.040949779275250100E-015, -11.00000000000000000 ) ) ;
#193 = CARTESIAN_POINT ( 'NONE',  ( 0.0000000000000000000, 0.0000000000000000000, 0.001000000000001000100 ) ) ;
#194 = LINE ( 'NONE', #174, #42 ) ;
#195 = DIRECTION ( 'NONE',  ( -1.000000000000000000, 0.0000000000000000000, 0.0000000000000000000 ) ) ;
#196 = DIRECTION ( 'NONE',  ( 0.0000000000000000000, 0.0000000000000000000, -1.000000000000000000 ) ) ;
#197 = CARTESIAN_POINT ( 'NONE',  ( 0.0000000000000000000, 0.0000000000000000000, 0.0000000000000000000 ) ) ;
#198 = CARTESIAN_POINT ( 'NONE',  ( -16.00000000000000000, 1.959434878635765100E-015, -19.00000000000000000 ) ) ;
#199 = CARTESIAN_POINT ( 'NONE',  ( 0.0000000000000000000, 0.0000000000000000000, -19.00000000000000000 ) ) ;
#200 = LINE ( 'NONE', #192, #191 ) ;
#201 = DIRECTION ( 'NONE',  ( -0.0000000000000000000, -0.0000000000000000000, -1.000000000000000000 ) ) ;
#202 = FACE_OUTER_BOUND ( 'NONE', #154, .T. ) ;
#203 = CONICAL_SURFACE ( 'NONE', #209, 15.50000000000000200, 0.7853981633974431700 ) ;
#204 = CARTESIAN_POINT ( 'NONE',  ( -15.50000000000000200, 0.0000000000000000000, 0.0000000000000000000 ) ) ;
#205 = DIRECTION ( 'NONE',  ( -0.0000000000000000000, -0.0000000000000000000, 1.000000000000000000 ) ) ;
#206 = VECTOR ( 'NONE', #205, 1000.000000000000000 ) ;
#207 = CARTESIAN_POINT ( 'NONE',  ( 8.500000000000000000, 0.0000000000000000000, -11.00000000000000000 ) ) ;
#208 = LINE ( 'NONE', #207, #206 ) ;
#209 = AXIS2_PLACEMENT_3D ( 'NONE', #197, #196, #195 ) ;
#210 = CYLINDRICAL_SURFACE ( 'NONE', #189, 5.250000000000000000 ) ;
#211 = CARTESIAN_POINT ( 'NONE',  ( 16.00000000000000000, 0.0000000000000000000, -19.00000000000000000 ) ) ;
#212 = CARTESIAN_POINT ( 'NONE',  ( 5.250000000000000000, 6.429395695523604200E-016, -11.00000000000000000 ) ) ;
#213 = EDGE_CURVE ( 'NONE', #214, #153, #331, .T. ) ;
#214 = VERTEX_POINT ( 'NONE', #337 ) ;
#215 = MANIFOLD_SOLID_BREP ( 'Cut-Extrude3', #168 ) ;
#216 = ADVANCED_FACE ( 'NONE', ( #288 ), #245, .F. ) ;
#217 = EDGE_CURVE ( 'NONE', #151, #150, #312, .T. ) ;
#218 = EDGE_LOOP ( 'NONE', ( #145, #144, #73, #148 ) ) ;
#219 = FACE_OUTER_BOUND ( 'NONE', #218, .T. ) ;
#220 = DIRECTION ( 'NONE',  ( 1.000000000000000000, 0.0000000000000000000, 0.0000000000000000000 ) ) ;
#221 = DIRECTION ( 'NONE',  ( 0.0000000000000000000, 0.0000000000000000000, 1.000000000000000000 ) ) ;
#222 = CARTESIAN_POINT ( 'NONE',  ( 0.0000000000000000000, 0.0000000000000000000, -19.00000000000000000 ) ) ;
#223 = AXIS2_PLACEMENT_3D ( 'NONE', #222, #221, #220 ) ;
#224 = CARTESIAN_POINT ( 'NONE',  ( -8.500000000000000000, 1.040949779275250100E-015, 0.0000000000000000000 ) ) ;
#225 = DIRECTION ( 'NONE',  ( -1.000000000000000000, 0.0000000000000000000, 0.0000000000000000000 ) ) ;
#226 = DIRECTION ( 'NONE',  ( 0.0000000000000000000, 0.0000000000000000000, -1.000000000000000000 ) ) ;
#227 = DIRECTION ( 'NONE',  ( 1.000000000000000000, 0.0000000000000000000, 0.0000000000000000000 ) ) ;
#228 = DIRECTION ( 'NONE',  ( -0.0000000000000000000, -0.0000000000000000000, -1.000000000000000000 ) ) ;
#229 = CARTESIAN_POINT ( 'NONE',  ( 0.0000000000000000000, 0.0000000000000000000, -11.00000000000000000 ) ) ;
#230 = CARTESIAN_POINT ( 'NONE',  ( 8.500000000000000000, 0.0000000000000000000, 0.0000000000000000000 ) ) ;
#231 = AXIS2_PLACEMENT_3D ( 'NONE', #118, #226, #225 ) ;
#232 = DIRECTION ( 'NONE',  ( 1.000000000000000000, 0.0000000000000000000, 0.0000000000000000000 ) ) ;
#233 = DIRECTION ( 'NONE',  ( 0.0000000000000000000, 0.0000000000000000000, 1.000000000000000000 ) ) ;
#234 = CARTESIAN_POINT ( 'NONE',  ( 0.0000000000000000000, 0.0000000000000000000, -19.00000000000000000 ) ) ;
#235 = CIRCLE ( 'NONE', #231, 5.250000000000000000 ) ;
#236 = CIRCLE ( 'NONE', #223, 16.00000000000000000 ) ;
#237 = FACE_OUTER_BOUND ( 'NONE', #105, .T. ) ;
#238 = DIRECTION ( 'NONE',  ( 1.000000000000000000, 0.0000000000000000000, 0.0000000000000000000 ) ) ;
#239 = DIRECTION ( 'NONE',  ( 0.0000000000000000000, 0.0000000000000000000, 1.000000000000000000 ) ) ;
#240 = CARTESIAN_POINT ( 'NONE',  ( 0.0000000000000000000, 0.0000000000000000000, -19.00000000000000000 ) ) ;
#241 = AXIS2_PLACEMENT_3D ( 'NONE', #240, #239, #238 ) ;
#242 = AXIS2_PLACEMENT_3D ( 'NONE', #229, #228, #227 ) ;
#243 = CYLINDRICAL_SURFACE ( 'NONE', #117, 16.00000000000000000 ) ;
#244 = AXIS2_PLACEMENT_3D ( 'NONE', #285, #339, #262 ) ;
#245 = CYLINDRICAL_SURFACE ( 'NONE', #261, 8.500000000000000000 ) ;
#246 = DIRECTION ( 'NONE',  ( 1.000000000000000000, 0.0000000000000000000, -0.0000000000000000000 ) ) ;
#247 = AXIS2_PLACEMENT_3D ( 'NONE', #248, #274, #273 ) ;
#248 = CARTESIAN_POINT ( 'NONE',  ( 0.0000000000000000000, 0.0000000000000000000, 0.0000000000000000000 ) ) ;
#249 = DIRECTION ( 'NONE',  ( 0.0000000000000000000, 0.0000000000000000000, 1.000000000000000000 ) ) ;
#250 = CIRCLE ( 'NONE', #333, 15.50000000000000200 ) ;
#251 = CARTESIAN_POINT ( 'NONE',  ( 8.500000000000000000, 0.0000000000000000000, -11.00000000000000000 ) ) ;
#252 = CYLINDRICAL_SURFACE ( 'NONE', #244, 8.500000000000000000 ) ;
#253 = UNCERTAINTY_MEASURE_WITH_UNIT (LENGTH_MEASURE( 1.000000000000000100E-005 ), #256, 'distance_accuracy_value', 'NONE');
#254 =( NAMED_UNIT ( * ) SI_UNIT ( $, .STERADIAN. ) SOLID_ANGLE_UNIT ( ) );
#255 =( NAMED_UNIT ( * ) PLANE_ANGLE_UNIT ( ) SI_UNIT ( $, .RADIAN. ) );
#256 =( LENGTH_UNIT ( ) NAMED_UNIT ( * ) SI_UNIT ( .MILLI., .METRE. ) );
#257 = CARTESIAN_POINT ( 'NONE',  ( 16.00000000000000000, 0.0000000000000000000, -0.5000000000000038900 ) ) ;
#258 = DIRECTION ( 'NONE',  ( 0.0000000000000000000, 0.0000000000000000000, 1.000000000000000000 ) ) ;
#259 = CARTESIAN_POINT ( 'NONE',  ( 0.0000000000000000000, 0.0000000000000000000, 0.0000000000000000000 ) ) ;
#260 = CIRCLE ( 'NONE', #263, 15.50000000000000200 ) ;
#261 = AXIS2_PLACEMENT_3D ( 'NONE', #330, #289, #287 ) ;
#262 = DIRECTION ( 'NONE',  ( 1.000000000000000000, 0.0000000000000000000, 0.0000000000000000000 ) ) ;
#263 = AXIS2_PLACEMENT_3D ( 'NONE', #259, #258, #332 ) ;
#264 = PRODUCT_DEFINITION_FORMATION_WITH_SPECIFIED_SOURCE ( 'ANY', '', #270, .NOT_KNOWN. ) ;
#265 = SHAPE_DEFINITION_REPRESENTATION ( #334, #303 ) ;
#266 = PRODUCT_DEFINITION ( 'UNKNOWN', '', #264, #267 ) ;
#267 = PRODUCT_DEFINITION_CONTEXT ( 'detailed design', #269, 'design' ) ;
#268 = APPLICATION_PROTOCOL_DEFINITION ( 'draft international standard', 'automotive_design', 1998, #269 ) ;
#269 = APPLICATION_CONTEXT ( 'automotive_design' ) ;
#270 = PRODUCT ( 'WDS-600-206', 'WDS-600-206', '', ( #271 ) ) ;
#271 = PRODUCT_CONTEXT ( 'NONE', #302, 'mechanical' ) ;
#272 = APPLICATION_PROTOCOL_DEFINITION ( 'draft international standard', 'automotive_design', 1998, #302 ) ;
#273 = DIRECTION ( 'NONE',  ( 1.000000000000000000, 0.0000000000000000000, 0.0000000000000000000 ) ) ;
#274 = DIRECTION ( 'NONE',  ( 0.0000000000000000000, 0.0000000000000000000, 1.000000000000000000 ) ) ;
#275 =( GEOMETRIC_REPRESENTATION_CONTEXT ( 3 ) GLOBAL_UNCERTAINTY_ASSIGNED_CONTEXT ( ( #276 ) ) GLOBAL_UNIT_ASSIGNED_CONTEXT ( ( #279, #278, #277 ) ) REPRESENTATION_CONTEXT ( 'NONE', 'WORKASPACE' ) );
#276 = UNCERTAINTY_MEASURE_WITH_UNIT (LENGTH_MEASURE( 1.000000000000000100E-005 ), #279, 'distance_accuracy_value', 'NONE');
#277 =( NAMED_UNIT ( * ) SI_UNIT ( $, .STERADIAN. ) SOLID_ANGLE_UNIT ( ) );
#278 =( NAMED_UNIT ( * ) PLANE_ANGLE_UNIT ( ) SI_UNIT ( $, .RADIAN. ) );
#279 =( LENGTH_UNIT ( ) NAMED_UNIT ( * ) SI_UNIT ( .MILLI., .METRE. ) );
#280 = FACE_OUTER_BOUND ( 'NONE', #171, .T. ) ;
#281 = FILL_AREA_STYLE_COLOUR ( '', #323 ) ;
#282 = FACE_BOUND ( 'NONE', #87, .T. ) ;
#283 = CARTESIAN_POINT ( 'NONE',  ( 0.0000000000000000000, 0.0000000000000000000, -11.00000000000000000 ) ) ;
#284 = PLANE ( 'NONE',  #343 ) ;
#285 = CARTESIAN_POINT ( 'NONE',  ( 0.0000000000000000000, 0.0000000000000000000, -11.00000000000000000 ) ) ;
#286 = FACE_OUTER_BOUND ( 'NONE', #156, .T. ) ;
#287 = DIRECTION ( 'NONE',  ( 1.000000000000000000, 0.0000000000000000000, 0.0000000000000000000 ) ) ;
#288 = FACE_OUTER_BOUND ( 'NONE', #51, .T. ) ;
#289 = DIRECTION ( 'NONE',  ( -0.0000000000000000000, -0.0000000000000000000, 1.000000000000000000 ) ) ;
#290 =( GEOMETRIC_REPRESENTATION_CONTEXT ( 3 ) GLOBAL_UNCERTAINTY_ASSIGNED_CONTEXT ( ( #253 ) ) GLOBAL_UNIT_ASSIGNED_CONTEXT ( ( #256, #255, #254 ) ) REPRESENTATION_CONTEXT ( 'NONE', 'WORKASPACE' ) );
#291 = FACE_BOUND ( 'NONE', #164, .T. ) ;
#292 = DIRECTION ( 'NONE',  ( 1.000000000000000000, 0.0000000000000000000, 0.0000000000000000000 ) ) ;
#293 = FACE_OUTER_BOUND ( 'NONE', #158, .T. ) ;
#294 = MECHANICAL_DESIGN_GEOMETRIC_PRESENTATION_REPRESENTATION (  '', ( #296 ), #275 ) ;
#295 = PRESENTATION_LAYER_ASSIGNMENT (  '', '', ( #296 ) ) ;
#296 = STYLED_ITEM ( 'NONE', ( #297 ), #303 ) ;
#297 = PRESENTATION_STYLE_ASSIGNMENT (( #298 ) ) ;
#298 = SURFACE_STYLE_USAGE ( .BOTH. , #299 ) ;
#299 = SURFACE_SIDE_STYLE ('',( #300 ) ) ;
#300 = SURFACE_STYLE_FILL_AREA ( #324 ) ;
#301 = COLOUR_RGB ( '',0.5019607843137254800, 0.5019607843137254800, 0.5019607843137254800 ) ;
#302 = APPLICATION_CONTEXT ( 'automotive_design' ) ;
#303 = ADVANCED_BREP_SHAPE_REPRESENTATION ( 'WDS-600-206', ( #215, #247 ), #304 ) ;
#304 =( GEOMETRIC_REPRESENTATION_CONTEXT ( 3 ) GLOBAL_UNCERTAINTY_ASSIGNED_CONTEXT ( ( #305 ) ) GLOBAL_UNIT_ASSIGNED_CONTEXT ( ( #308, #307, #306 ) ) REPRESENTATION_CONTEXT ( 'NONE', 'WORKASPACE' ) );
#305 = UNCERTAINTY_MEASURE_WITH_UNIT (LENGTH_MEASURE( 1.000000000000000100E-005 ), #308, 'distance_accuracy_value', 'NONE');
#306 =( NAMED_UNIT ( * ) SI_UNIT ( $, .STERADIAN. ) SOLID_ANGLE_UNIT ( ) );
#307 =( NAMED_UNIT ( * ) PLANE_ANGLE_UNIT ( ) SI_UNIT ( $, .RADIAN. ) );
#308 =( LENGTH_UNIT ( ) NAMED_UNIT ( * ) SI_UNIT ( .MILLI., .METRE. ) );
#309 = DIRECTION ( 'NONE',  ( 1.000000000000000000, 0.0000000000000000000, 0.0000000000000000000 ) ) ;
#310 = DIRECTION ( 'NONE',  ( 0.0000000000000000000, 0.0000000000000000000, 1.000000000000000000 ) ) ;
#311 = CARTESIAN_POINT ( 'NONE',  ( 0.0000000000000000000, 0.0000000000000000000, 0.0000000000000000000 ) ) ;
#312 = CIRCLE ( 'NONE', #329, 8.500000000000000000 ) ;
#313 = FILL_AREA_STYLE_COLOUR ( '', #301 ) ;
#314 = CARTESIAN_POINT ( 'NONE',  ( 0.0000000000000000000, 0.0000000000000000000, 0.0000000000000000000 ) ) ;
#315 = MECHANICAL_DESIGN_GEOMETRIC_PRESENTATION_REPRESENTATION (  '', ( #317 ), #290 ) ;
#316 = PRESENTATION_LAYER_ASSIGNMENT (  '', '', ( #317 ) ) ;
#317 = STYLED_ITEM ( 'NONE', ( #318 ), #215 ) ;
#318 = PRESENTATION_STYLE_ASSIGNMENT (( #319 ) ) ;
#319 = SURFACE_STYLE_USAGE ( .BOTH. , #320 ) ;
#320 = SURFACE_SIDE_STYLE ('',( #321 ) ) ;
#321 = SURFACE_STYLE_FILL_AREA ( #322 ) ;
#322 = FILL_AREA_STYLE ('',( #281 ) ) ;
#323 = COLOUR_RGB ( '',0.5019607843137254800, 0.5019607843137254800, 0.5019607843137254800 ) ;
#324 = FILL_AREA_STYLE ('',( #313 ) ) ;
#325 = DIRECTION ( 'NONE',  ( 1.000000000000000000, 0.0000000000000000000, 0.0000000000000000000 ) ) ;
#326 = DIRECTION ( 'NONE',  ( 0.0000000000000000000, 0.0000000000000000000, 1.000000000000000000 ) ) ;
#327 = CARTESIAN_POINT ( 'NONE',  ( 0.0000000000000000000, 0.0000000000000000000, -11.00000000000000000 ) ) ;
#328 = AXIS2_PLACEMENT_3D ( 'NONE', #327, #326, #325 ) ;
#329 = AXIS2_PLACEMENT_3D ( 'NONE', #311, #310, #309 ) ;
#330 = CARTESIAN_POINT ( 'NONE',  ( 0.0000000000000000000, 0.0000000000000000000, -11.00000000000000000 ) ) ;
#331 = CIRCLE ( 'NONE', #328, 8.500000000000000000 ) ;
#332 = DIRECTION ( 'NONE',  ( 1.000000000000000000, 0.0000000000000000000, 0.0000000000000000000 ) ) ;
#333 = AXIS2_PLACEMENT_3D ( 'NONE', #314, #249, #292 ) ;
#334 = PRODUCT_DEFINITION_SHAPE ( 'NONE', 'NONE',  #266 ) ;
#335 = PRODUCT_RELATED_PRODUCT_CATEGORY ( 'part', '', ( #270 ) ) ;
#336 = PLANE ( 'NONE',  #338 ) ;
#337 = CARTESIAN_POINT ( 'NONE',  ( -8.500000000000000000, 1.040949779275250100E-015, -11.00000000000000000 ) ) ;
#338 = AXIS2_PLACEMENT_3D ( 'NONE', #283, #344, #246 ) ;
#339 = DIRECTION ( 'NONE',  ( -0.0000000000000000000, -0.0000000000000000000, 1.000000000000000000 ) ) ;
#340 = DIRECTION ( 'NONE',  ( 1.000000000000000000, 0.0000000000000000000, -0.0000000000000000000 ) ) ;
#341 = DIRECTION ( 'NONE',  ( 0.0000000000000000000, 0.0000000000000000000, 1.000000000000000000 ) ) ;
#342 = CARTESIAN_POINT ( 'NONE',  ( 0.0000000000000000000, 0.0000000000000000000, 0.0000000000000000000 ) ) ;
#343 = AXIS2_PLACEMENT_3D ( 'NONE', #342, #341, #340 ) ;
#344 = DIRECTION ( 'NONE',  ( 0.0000000000000000000, 0.0000000000000000000, 1.000000000000000000 ) ) ;
ENDSEC;
END-ISO-10303-21;
