ISO-10303-21;
HEADER;
FILE_DESCRIPTION (( 'STEP AP203' ),
    '1' );
FILE_NAME ('WDS-600-201.step',
    '2012-04-05T13:12:22',
    ( 'sysAdmin' ),
    ( 'SolidWorks' ),
    'SwSTEP 2.0',
    'SolidWorks 2012',
    '' );
FILE_SCHEMA (( 'CONFIG_CONTROL_DESIGN' ));
ENDSEC;

DATA;
#1 = ORIENTED_EDGE ( 'NONE', *, *, #98, .F. ) ;
#2 = ORIENTED_EDGE ( 'NONE', *, *, #31, .T. ) ;
#3 = EDGE_LOOP ( 'NONE', ( #16, #7 ) ) ;
#4 = EDGE_LOOP ( 'NONE', ( #6, #10 ) ) ;
#5 = ADVANCED_FACE ( 'NONE', ( #55, #54 ), #53, .T. ) ;
#6 = ORIENTED_EDGE ( 'NONE', *, *, #68, .T. ) ;
#7 = ORIENTED_EDGE ( 'NONE', *, *, #113, .F. ) ;
#8 = ORIENTED_EDGE ( 'NONE', *, *, #186, .F. ) ;
#9 = ORIENTED_EDGE ( 'NONE', *, *, #120, .T. ) ;
#10 = ORIENTED_EDGE ( 'NONE', *, *, #181, .T. ) ;
#11 = ORIENTED_EDGE ( 'NONE', *, *, #178, .F. ) ;
#12 = EDGE_LOOP ( 'NONE', ( #19, #18 ) ) ;
#13 = EDGE_CURVE ( 'NONE', #92, #111, #57, .T. ) ;
#14 = ORIENTED_EDGE ( 'NONE', *, *, #31, .F. ) ;
#15 = EDGE_LOOP ( 'NONE', ( #37, #1 ) ) ;
#16 = ORIENTED_EDGE ( 'NONE', *, *, #22, .F. ) ;
#17 = APPROVAL ( #38, 'UNSPECIFIED' ) ;
#18 = ORIENTED_EDGE ( 'NONE', *, *, #130, .T. ) ;
#19 = ORIENTED_EDGE ( 'NONE', *, *, #13, .T. ) ;
#20 = CLOSED_SHELL ( 'NONE', ( #106, #193, #124, #177, #102, #188, #192, #21, #35, #5, #28 ) ) ;
#21 = ADVANCED_FACE ( 'NONE', ( #56, #89 ), #47, .T. ) ;
#22 = EDGE_CURVE ( 'NONE', #65, #110, #82, .T. ) ;
#23 = CC_DESIGN_PERSON_AND_ORGANIZATION_ASSIGNMENT ( #24, #29, ( #278 ) ) ;
#24 = PERSON_AND_ORGANIZATION ( #277, #276 ) ;
#25 = ORIENTED_EDGE ( 'NONE', *, *, #108, .F. ) ;
#26 = EDGE_LOOP ( 'NONE', ( #25, #14, #135, #137 ) ) ;
#27 = ORIENTED_EDGE ( 'NONE', *, *, #103, .F. ) ;
#28 = ADVANCED_FACE ( 'NONE', ( #83 ), #77, .F. ) ;
#29 = PERSON_AND_ORGANIZATION_ROLE ( 'design_owner' ) ;
#30 = EDGE_LOOP ( 'NONE', ( #32, #36, #9, #8 ) ) ;
#31 = EDGE_CURVE ( 'NONE', #131, #133, #72, .T. ) ;
#32 = ORIENTED_EDGE ( 'NONE', *, *, #96, .F. ) ;
#33 = EDGE_LOOP ( 'NONE', ( #2, #34 ) ) ;
#34 = ORIENTED_EDGE ( 'NONE', *, *, #132, .T. ) ;
#35 = ADVANCED_FACE ( 'NONE', ( #58 ), #75, .T. ) ;
#36 = ORIENTED_EDGE ( 'NONE', *, *, #13, .F. ) ;
#37 = ORIENTED_EDGE ( 'NONE', *, *, #128, .F. ) ;
#38 = APPROVAL_STATUS ( 'not_yet_approved' ) ;
#39 = PERSON_AND_ORGANIZATION ( #277, #276 ) ;
#40 = PRODUCT_DEFINITION ( 'UNKNOWN', '', #341, #41 ) ;
#41 = DESIGN_CONTEXT ( 'detailed design', #43, 'design' ) ;
#42 = APPLICATION_PROTOCOL_DEFINITION ( 'international standard', 'config_control_design', 1994, #43 ) ;
#43 = APPLICATION_CONTEXT ( 'configuration controlled 3d designs of mechanical parts and assemblies' ) ;
#44 = EDGE_LOOP ( 'NONE', ( #27, #11 ) ) ;
#45 = CARTESIAN_POINT ( 'NONE',  ( 0.0000000000000000000, 0.0000000000000000000, 0.0000000000000000000 ) ) ;
#46 = AXIS2_PLACEMENT_3D ( 'NONE', #45, #91, #90 ) ;
#47 = PLANE ( 'NONE',  #52 ) ;
#48 = DIRECTION ( 'NONE',  ( 1.000000000000000000, 0.0000000000000000000, -0.0000000000000000000 ) ) ;
#49 = DIRECTION ( 'NONE',  ( 0.0000000000000000000, 0.0000000000000000000, 1.000000000000000000 ) ) ;
#50 = CARTESIAN_POINT ( 'NONE',  ( 0.0000000000000000000, 0.0000000000000000000, -7.000000000000000000 ) ) ;
#51 = AXIS2_PLACEMENT_3D ( 'NONE', #88, #74, #73 ) ;
#52 = AXIS2_PLACEMENT_3D ( 'NONE', #86, #85, #84 ) ;
#53 = PLANE ( 'NONE',  #194 ) ;
#54 = FACE_BOUND ( 'NONE', #4, .T. ) ;
#55 = FACE_OUTER_BOUND ( 'NONE', #33, .T. ) ;
#56 = FACE_BOUND ( 'NONE', #3, .T. ) ;
#57 = CIRCLE ( 'NONE', #46, 7.500000000000000000 ) ;
#58 = FACE_OUTER_BOUND ( 'NONE', #30, .T. ) ;
#59 = CC_DESIGN_DATE_AND_TIME_ASSIGNMENT ( #61, #60, ( #40 ) ) ;
#60 = DATE_TIME_ROLE ( 'creation_date' ) ;
#61 = DATE_AND_TIME ( #62, #63 ) ;
#62 = CALENDAR_DATE ( 2012, 5, 4 ) ;
#63 = LOCAL_TIME ( 9, 12, 22.00000000000000000, #64 ) ;
#64 = COORDINATED_UNIVERSAL_TIME_OFFSET ( 5, 0, .BEHIND. ) ;
#65 = VERTEX_POINT ( 'NONE', #167 ) ;
#66 = EDGE_LOOP ( 'NONE', ( #126, #125, #123, #174 ) ) ;
#67 = EDGE_LOOP ( 'NONE', ( #95, #94, #97, #116 ) ) ;
#68 = EDGE_CURVE ( 'NONE', #119, #173, #169, .T. ) ;
#69 = DIRECTION ( 'NONE',  ( 1.000000000000000000, 0.0000000000000000000, 0.0000000000000000000 ) ) ;
#70 = DIRECTION ( 'NONE',  ( 0.0000000000000000000, 0.0000000000000000000, 1.000000000000000000 ) ) ;
#71 = CARTESIAN_POINT ( 'NONE',  ( 0.0000000000000000000, 0.0000000000000000000, -7.000000000000000000 ) ) ;
#72 = CIRCLE ( 'NONE', #195, 5.500000000000000000 ) ;
#73 = DIRECTION ( 'NONE',  ( 1.000000000000000000, 0.0000000000000000000, 0.0000000000000000000 ) ) ;
#74 = DIRECTION ( 'NONE',  ( -0.0000000000000000000, -0.0000000000000000000, 1.000000000000000000 ) ) ;
#75 = CONICAL_SURFACE ( 'NONE', #76, 7.500000000000000000, 0.7853981633974466100 ) ;
#76 = AXIS2_PLACEMENT_3D ( 'NONE', #171, #166, #165 ) ;
#77 = CYLINDRICAL_SURFACE ( 'NONE', #51, 5.500000000000000000 ) ;
#78 = DIRECTION ( 'NONE',  ( 1.000000000000000000, 0.0000000000000000000, 0.0000000000000000000 ) ) ;
#79 = DIRECTION ( 'NONE',  ( 0.0000000000000000000, 0.0000000000000000000, 1.000000000000000000 ) ) ;
#80 = CARTESIAN_POINT ( 'NONE',  ( 0.0000000000000000000, 0.0000000000000000000, 0.0000000000000000000 ) ) ;
#81 = AXIS2_PLACEMENT_3D ( 'NONE', #80, #79, #78 ) ;
#82 = CIRCLE ( 'NONE', #81, 5.500000000000000000 ) ;
#83 = FACE_OUTER_BOUND ( 'NONE', #26, .T. ) ;
#84 = DIRECTION ( 'NONE',  ( 1.000000000000000000, 0.0000000000000000000, -0.0000000000000000000 ) ) ;
#85 = DIRECTION ( 'NONE',  ( 0.0000000000000000000, 0.0000000000000000000, 1.000000000000000000 ) ) ;
#86 = CARTESIAN_POINT ( 'NONE',  ( 0.0000000000000000000, 0.0000000000000000000, 0.0000000000000000000 ) ) ;
#87 = CARTESIAN_POINT ( 'NONE',  ( 8.000000000000000000, 0.0000000000000000000, -0.5000000000000022200 ) ) ;
#88 = CARTESIAN_POINT ( 'NONE',  ( 0.0000000000000000000, 0.0000000000000000000, -7.000000000000000000 ) ) ;
#89 = FACE_OUTER_BOUND ( 'NONE', #12, .T. ) ;
#90 = DIRECTION ( 'NONE',  ( 1.000000000000000000, 0.0000000000000000000, 0.0000000000000000000 ) ) ;
#91 = DIRECTION ( 'NONE',  ( 0.0000000000000000000, 0.0000000000000000000, 1.000000000000000000 ) ) ;
#92 = VERTEX_POINT ( 'NONE', #163 ) ;
#93 = VERTEX_POINT ( 'NONE', #87 ) ;
#94 = ORIENTED_EDGE ( 'NONE', *, *, #96, .T. ) ;
#95 = ORIENTED_EDGE ( 'NONE', *, *, #130, .F. ) ;
#96 = EDGE_CURVE ( 'NONE', #111, #93, #157, .T. ) ;
#97 = ORIENTED_EDGE ( 'NONE', *, *, #117, .F. ) ;
#98 = EDGE_CURVE ( 'NONE', #109, #107, #148, .T. ) ;
#99 = EDGE_CURVE ( 'NONE', #119, #182, #143, .T. ) ;
#100 = ORIENTED_EDGE ( 'NONE', *, *, #99, .T. ) ;
#101 = ORIENTED_EDGE ( 'NONE', *, *, #68, .F. ) ;
#102 = ADVANCED_FACE ( 'NONE', ( #269 ), #281, .F. ) ;
#103 = EDGE_CURVE ( 'NONE', #182, #176, #198, .T. ) ;
#104 = ORIENTED_EDGE ( 'NONE', *, *, #180, .F. ) ;
#105 = ORIENTED_EDGE ( 'NONE', *, *, #103, .T. ) ;
#106 = ADVANCED_FACE ( 'NONE', ( #242 ), #202, .F. ) ;
#107 = VERTEX_POINT ( 'NONE', #313 ) ;
#108 = EDGE_CURVE ( 'NONE', #133, #110, #216, .T. ) ;
#109 = VERTEX_POINT ( 'NONE', #315 ) ;
#110 = VERTEX_POINT ( 'NONE', #314 ) ;
#111 = VERTEX_POINT ( 'NONE', #212 ) ;
#112 = ORIENTED_EDGE ( 'NONE', *, *, #108, .T. ) ;
#113 = EDGE_CURVE ( 'NONE', #110, #65, #211, .T. ) ;
#114 = ORIENTED_EDGE ( 'NONE', *, *, #113, .T. ) ;
#115 = EDGE_CURVE ( 'NONE', #131, #65, #210, .T. ) ;
#116 = ORIENTED_EDGE ( 'NONE', *, *, #120, .F. ) ;
#117 = EDGE_CURVE ( 'NONE', #118, #93, #258, .T. ) ;
#118 = VERTEX_POINT ( 'NONE', #259 ) ;
#119 = VERTEX_POINT ( 'NONE', #205 ) ;
#120 = EDGE_CURVE ( 'NONE', #92, #118, #209, .T. ) ;
#121 = EDGE_LOOP ( 'NONE', ( #179, #185, #184, #129 ) ) ;
#122 = EDGE_CURVE ( 'NONE', #107, #93, #246, .T. ) ;
#123 = ORIENTED_EDGE ( 'NONE', *, *, #117, .T. ) ;
#124 = ADVANCED_FACE ( 'NONE', ( #204 ), #247, .T. ) ;
#125 = ORIENTED_EDGE ( 'NONE', *, *, #127, .T. ) ;
#126 = ORIENTED_EDGE ( 'NONE', *, *, #128, .T. ) ;
#127 = EDGE_CURVE ( 'NONE', #109, #118, #329, .T. ) ;
#128 = EDGE_CURVE ( 'NONE', #107, #109, #249, .T. ) ;
#129 = ORIENTED_EDGE ( 'NONE', *, *, #99, .F. ) ;
#130 = EDGE_CURVE ( 'NONE', #111, #92, #325, .T. ) ;
#131 = VERTEX_POINT ( 'NONE', #248 ) ;
#132 = EDGE_CURVE ( 'NONE', #133, #131, #306, .T. ) ;
#133 = VERTEX_POINT ( 'NONE', #309 ) ;
#134 = ORIENTED_EDGE ( 'NONE', *, *, #115, .F. ) ;
#135 = ORIENTED_EDGE ( 'NONE', *, *, #115, .T. ) ;
#136 = MANIFOLD_SOLID_BREP ( 'Cut-Extrude3', #20 ) ;
#137 = ORIENTED_EDGE ( 'NONE', *, *, #22, .T. ) ;
#138 = PERSON_AND_ORGANIZATION_ROLE ( 'creator' ) ;
#139 = PERSON_AND_ORGANIZATION ( #277, #276 ) ;
#140 = DIRECTION ( 'NONE',  ( -0.0000000000000000000, -0.0000000000000000000, -1.000000000000000000 ) ) ;
#141 = VECTOR ( 'NONE', #140, 1000.000000000000000 ) ;
#142 = CARTESIAN_POINT ( 'NONE',  ( -3.250000000000000400, 0.0000000000000000000, 0.0009999999999992653700 ) ) ;
#143 = LINE ( 'NONE', #142, #141 ) ;
#144 = CC_DESIGN_PERSON_AND_ORGANIZATION_ASSIGNMENT ( #139, #138, ( #40 ) ) ;
#145 = DIRECTION ( 'NONE',  ( 1.000000000000000000, 0.0000000000000000000, 0.0000000000000000000 ) ) ;
#146 = DIRECTION ( 'NONE',  ( 0.0000000000000000000, 0.0000000000000000000, 1.000000000000000000 ) ) ;
#147 = CARTESIAN_POINT ( 'NONE',  ( 0.0000000000000000000, 0.0000000000000000000, -12.00000000000000000 ) ) ;
#148 = CIRCLE ( 'NONE', #168, 8.000000000000000000 ) ;
#149 = CC_DESIGN_APPROVAL ( #17, ( #40 ) ) ;
#150 = APPROVAL_DATE_TIME ( #151, #17 ) ;
#151 = DATE_AND_TIME ( #170, #155 ) ;
#152 = APPROVAL_PERSON_ORGANIZATION ( #39, #17, #164 ) ;
#153 = DIRECTION ( 'NONE',  ( 0.7071067811865463500, 8.659560562354918100E-017, -0.7071067811865487900 ) ) ;
#154 = VECTOR ( 'NONE', #153, 1000.000000000000000 ) ;
#155 = LOCAL_TIME ( 9, 12, 22.00000000000000000, #158 ) ;
#156 = CARTESIAN_POINT ( 'NONE',  ( 7.500000000000000000, 9.184850993605147900E-016, 0.0000000000000000000 ) ) ;
#157 = LINE ( 'NONE', #156, #154 ) ;
#158 = COORDINATED_UNIVERSAL_TIME_OFFSET ( 5, 0, .BEHIND. ) ;
#159 = DIRECTION ( 'NONE',  ( 1.000000000000000000, 0.0000000000000000000, 0.0000000000000000000 ) ) ;
#160 = DIRECTION ( 'NONE',  ( -0.0000000000000000000, -0.0000000000000000000, -1.000000000000000000 ) ) ;
#161 = CARTESIAN_POINT ( 'NONE',  ( 0.0000000000000000000, 0.0000000000000000000, -7.000000000000000000 ) ) ;
#162 = AXIS2_PLACEMENT_3D ( 'NONE', #161, #160, #159 ) ;
#163 = CARTESIAN_POINT ( 'NONE',  ( -7.500000000000000000, 0.0000000000000000000, 0.0000000000000000000 ) ) ;
#164 = APPROVAL_ROLE ( '' ) ;
#165 = DIRECTION ( 'NONE',  ( -1.000000000000000000, 0.0000000000000000000, 0.0000000000000000000 ) ) ;
#166 = DIRECTION ( 'NONE',  ( 0.0000000000000000000, 0.0000000000000000000, -1.000000000000000000 ) ) ;
#167 = CARTESIAN_POINT ( 'NONE',  ( 5.500000000000000000, 0.0000000000000000000, 0.0000000000000000000 ) ) ;
#168 = AXIS2_PLACEMENT_3D ( 'NONE', #147, #146, #145 ) ;
#169 = CIRCLE ( 'NONE', #162, 3.250000000000000400 ) ;
#170 = CALENDAR_DATE ( 2012, 5, 4 ) ;
#171 = CARTESIAN_POINT ( 'NONE',  ( 0.0000000000000000000, 0.0000000000000000000, 0.0000000000000000000 ) ) ;
#172 = EDGE_LOOP ( 'NONE', ( #196, #112, #114, #134 ) ) ;
#173 = VERTEX_POINT ( 'NONE', #301 ) ;
#174 = ORIENTED_EDGE ( 'NONE', *, *, #122, .F. ) ;
#175 = EDGE_LOOP ( 'NONE', ( #104, #101, #100, #105 ) ) ;
#176 = VERTEX_POINT ( 'NONE', #300 ) ;
#177 = ADVANCED_FACE ( 'NONE', ( #308 ), #332, .F. ) ;
#178 = EDGE_CURVE ( 'NONE', #176, #182, #294, .T. ) ;
#179 = ORIENTED_EDGE ( 'NONE', *, *, #181, .F. ) ;
#180 = EDGE_CURVE ( 'NONE', #173, #176, #289, .T. ) ;
#181 = EDGE_CURVE ( 'NONE', #173, #119, #240, .T. ) ;
#182 = VERTEX_POINT ( 'NONE', #307 ) ;
#183 = EDGE_LOOP ( 'NONE', ( #189, #187, #190, #191 ) ) ;
#184 = ORIENTED_EDGE ( 'NONE', *, *, #178, .T. ) ;
#185 = ORIENTED_EDGE ( 'NONE', *, *, #180, .T. ) ;
#186 = EDGE_CURVE ( 'NONE', #93, #118, #235, .T. ) ;
#187 = ORIENTED_EDGE ( 'NONE', *, *, #98, .T. ) ;
#188 = ADVANCED_FACE ( 'NONE', ( #285 ), #283, .T. ) ;
#189 = ORIENTED_EDGE ( 'NONE', *, *, #127, .F. ) ;
#190 = ORIENTED_EDGE ( 'NONE', *, *, #122, .T. ) ;
#191 = ORIENTED_EDGE ( 'NONE', *, *, #186, .T. ) ;
#192 = ADVANCED_FACE ( 'NONE', ( #233, #241 ), #284, .F. ) ;
#193 = ADVANCED_FACE ( 'NONE', ( #227 ), #290, .T. ) ;
#194 = AXIS2_PLACEMENT_3D ( 'NONE', #50, #49, #48 ) ;
#195 = AXIS2_PLACEMENT_3D ( 'NONE', #71, #70, #69 ) ;
#196 = ORIENTED_EDGE ( 'NONE', *, *, #132, .F. ) ;
#197 = CARTESIAN_POINT ( 'NONE',  ( 0.0000000000000000000, 0.0000000000000000000, -12.00000000000000000 ) ) ;
#198 = CIRCLE ( 'NONE', #263, 3.250000000000000400 ) ;
#199 = DIRECTION ( 'NONE',  ( -0.0000000000000000000, -0.0000000000000000000, 1.000000000000000000 ) ) ;
#200 = DIRECTION ( 'NONE',  ( -1.000000000000000000, 0.0000000000000000000, 0.0000000000000000000 ) ) ;
#201 = DIRECTION ( 'NONE',  ( -0.0000000000000000000, -0.0000000000000000000, -1.000000000000000000 ) ) ;
#202 = CYLINDRICAL_SURFACE ( 'NONE', #275, 5.500000000000000000 ) ;
#203 = AXIS2_PLACEMENT_3D ( 'NONE', #257, #256, #255 ) ;
#204 = FACE_OUTER_BOUND ( 'NONE', #66, .T. ) ;
#205 = CARTESIAN_POINT ( 'NONE',  ( -3.250000000000000400, 0.0000000000000000000, -7.000000000000000000 ) ) ;
#206 = DIRECTION ( 'NONE',  ( 1.000000000000000000, 0.0000000000000000000, 0.0000000000000000000 ) ) ;
#207 = DIRECTION ( 'NONE',  ( 0.0000000000000000000, 0.0000000000000000000, 1.000000000000000000 ) ) ;
#208 = CARTESIAN_POINT ( 'NONE',  ( 0.0000000000000000000, 0.0000000000000000000, 0.0000000000000000000 ) ) ;
#209 = LINE ( 'NONE', #252, #251 ) ;
#210 = LINE ( 'NONE', #262, #261 ) ;
#211 = CIRCLE ( 'NONE', #312, 5.500000000000000000 ) ;
#212 = CARTESIAN_POINT ( 'NONE',  ( 7.500000000000000000, 9.491012693391985800E-016, 0.0000000000000000000 ) ) ;
#213 = DIRECTION ( 'NONE',  ( -0.0000000000000000000, -0.0000000000000000000, 1.000000000000000000 ) ) ;
#214 = VECTOR ( 'NONE', #213, 1000.000000000000000 ) ;
#215 = CARTESIAN_POINT ( 'NONE',  ( -5.500000000000000000, 6.735557395310442000E-016, -7.000000000000000000 ) ) ;
#216 = LINE ( 'NONE', #215, #214 ) ;
#217 =( NAMED_UNIT ( * ) PLANE_ANGLE_UNIT ( ) SI_UNIT ( $, .RADIAN. ) );
#218 =( LENGTH_UNIT ( ) NAMED_UNIT ( * ) SI_UNIT ( .MILLI., .METRE. ) );
#219 = DIRECTION ( 'NONE',  ( 0.0000000000000000000, 0.0000000000000000000, -1.000000000000000000 ) ) ;
#220 = DIRECTION ( 'NONE',  ( 1.000000000000000000, 0.0000000000000000000, -0.0000000000000000000 ) ) ;
#221 = DIRECTION ( 'NONE',  ( 0.0000000000000000000, 0.0000000000000000000, 1.000000000000000000 ) ) ;
#222 = CARTESIAN_POINT ( 'NONE',  ( 0.0000000000000000000, 0.0000000000000000000, 0.0000000000000000000 ) ) ;
#223 = DIRECTION ( 'NONE',  ( 1.000000000000000000, 0.0000000000000000000, 0.0000000000000000000 ) ) ;
#224 = DIRECTION ( 'NONE',  ( -1.000000000000000000, 0.0000000000000000000, 0.0000000000000000000 ) ) ;
#225 = CARTESIAN_POINT ( 'NONE',  ( 0.0000000000000000000, 0.0000000000000000000, -12.00000000000000000 ) ) ;
#226 = AXIS2_PLACEMENT_3D ( 'NONE', #225, #295, #223 ) ;
#227 = FACE_OUTER_BOUND ( 'NONE', #67, .T. ) ;
#228 = DIRECTION ( 'NONE',  ( 1.000000000000000000, 0.0000000000000000000, 0.0000000000000000000 ) ) ;
#229 = DIRECTION ( 'NONE',  ( 0.0000000000000000000, 0.0000000000000000000, -1.000000000000000000 ) ) ;
#230 = CARTESIAN_POINT ( 'NONE',  ( 0.0000000000000000000, 0.0000000000000000000, -0.5000000000000022200 ) ) ;
#231 = AXIS2_PLACEMENT_3D ( 'NONE', #230, #229, #228 ) ;
#232 = AXIS2_PLACEMENT_3D ( 'NONE', #234, #221, #220 ) ;
#233 = FACE_BOUND ( 'NONE', #44, .T. ) ;
#234 = CARTESIAN_POINT ( 'NONE',  ( 0.0000000000000000000, 0.0000000000000000000, -12.00000000000000000 ) ) ;
#235 = CIRCLE ( 'NONE', #231, 8.000000000000000000 ) ;
#236 = AXIS2_PLACEMENT_3D ( 'NONE', #222, #219, #224 ) ;
#237 = DIRECTION ( 'NONE',  ( 1.000000000000000000, 0.0000000000000000000, 0.0000000000000000000 ) ) ;
#238 = DIRECTION ( 'NONE',  ( -0.0000000000000000000, -0.0000000000000000000, -1.000000000000000000 ) ) ;
#239 = CARTESIAN_POINT ( 'NONE',  ( 0.0000000000000000000, 0.0000000000000000000, -7.000000000000000000 ) ) ;
#240 = CIRCLE ( 'NONE', #323, 3.250000000000000400 ) ;
#241 = FACE_OUTER_BOUND ( 'NONE', #15, .T. ) ;
#242 = FACE_OUTER_BOUND ( 'NONE', #172, .T. ) ;
#243 = DIRECTION ( 'NONE',  ( 0.0000000000000000000, 0.0000000000000000000, 1.000000000000000000 ) ) ;
#244 = VECTOR ( 'NONE', #243, 1000.000000000000000 ) ;
#245 = CARTESIAN_POINT ( 'NONE',  ( 8.000000000000000000, 0.0000000000000000000, -12.00000000000000000 ) ) ;
#246 = LINE ( 'NONE', #245, #244 ) ;
#247 = CYLINDRICAL_SURFACE ( 'NONE', #334, 8.000000000000000000 ) ;
#248 = CARTESIAN_POINT ( 'NONE',  ( 5.500000000000000000, 0.0000000000000000000, -7.000000000000000000 ) ) ;
#249 = CIRCLE ( 'NONE', #254, 8.000000000000000000 ) ;
#250 = DIRECTION ( 'NONE',  ( -0.7071067811865463500, 0.0000000000000000000, -0.7071067811865487900 ) ) ;
#251 = VECTOR ( 'NONE', #250, 1000.000000000000000 ) ;
#252 = CARTESIAN_POINT ( 'NONE',  ( -7.500000000000000000, 0.0000000000000000000, 0.0000000000000000000 ) ) ;
#253 = CARTESIAN_POINT ( 'NONE',  ( 0.0000000000000000000, 0.0000000000000000000, -12.00000000000000000 ) ) ;
#254 = AXIS2_PLACEMENT_3D ( 'NONE', #253, #322, #321 ) ;
#255 = DIRECTION ( 'NONE',  ( 1.000000000000000000, 0.0000000000000000000, 0.0000000000000000000 ) ) ;
#256 = DIRECTION ( 'NONE',  ( 0.0000000000000000000, 0.0000000000000000000, -1.000000000000000000 ) ) ;
#257 = CARTESIAN_POINT ( 'NONE',  ( 0.0000000000000000000, 0.0000000000000000000, -0.5000000000000022200 ) ) ;
#258 = CIRCLE ( 'NONE', #203, 8.000000000000000000 ) ;
#259 = CARTESIAN_POINT ( 'NONE',  ( -8.000000000000000000, 9.797174393178825700E-016, -0.5000000000000022200 ) ) ;
#260 = DIRECTION ( 'NONE',  ( -0.0000000000000000000, -0.0000000000000000000, 1.000000000000000000 ) ) ;
#261 = VECTOR ( 'NONE', #260, 1000.000000000000000 ) ;
#262 = CARTESIAN_POINT ( 'NONE',  ( 5.500000000000000000, 0.0000000000000000000, -7.000000000000000000 ) ) ;
#263 = AXIS2_PLACEMENT_3D ( 'NONE', #197, #318, #317 ) ;
#264 = AXIS2_PLACEMENT_3D ( 'NONE', #282, #201, #200 ) ;
#265 = ADVANCED_BREP_SHAPE_REPRESENTATION ( 'WDS-600-201', ( #136, #273 ), #266 ) ;
#266 =( GEOMETRIC_REPRESENTATION_CONTEXT ( 3 ) GLOBAL_UNCERTAINTY_ASSIGNED_CONTEXT ( ( #267 ) ) GLOBAL_UNIT_ASSIGNED_CONTEXT ( ( #218, #217, #268 ) ) REPRESENTATION_CONTEXT ( 'NONE', 'WORKASPACE' ) );
#267 = UNCERTAINTY_MEASURE_WITH_UNIT (LENGTH_MEASURE( 1.000000000000000100E-005 ), #218, 'distance_accuracy_value', 'NONE');
#268 =( NAMED_UNIT ( * ) SI_UNIT ( $, .STERADIAN. ) SOLID_ANGLE_UNIT ( ) );
#269 = FACE_OUTER_BOUND ( 'NONE', #175, .T. ) ;
#270 = DIRECTION ( 'NONE',  ( 1.000000000000000000, 0.0000000000000000000, 0.0000000000000000000 ) ) ;
#271 = DIRECTION ( 'NONE',  ( 0.0000000000000000000, 0.0000000000000000000, 1.000000000000000000 ) ) ;
#272 = CARTESIAN_POINT ( 'NONE',  ( 0.0000000000000000000, 0.0000000000000000000, 0.0000000000000000000 ) ) ;
#273 = AXIS2_PLACEMENT_3D ( 'NONE', #272, #271, #270 ) ;
#274 = APPLICATION_CONTEXT ( 'configuration controlled 3d designs of mechanical parts and assemblies' ) ;
#275 = AXIS2_PLACEMENT_3D ( 'NONE', #316, #199, #311 ) ;
#276 = ORGANIZATION ( 'UNSPECIFIED', 'UNSPECIFIED', '' ) ;
#277 = PERSON ( 'UNSPECIFIED', 'UNSPECIFIED', 'UNSPECIFIED', ('UNSPECIFIED'), ('UNSPECIFIED'), ('UNSPECIFIED') ) ;
#278 = PRODUCT ( 'WDS-600-201', 'WDS-600-201', '', ( #279 ) ) ;
#279 = MECHANICAL_CONTEXT ( 'NONE', #274, 'mechanical' ) ;
#280 = APPLICATION_PROTOCOL_DEFINITION ( 'international standard', 'config_control_design', 1994, #274 ) ;
#281 = CYLINDRICAL_SURFACE ( 'NONE', #264, 3.250000000000000400 ) ;
#282 = CARTESIAN_POINT ( 'NONE',  ( 0.0000000000000000000, 0.0000000000000000000, 0.0009999999999992653700 ) ) ;
#283 = CYLINDRICAL_SURFACE ( 'NONE', #226, 8.000000000000000000 ) ;
#284 = PLANE ( 'NONE',  #232 ) ;
#285 = FACE_OUTER_BOUND ( 'NONE', #183, .T. ) ;
#286 = DIRECTION ( 'NONE',  ( -0.0000000000000000000, -0.0000000000000000000, -1.000000000000000000 ) ) ;
#287 = VECTOR ( 'NONE', #286, 1000.000000000000000 ) ;
#288 = CARTESIAN_POINT ( 'NONE',  ( 3.250000000000000400, 3.980102097228898200E-016, 0.0009999999999992653700 ) ) ;
#289 = LINE ( 'NONE', #288, #287 ) ;
#290 = CONICAL_SURFACE ( 'NONE', #236, 7.500000000000000000, 0.7853981633974466100 ) ;
#291 = DIRECTION ( 'NONE',  ( -1.000000000000000000, 0.0000000000000000000, 0.0000000000000000000 ) ) ;
#292 = DIRECTION ( 'NONE',  ( 0.0000000000000000000, 0.0000000000000000000, -1.000000000000000000 ) ) ;
#293 = CARTESIAN_POINT ( 'NONE',  ( 0.0000000000000000000, 0.0000000000000000000, -12.00000000000000000 ) ) ;
#294 = CIRCLE ( 'NONE', #298, 3.250000000000000400 ) ;
#295 = DIRECTION ( 'NONE',  ( 0.0000000000000000000, 0.0000000000000000000, 1.000000000000000000 ) ) ;
#296 = DIRECTION ( 'NONE',  ( -1.000000000000000000, 0.0000000000000000000, 0.0000000000000000000 ) ) ;
#297 = DIRECTION ( 'NONE',  ( -0.0000000000000000000, -0.0000000000000000000, -1.000000000000000000 ) ) ;
#298 = AXIS2_PLACEMENT_3D ( 'NONE', #293, #292, #291 ) ;
#299 = AXIS2_PLACEMENT_3D ( 'NONE', #310, #297, #296 ) ;
#300 = CARTESIAN_POINT ( 'NONE',  ( 3.250000000000000400, 3.980102097228898200E-016, -12.00000000000000000 ) ) ;
#301 = CARTESIAN_POINT ( 'NONE',  ( 3.250000000000000400, 3.980102097228898200E-016, -7.000000000000000000 ) ) ;
#302 = DIRECTION ( 'NONE',  ( 1.000000000000000000, 0.0000000000000000000, 0.0000000000000000000 ) ) ;
#303 = DIRECTION ( 'NONE',  ( 0.0000000000000000000, 0.0000000000000000000, 1.000000000000000000 ) ) ;
#304 = CARTESIAN_POINT ( 'NONE',  ( 0.0000000000000000000, 0.0000000000000000000, -7.000000000000000000 ) ) ;
#305 = AXIS2_PLACEMENT_3D ( 'NONE', #304, #303, #302 ) ;
#306 = CIRCLE ( 'NONE', #305, 5.500000000000000000 ) ;
#307 = CARTESIAN_POINT ( 'NONE',  ( -3.250000000000000400, 0.0000000000000000000, -12.00000000000000000 ) ) ;
#308 = FACE_OUTER_BOUND ( 'NONE', #121, .T. ) ;
#309 = CARTESIAN_POINT ( 'NONE',  ( -5.500000000000000000, 6.735557395310442000E-016, -7.000000000000000000 ) ) ;
#310 = CARTESIAN_POINT ( 'NONE',  ( 0.0000000000000000000, 0.0000000000000000000, 0.0009999999999992653700 ) ) ;
#311 = DIRECTION ( 'NONE',  ( 1.000000000000000000, 0.0000000000000000000, 0.0000000000000000000 ) ) ;
#312 = AXIS2_PLACEMENT_3D ( 'NONE', #208, #207, #206 ) ;
#313 = CARTESIAN_POINT ( 'NONE',  ( 8.000000000000000000, 0.0000000000000000000, -12.00000000000000000 ) ) ;
#314 = CARTESIAN_POINT ( 'NONE',  ( -5.500000000000000000, 6.735557395310442000E-016, 0.0000000000000000000 ) ) ;
#315 = CARTESIAN_POINT ( 'NONE',  ( -8.000000000000000000, 9.797174393178825700E-016, -12.00000000000000000 ) ) ;
#316 = CARTESIAN_POINT ( 'NONE',  ( 0.0000000000000000000, 0.0000000000000000000, -7.000000000000000000 ) ) ;
#317 = DIRECTION ( 'NONE',  ( -1.000000000000000000, 0.0000000000000000000, 0.0000000000000000000 ) ) ;
#318 = DIRECTION ( 'NONE',  ( 0.0000000000000000000, 0.0000000000000000000, -1.000000000000000000 ) ) ;
#319 = DIRECTION ( 'NONE',  ( 1.000000000000000000, 0.0000000000000000000, 0.0000000000000000000 ) ) ;
#320 = DIRECTION ( 'NONE',  ( 0.0000000000000000000, 0.0000000000000000000, 1.000000000000000000 ) ) ;
#321 = DIRECTION ( 'NONE',  ( 1.000000000000000000, 0.0000000000000000000, 0.0000000000000000000 ) ) ;
#322 = DIRECTION ( 'NONE',  ( 0.0000000000000000000, 0.0000000000000000000, 1.000000000000000000 ) ) ;
#323 = AXIS2_PLACEMENT_3D ( 'NONE', #239, #238, #237 ) ;
#324 = CARTESIAN_POINT ( 'NONE',  ( 0.0000000000000000000, 0.0000000000000000000, 0.0000000000000000000 ) ) ;
#325 = CIRCLE ( 'NONE', #335, 7.500000000000000000 ) ;
#326 = DIRECTION ( 'NONE',  ( 0.0000000000000000000, 0.0000000000000000000, 1.000000000000000000 ) ) ;
#327 = VECTOR ( 'NONE', #326, 1000.000000000000000 ) ;
#328 = CARTESIAN_POINT ( 'NONE',  ( -8.000000000000000000, 9.797174393178825700E-016, -12.00000000000000000 ) ) ;
#329 = LINE ( 'NONE', #328, #327 ) ;
#330 = DIRECTION ( 'NONE',  ( 1.000000000000000000, 0.0000000000000000000, 0.0000000000000000000 ) ) ;
#331 = DIRECTION ( 'NONE',  ( 0.0000000000000000000, 0.0000000000000000000, 1.000000000000000000 ) ) ;
#332 = CYLINDRICAL_SURFACE ( 'NONE', #299, 3.250000000000000400 ) ;
#333 = CARTESIAN_POINT ( 'NONE',  ( 0.0000000000000000000, 0.0000000000000000000, -12.00000000000000000 ) ) ;
#334 = AXIS2_PLACEMENT_3D ( 'NONE', #333, #331, #330 ) ;
#335 = AXIS2_PLACEMENT_3D ( 'NONE', #324, #320, #319 ) ;
#336 = PERSON_AND_ORGANIZATION ( #277, #276 ) ;
#337 = DATE_AND_TIME ( #338, #339 ) ;
#338 = CALENDAR_DATE ( 2012, 5, 4 ) ;
#339 = LOCAL_TIME ( 9, 12, 22.00000000000000000, #340 ) ;
#340 = COORDINATED_UNIVERSAL_TIME_OFFSET ( 5, 0, .BEHIND. ) ;
#341 = PRODUCT_DEFINITION_FORMATION_WITH_SPECIFIED_SOURCE ( 'ANY', '', #278, .NOT_KNOWN. ) ;
#342 = APPROVAL ( #343, 'UNSPECIFIED' ) ;
#343 = APPROVAL_STATUS ( 'not_yet_approved' ) ;
#344 = APPROVAL_PERSON_ORGANIZATION ( #336, #342, #345 ) ;
#345 = APPROVAL_ROLE ( '' ) ;
#346 = DATE_AND_TIME ( #347, #348 ) ;
#347 = CALENDAR_DATE ( 2012, 5, 4 ) ;
#348 = LOCAL_TIME ( 9, 12, 22.00000000000000000, #349 ) ;
#349 = COORDINATED_UNIVERSAL_TIME_OFFSET ( 5, 0, .BEHIND. ) ;
#350 = APPROVAL_PERSON_ORGANIZATION ( #354, #352, #351 ) ;
#351 = APPROVAL_ROLE ( '' ) ;
#352 = APPROVAL ( #353, 'UNSPECIFIED' ) ;
#353 = APPROVAL_STATUS ( 'not_yet_approved' ) ;
#354 = PERSON_AND_ORGANIZATION ( #277, #276 ) ;
#355 = CC_DESIGN_DATE_AND_TIME_ASSIGNMENT ( #357, #356, ( #364 ) ) ;
#356 = DATE_TIME_ROLE ( 'classification_date' ) ;
#357 = DATE_AND_TIME ( #358, #359 ) ;
#358 = CALENDAR_DATE ( 2012, 5, 4 ) ;
#359 = LOCAL_TIME ( 9, 12, 22.00000000000000000, #360 ) ;
#360 = COORDINATED_UNIVERSAL_TIME_OFFSET ( 5, 0, .BEHIND. ) ;
#361 = CC_DESIGN_PERSON_AND_ORGANIZATION_ASSIGNMENT ( #363, #362, ( #364 ) ) ;
#362 = PERSON_AND_ORGANIZATION_ROLE ( 'classification_officer' ) ;
#363 = PERSON_AND_ORGANIZATION ( #277, #276 ) ;
#364 = SECURITY_CLASSIFICATION ( '', '', #365 ) ;
#365 = SECURITY_CLASSIFICATION_LEVEL ( 'unclassified' ) ;
#366 = CC_DESIGN_PERSON_AND_ORGANIZATION_ASSIGNMENT ( #368, #367, ( #341 ) ) ;
#367 = PERSON_AND_ORGANIZATION_ROLE ( 'design_supplier' ) ;
#368 = PERSON_AND_ORGANIZATION ( #277, #276 ) ;
#369 = CC_DESIGN_PERSON_AND_ORGANIZATION_ASSIGNMENT ( #371, #370, ( #341 ) ) ;
#370 = PERSON_AND_ORGANIZATION_ROLE ( 'creator' ) ;
#371 = PERSON_AND_ORGANIZATION ( #277, #276 ) ;
#372 = CC_DESIGN_APPROVAL ( #342, ( #341 ) ) ;
#373 = APPROVAL_DATE_TIME ( #337, #342 ) ;
#374 = SHAPE_DEFINITION_REPRESENTATION ( #375, #265 ) ;
#375 = PRODUCT_DEFINITION_SHAPE ( 'NONE', 'NONE',  #40 ) ;
#376 = PRODUCT_RELATED_PRODUCT_CATEGORY ( 'detail', '', ( #278 ) ) ;
#377 = CC_DESIGN_SECURITY_CLASSIFICATION ( #364, ( #341 ) ) ;
#378 = CC_DESIGN_APPROVAL ( #352, ( #364 ) ) ;
#379 = APPROVAL_DATE_TIME ( #346, #352 ) ;
ENDSEC;
END-ISO-10303-21;
