ISO-10303-21;
HEADER;
FILE_DESCRIPTION( ( '' ), '1' );
FILE_NAME( 'C:/Users/Bollwitte/Desktop/987/K0293.312.stp', '2012-10-30T12:41:45', ( '' ), ( '' ), ' ', ' ', ' ' );
FILE_SCHEMA( ( 'CONFIG_CONTROL_DESIGN' ) );
ENDSEC;
DATA;
#1 = DESIGN_CONTEXT( '', #27, 'design' );
#2 = APPLICATION_PROTOCOL_DEFINITION( 'INTERNATIONAL STANDARD', 'config_control_design', 1994, #27 );
#3 = PRODUCT_CATEGORY_RELATIONSHIP( 'NONE', 'NONE', #28, #29 );
#4 = DATE_AND_TIME( #30, #31 );
#5 = DATE_TIME_ROLE( 'creation_date' );
#6 = DATE_TIME_ROLE( 'classification_date' );
#7 = PERSON_AND_ORGANIZATION_ROLE( 'creator' );
#8 = PERSON_AND_ORGANIZATION_ROLE( 'design_supplier' );
#9 = PERSON_AND_ORGANIZATION_ROLE( 'classification_officer' );
#10 = PERSON_AND_ORGANIZATION_ROLE( 'design_owner' );
#11 = APPROVAL_PERSON_ORGANIZATION( #32, #33, #34 );
#12 = APPROVAL_DATE_TIME( #4, #33 );
#13 = CC_DESIGN_APPROVAL( #33, ( #35, #36, #37 ) );
#14 = CC_DESIGN_DATE_AND_TIME_ASSIGNMENT( #4, #5, ( #37 ) );
#15 = CC_DESIGN_DATE_AND_TIME_ASSIGNMENT( #4, #6, ( #35 ) );
#16 = CC_DESIGN_PERSON_AND_ORGANIZATION_ASSIGNMENT( #32, #10, ( #38 ) );
#17 = CC_DESIGN_PERSON_AND_ORGANIZATION_ASSIGNMENT( #32, #7, ( #37 ) );
#18 = CC_DESIGN_PERSON_AND_ORGANIZATION_ASSIGNMENT( #32, #7, ( #36 ) );
#19 = CC_DESIGN_PERSON_AND_ORGANIZATION_ASSIGNMENT( #32, #8, ( #36 ) );
#20 = CC_DESIGN_SECURITY_CLASSIFICATION( #35, ( #36 ) );
#21 = CC_DESIGN_PERSON_AND_ORGANIZATION_ASSIGNMENT( #32, #9, ( #35 ) );
#22 = SHAPE_DEFINITION_REPRESENTATION( #39, #40 );
#23 =  ( GEOMETRIC_REPRESENTATION_CONTEXT( 3 )GLOBAL_UNCERTAINTY_ASSIGNED_CONTEXT( ( #43 ) )GLOBAL_UNIT_ASSIGNED_CONTEXT( ( #45, #46, #47 ) )REPRESENTATION_CONTEXT( 'NONE', 'WORKSPACE' ) );
#27 = APPLICATION_CONTEXT( 'CONFIGURATION CONTROLLED 3D DESIGNS OF MECHANICAL PARTS AND ASSEMBLIES' );
#28 = PRODUCT_CATEGORY( 'part', 'NONE' );
#29 = PRODUCT_RELATED_PRODUCT_CATEGORY( 'detail', ' ', ( #38 ) );
#30 = CALENDAR_DATE( 2012, 30, 9 );
#31 = LOCAL_TIME( 13, 41, 45.0000000000000, #49 );
#32 = PERSON_AND_ORGANIZATION( #50, #51 );
#33 = APPROVAL( #52, 'SOLID MODEL' );
#34 = APPROVAL_ROLE( 'APPROVED' );
#35 = SECURITY_CLASSIFICATION( '', '', #53 );
#36 = PRODUCT_DEFINITION_FORMATION_WITH_SPECIFIED_SOURCE( ' ', 'NONE', #38, .NOT_KNOWN. );
#37 = PRODUCT_DEFINITION( 'NONE', 'NONE', #36, #1 );
#38 = PRODUCT( '1', '1', 'PART-1-DESC', ( #54 ) );
#39 = PRODUCT_DEFINITION_SHAPE( 'NONE', 'NONE', #37 );
#40 = ADVANCED_BREP_SHAPE_REPRESENTATION( '1', ( #55, #56 ), #23 );
#43 = UNCERTAINTY_MEASURE_WITH_UNIT( LENGTH_MEASURE( 1.00000000000000E-006 ), #45, '', '' );
#45 =  ( CONVERSION_BASED_UNIT( 'MILLIMETRE', #59 )LENGTH_UNIT(  )NAMED_UNIT( #62 ) );
#46 =  ( NAMED_UNIT( #64 )PLANE_ANGLE_UNIT(  )SI_UNIT( $, .RADIAN. ) );
#47 =  ( NAMED_UNIT( #64 )SOLID_ANGLE_UNIT(  )SI_UNIT( $, .STERADIAN. ) );
#49 = COORDINATED_UNIVERSAL_TIME_OFFSET( 1, 0, .AHEAD. );
#50 = PERSON( '', 'UNSPECIFIED', $, $, $, $ );
#51 = ORGANIZATION( 'UNSPECIFIED', 'UNSPECIFIED', 'UNSPECIFIED' );
#52 = APPROVAL_STATUS( 'approved' );
#53 = SECURITY_CLASSIFICATION_LEVEL( 'unclassified' );
#54 = MECHANICAL_CONTEXT( '', #27, 'mechanical' );
#55 = MANIFOLD_SOLID_BREP( '1', #70 );
#56 = AXIS2_PLACEMENT_3D( '', #71, #72, #73 );
#59 = LENGTH_MEASURE_WITH_UNIT( LENGTH_MEASURE( 1.00000000000000 ), #74 );
#62 = DIMENSIONAL_EXPONENTS( 1.00000000000000, 0.000000000000000, 0.000000000000000, 0.000000000000000, 0.000000000000000, 0.000000000000000, 0.000000000000000 );
#64 = DIMENSIONAL_EXPONENTS( 0.000000000000000, 0.000000000000000, 0.000000000000000, 0.000000000000000, 0.000000000000000, 0.000000000000000, 0.000000000000000 );
#70 = CLOSED_SHELL( '', ( #75, #76, #77, #78, #79, #80, #81, #82, #83, #84, #85, #86, #87, #88, #89, #90 ) );
#71 = CARTESIAN_POINT( '', ( 0.000000000000000, 0.000000000000000, 0.000000000000000 ) );
#72 = DIRECTION( '', ( 0.000000000000000, 0.000000000000000, 1.00000000000000 ) );
#73 = DIRECTION( '', ( 1.00000000000000, 0.000000000000000, 0.000000000000000 ) );
#74 =  ( NAMED_UNIT( #62 )LENGTH_UNIT(  )SI_UNIT( .MILLI., .METRE. ) );
#75 = ADVANCED_FACE( '', ( #92 ), #93, .T. );
#76 = ADVANCED_FACE( '', ( #94 ), #95, .T. );
#77 = ADVANCED_FACE( '', ( #96 ), #97, .F. );
#78 = ADVANCED_FACE( '', ( #98 ), #99, .T. );
#79 = ADVANCED_FACE( '', ( #100 ), #101, .T. );
#80 = ADVANCED_FACE( '', ( #102 ), #103, .T. );
#81 = ADVANCED_FACE( '', ( #104 ), #105, .T. );
#82 = ADVANCED_FACE( '', ( #106 ), #107, .T. );
#83 = ADVANCED_FACE( '', ( #108 ), #109, .T. );
#84 = ADVANCED_FACE( '', ( #110 ), #111, .T. );
#85 = ADVANCED_FACE( '', ( #112, #113 ), #114, .T. );
#86 = ADVANCED_FACE( '', ( #115 ), #116, .F. );
#87 = ADVANCED_FACE( '', ( #117, #118 ), #119, .T. );
#88 = ADVANCED_FACE( '', ( #120 ), #121, .T. );
#89 = ADVANCED_FACE( '', ( #122 ), #123, .T. );
#90 = ADVANCED_FACE( '', ( #124 ), #125, .T. );
#92 = FACE_OUTER_BOUND( '', #126, .T. );
#93 = CONICAL_SURFACE( '', #127, 5.19615242270663, 0.261799387799150 );
#94 = FACE_OUTER_BOUND( '', #128, .T. );
#95 = CYLINDRICAL_SURFACE( '', #129, 6.00000000000000 );
#96 = FACE_OUTER_BOUND( '', #130, .T. );
#97 = TOROIDAL_SURFACE( '', #131, 3.50000000000000, 0.500000000000007 );
#98 = FACE_OUTER_BOUND( '', #132, .T. );
#99 = CONICAL_SURFACE( '', #133, 2.60000000000000, 0.785398163397446 );
#100 = FACE_OUTER_BOUND( '', #134, .T. );
#101 = CYLINDRICAL_SURFACE( '', #135, 3.00000000000000 );
#102 = FACE_OUTER_BOUND( '', #136, .T. );
#103 = CONICAL_SURFACE( '', #137, 2.78564064605510, 0.261799387799149 );
#104 = FACE_OUTER_BOUND( '', #138, .T. );
#105 = PLANE( '', #139 );
#106 = FACE_OUTER_BOUND( '', #140, .T. );
#107 = CONICAL_SURFACE( '', #141, 2.78564064605510, 0.261799387799149 );
#108 = FACE_OUTER_BOUND( '', #142, .T. );
#109 = CYLINDRICAL_SURFACE( '', #143, 3.00000000000000 );
#110 = FACE_OUTER_BOUND( '', #144, .T. );
#111 = CONICAL_SURFACE( '', #145, 2.60000000000000, 0.785398163397446 );
#112 = FACE_OUTER_BOUND( '', #146, .T. );
#113 = FACE_BOUND( '', #147, .T. );
#114 = PLANE( '', #148 );
#115 = FACE_OUTER_BOUND( '', #149, .T. );
#116 = TOROIDAL_SURFACE( '', #150, 3.50000000000000, 0.500000000000007 );
#117 = FACE_OUTER_BOUND( '', #151, .T. );
#118 = FACE_BOUND( '', #152, .T. );
#119 = PLANE( '', #153 );
#120 = FACE_OUTER_BOUND( '', #154, .T. );
#121 = CYLINDRICAL_SURFACE( '', #155, 6.00000000000000 );
#122 = FACE_OUTER_BOUND( '', #156, .T. );
#123 = CONICAL_SURFACE( '', #157, 5.19615242270663, 0.261799387799150 );
#124 = FACE_OUTER_BOUND( '', #158, .T. );
#125 = PLANE( '', #159 );
#126 = EDGE_LOOP( '', ( #160, #161, #162, #163 ) );
#127 = AXIS2_PLACEMENT_3D( '', #164, #165, #166 );
#128 = EDGE_LOOP( '', ( #167, #168, #169, #170 ) );
#129 = AXIS2_PLACEMENT_3D( '', #171, #172, #173 );
#130 = EDGE_LOOP( '', ( #174, #175, #176, #177 ) );
#131 = AXIS2_PLACEMENT_3D( '', #178, #179, #180 );
#132 = EDGE_LOOP( '', ( #181, #182, #183, #184 ) );
#133 = AXIS2_PLACEMENT_3D( '', #185, #186, #187 );
#134 = EDGE_LOOP( '', ( #188, #189, #190, #191 ) );
#135 = AXIS2_PLACEMENT_3D( '', #192, #193, #194 );
#136 = EDGE_LOOP( '', ( #195, #196, #197, #198 ) );
#137 = AXIS2_PLACEMENT_3D( '', #199, #200, #201 );
#138 = EDGE_LOOP( '', ( #202, #203 ) );
#139 = AXIS2_PLACEMENT_3D( '', #204, #205, #206 );
#140 = EDGE_LOOP( '', ( #207, #208, #209, #210 ) );
#141 = AXIS2_PLACEMENT_3D( '', #211, #212, #213 );
#142 = EDGE_LOOP( '', ( #214, #215, #216, #217 ) );
#143 = AXIS2_PLACEMENT_3D( '', #218, #219, #220 );
#144 = EDGE_LOOP( '', ( #221, #222, #223, #224 ) );
#145 = AXIS2_PLACEMENT_3D( '', #225, #226, #227 );
#146 = EDGE_LOOP( '', ( #228, #229 ) );
#147 = EDGE_LOOP( '', ( #230, #231 ) );
#148 = AXIS2_PLACEMENT_3D( '', #232, #233, #234 );
#149 = EDGE_LOOP( '', ( #235, #236, #237, #238 ) );
#150 = AXIS2_PLACEMENT_3D( '', #239, #240, #241 );
#151 = EDGE_LOOP( '', ( #242, #243 ) );
#152 = EDGE_LOOP( '', ( #244, #245 ) );
#153 = AXIS2_PLACEMENT_3D( '', #246, #247, #248 );
#154 = EDGE_LOOP( '', ( #249, #250, #251, #252 ) );
#155 = AXIS2_PLACEMENT_3D( '', #253, #254, #255 );
#156 = EDGE_LOOP( '', ( #256, #257, #258, #259 ) );
#157 = AXIS2_PLACEMENT_3D( '', #260, #261, #262 );
#158 = EDGE_LOOP( '', ( #263, #264 ) );
#159 = AXIS2_PLACEMENT_3D( '', #265, #266, #267 );
#160 = ORIENTED_EDGE( '', *, *, #268, .F. );
#161 = ORIENTED_EDGE( '', *, *, #269, .T. );
#162 = ORIENTED_EDGE( '', *, *, #270, .F. );
#163 = ORIENTED_EDGE( '', *, *, #271, .F. );
#164 = CARTESIAN_POINT( '', ( 0.000000000000000, 15.0000000000000, 0.000000000000000 ) );
#165 = DIRECTION( '', ( -0.000000000000000, -1.00000000000000, -0.000000000000000 ) );
#166 = DIRECTION( '', ( 0.000000000000000, 0.000000000000000, -1.00000000000000 ) );
#167 = ORIENTED_EDGE( '', *, *, #272, .F. );
#168 = ORIENTED_EDGE( '', *, *, #273, .T. );
#169 = ORIENTED_EDGE( '', *, *, #274, .F. );
#170 = ORIENTED_EDGE( '', *, *, #269, .F. );
#171 = CARTESIAN_POINT( '', ( 0.000000000000000, 6.00000000000000, 0.000000000000000 ) );
#172 = DIRECTION( '', ( -0.000000000000000, -1.00000000000000, -0.000000000000000 ) );
#173 = DIRECTION( '', ( 0.000000000000000, 0.000000000000000, -1.00000000000000 ) );
#174 = ORIENTED_EDGE( '', *, *, #275, .F. );
#175 = ORIENTED_EDGE( '', *, *, #276, .T. );
#176 = ORIENTED_EDGE( '', *, *, #277, .F. );
#177 = ORIENTED_EDGE( '', *, *, #278, .F. );
#178 = CARTESIAN_POINT( '', ( 0.000000000000000, 0.000000000000000, 0.000000000000000 ) );
#179 = DIRECTION( '', ( 0.000000000000000, 1.00000000000000, 0.000000000000000 ) );
#180 = DIRECTION( '', ( 0.000000000000000, 0.000000000000000, 1.00000000000000 ) );
#181 = ORIENTED_EDGE( '', *, *, #279, .F. );
#182 = ORIENTED_EDGE( '', *, *, #280, .T. );
#183 = ORIENTED_EDGE( '', *, *, #281, .F. );
#184 = ORIENTED_EDGE( '', *, *, #282, .F. );
#185 = CARTESIAN_POINT( '', ( 0.000000000000000, -0.399999999999999, 0.000000000000000 ) );
#186 = DIRECTION( '', ( -0.000000000000000, -1.00000000000000, -0.000000000000000 ) );
#187 = DIRECTION( '', ( 0.000000000000000, 0.000000000000000, -1.00000000000000 ) );
#188 = ORIENTED_EDGE( '', *, *, #283, .F. );
#189 = ORIENTED_EDGE( '', *, *, #284, .T. );
#190 = ORIENTED_EDGE( '', *, *, #285, .F. );
#191 = ORIENTED_EDGE( '', *, *, #280, .F. );
#192 = CARTESIAN_POINT( '', ( 0.000000000000000, -4.10000000000000, 0.000000000000000 ) );
#193 = DIRECTION( '', ( -0.000000000000000, -1.00000000000000, -0.000000000000000 ) );
#194 = DIRECTION( '', ( 0.000000000000000, 0.000000000000000, -1.00000000000000 ) );
#195 = ORIENTED_EDGE( '', *, *, #286, .F. );
#196 = ORIENTED_EDGE( '', *, *, #287, .T. );
#197 = ORIENTED_EDGE( '', *, *, #288, .F. );
#198 = ORIENTED_EDGE( '', *, *, #284, .F. );
#199 = CARTESIAN_POINT( '', ( 0.000000000000000, -8.20000000000000, 0.000000000000000 ) );
#200 = DIRECTION( '', ( 0.000000000000000, 1.00000000000000, 0.000000000000000 ) );
#201 = DIRECTION( '', ( 0.000000000000000, 0.000000000000000, -1.00000000000000 ) );
#202 = ORIENTED_EDGE( '', *, *, #287, .F. );
#203 = ORIENTED_EDGE( '', *, *, #289, .F. );
#204 = CARTESIAN_POINT( '', ( 0.000000000000000, -9.00000000000000, -1.28564064605510 ) );
#205 = DIRECTION( '', ( 0.000000000000000, -1.00000000000000, 0.000000000000000 ) );
#206 = DIRECTION( '', ( 0.000000000000000, 0.000000000000000, 1.00000000000000 ) );
#207 = ORIENTED_EDGE( '', *, *, #286, .T. );
#208 = ORIENTED_EDGE( '', *, *, #290, .F. );
#209 = ORIENTED_EDGE( '', *, *, #288, .T. );
#210 = ORIENTED_EDGE( '', *, *, #289, .T. );
#211 = CARTESIAN_POINT( '', ( 0.000000000000000, -8.20000000000000, 0.000000000000000 ) );
#212 = DIRECTION( '', ( 0.000000000000000, 1.00000000000000, 0.000000000000000 ) );
#213 = DIRECTION( '', ( 0.000000000000000, 0.000000000000000, -1.00000000000000 ) );
#214 = ORIENTED_EDGE( '', *, *, #283, .T. );
#215 = ORIENTED_EDGE( '', *, *, #291, .F. );
#216 = ORIENTED_EDGE( '', *, *, #285, .T. );
#217 = ORIENTED_EDGE( '', *, *, #290, .T. );
#218 = CARTESIAN_POINT( '', ( 0.000000000000000, -4.10000000000000, 0.000000000000000 ) );
#219 = DIRECTION( '', ( -0.000000000000000, -1.00000000000000, -0.000000000000000 ) );
#220 = DIRECTION( '', ( 0.000000000000000, 0.000000000000000, -1.00000000000000 ) );
#221 = ORIENTED_EDGE( '', *, *, #279, .T. );
#222 = ORIENTED_EDGE( '', *, *, #292, .F. );
#223 = ORIENTED_EDGE( '', *, *, #281, .T. );
#224 = ORIENTED_EDGE( '', *, *, #291, .T. );
#225 = CARTESIAN_POINT( '', ( 0.000000000000000, -0.399999999999999, 0.000000000000000 ) );
#226 = DIRECTION( '', ( -0.000000000000000, -1.00000000000000, -0.000000000000000 ) );
#227 = DIRECTION( '', ( 0.000000000000000, 0.000000000000000, -1.00000000000000 ) );
#228 = ORIENTED_EDGE( '', *, *, #276, .F. );
#229 = ORIENTED_EDGE( '', *, *, #293, .F. );
#230 = ORIENTED_EDGE( '', *, *, #282, .T. );
#231 = ORIENTED_EDGE( '', *, *, #292, .T. );
#232 = CARTESIAN_POINT( '', ( 0.000000000000000, 3.06151588455599E-017, -2.60000000000000 ) );
#233 = DIRECTION( '', ( -0.000000000000000, -1.00000000000000, -7.65378971139006E-017 ) );
#234 = DIRECTION( '', ( 0.000000000000000, -7.65378971139006E-017, 1.00000000000000 ) );
#235 = ORIENTED_EDGE( '', *, *, #275, .T. );
#236 = ORIENTED_EDGE( '', *, *, #294, .F. );
#237 = ORIENTED_EDGE( '', *, *, #277, .T. );
#238 = ORIENTED_EDGE( '', *, *, #293, .T. );
#239 = CARTESIAN_POINT( '', ( 0.000000000000000, 0.000000000000000, 0.000000000000000 ) );
#240 = DIRECTION( '', ( 0.000000000000000, 1.00000000000000, 0.000000000000000 ) );
#241 = DIRECTION( '', ( 0.000000000000000, 0.000000000000000, 1.00000000000000 ) );
#242 = ORIENTED_EDGE( '', *, *, #273, .F. );
#243 = ORIENTED_EDGE( '', *, *, #295, .F. );
#244 = ORIENTED_EDGE( '', *, *, #278, .T. );
#245 = ORIENTED_EDGE( '', *, *, #294, .T. );
#246 = CARTESIAN_POINT( '', ( 0.000000000000000, 0.000000000000000, -5.00000000000000 ) );
#247 = DIRECTION( '', ( 0.000000000000000, -1.00000000000000, 0.000000000000000 ) );
#248 = DIRECTION( '', ( 0.000000000000000, 0.000000000000000, 1.00000000000000 ) );
#249 = ORIENTED_EDGE( '', *, *, #272, .T. );
#250 = ORIENTED_EDGE( '', *, *, #296, .F. );
#251 = ORIENTED_EDGE( '', *, *, #274, .T. );
#252 = ORIENTED_EDGE( '', *, *, #295, .T. );
#253 = CARTESIAN_POINT( '', ( 0.000000000000000, 6.00000000000000, 0.000000000000000 ) );
#254 = DIRECTION( '', ( -0.000000000000000, -1.00000000000000, -0.000000000000000 ) );
#255 = DIRECTION( '', ( 0.000000000000000, 0.000000000000000, -1.00000000000000 ) );
#256 = ORIENTED_EDGE( '', *, *, #268, .T. );
#257 = ORIENTED_EDGE( '', *, *, #297, .F. );
#258 = ORIENTED_EDGE( '', *, *, #270, .T. );
#259 = ORIENTED_EDGE( '', *, *, #296, .T. );
#260 = CARTESIAN_POINT( '', ( 0.000000000000000, 15.0000000000000, 0.000000000000000 ) );
#261 = DIRECTION( '', ( -0.000000000000000, -1.00000000000000, -0.000000000000000 ) );
#262 = DIRECTION( '', ( 0.000000000000000, 0.000000000000000, -1.00000000000000 ) );
#263 = ORIENTED_EDGE( '', *, *, #271, .T. );
#264 = ORIENTED_EDGE( '', *, *, #297, .T. );
#265 = CARTESIAN_POINT( '', ( 0.000000000000000, 18.0000000000000, -2.19615242270663 ) );
#266 = DIRECTION( '', ( 0.000000000000000, 1.00000000000000, 0.000000000000000 ) );
#267 = DIRECTION( '', ( 0.000000000000000, 0.000000000000000, -1.00000000000000 ) );
#268 = EDGE_CURVE( '', #298, #299, #300, .T. );
#269 = EDGE_CURVE( '', #298, #301, #302, .T. );
#270 = EDGE_CURVE( '', #303, #301, #304, .T. );
#271 = EDGE_CURVE( '', #299, #303, #305, .T. );
#272 = EDGE_CURVE( '', #306, #298, #307, .T. );
#273 = EDGE_CURVE( '', #306, #308, #309, .T. );
#274 = EDGE_CURVE( '', #301, #308, #310, .T. );
#275 = EDGE_CURVE( '', #311, #312, #313, .T. );
#276 = EDGE_CURVE( '', #311, #314, #315, .T. );
#277 = EDGE_CURVE( '', #316, #314, #317, .T. );
#278 = EDGE_CURVE( '', #312, #316, #318, .T. );
#279 = EDGE_CURVE( '', #319, #320, #321, .T. );
#280 = EDGE_CURVE( '', #319, #322, #323, .T. );
#281 = EDGE_CURVE( '', #324, #322, #325, .T. );
#282 = EDGE_CURVE( '', #320, #324, #326, .T. );
#283 = EDGE_CURVE( '', #327, #319, #328, .T. );
#284 = EDGE_CURVE( '', #327, #329, #330, .T. );
#285 = EDGE_CURVE( '', #322, #329, #331, .T. );
#286 = EDGE_CURVE( '', #332, #327, #333, .T. );
#287 = EDGE_CURVE( '', #332, #334, #335, .T. );
#288 = EDGE_CURVE( '', #329, #334, #336, .T. );
#289 = EDGE_CURVE( '', #334, #332, #337, .T. );
#290 = EDGE_CURVE( '', #329, #327, #338, .T. );
#291 = EDGE_CURVE( '', #322, #319, #339, .T. );
#292 = EDGE_CURVE( '', #324, #320, #340, .T. );
#293 = EDGE_CURVE( '', #314, #311, #341, .T. );
#294 = EDGE_CURVE( '', #316, #312, #342, .T. );
#295 = EDGE_CURVE( '', #308, #306, #343, .T. );
#296 = EDGE_CURVE( '', #301, #298, #344, .T. );
#297 = EDGE_CURVE( '', #303, #299, #345, .T. );
#298 = VERTEX_POINT( '', #346 );
#299 = VERTEX_POINT( '', #347 );
#300 = LINE( '', #348, #349 );
#301 = VERTEX_POINT( '', #350 );
#302 = CIRCLE( '', #351, 6.00000000000000 );
#303 = VERTEX_POINT( '', #352 );
#304 = LINE( '', #353, #354 );
#305 = CIRCLE( '', #355, 4.39230484541326 );
#306 = VERTEX_POINT( '', #356 );
#307 = LINE( '', #357, #358 );
#308 = VERTEX_POINT( '', #359 );
#309 = CIRCLE( '', #360, 6.00000000000000 );
#310 = LINE( '', #361, #362 );
#311 = VERTEX_POINT( '', #363 );
#312 = VERTEX_POINT( '', #364 );
#313 = CIRCLE( '', #365, 0.500000000000007 );
#314 = VERTEX_POINT( '', #366 );
#315 = CIRCLE( '', #367, 2.99999999999999 );
#316 = VERTEX_POINT( '', #368 );
#317 = CIRCLE( '', #369, 0.500000000000007 );
#318 = CIRCLE( '', #370, 4.00000000000001 );
#319 = VERTEX_POINT( '', #371 );
#320 = VERTEX_POINT( '', #372 );
#321 = LINE( '', #373, #374 );
#322 = VERTEX_POINT( '', #375 );
#323 = CIRCLE( '', #376, 2.99999999999999 );
#324 = VERTEX_POINT( '', #377 );
#325 = LINE( '', #378, #379 );
#326 = CIRCLE( '', #380, 2.20000000000000 );
#327 = VERTEX_POINT( '', #381 );
#328 = LINE( '', #382, #383 );
#329 = VERTEX_POINT( '', #384 );
#330 = CIRCLE( '', #385, 3.00000000000000 );
#331 = LINE( '', #386, #387 );
#332 = VERTEX_POINT( '', #388 );
#333 = LINE( '', #389, #390 );
#334 = VERTEX_POINT( '', #391 );
#335 = CIRCLE( '', #392, 2.57128129211020 );
#336 = LINE( '', #393, #394 );
#337 = CIRCLE( '', #395, 2.57128129211020 );
#338 = CIRCLE( '', #396, 3.00000000000000 );
#339 = CIRCLE( '', #397, 2.99999999999999 );
#340 = CIRCLE( '', #398, 2.20000000000000 );
#341 = CIRCLE( '', #399, 2.99999999999999 );
#342 = CIRCLE( '', #400, 4.00000000000001 );
#343 = CIRCLE( '', #401, 6.00000000000000 );
#344 = CIRCLE( '', #402, 6.00000000000000 );
#345 = CIRCLE( '', #403, 4.39230484541326 );
#346 = CARTESIAN_POINT( '', ( 0.000000000000000, 12.0000000000000, -6.00000000000000 ) );
#347 = CARTESIAN_POINT( '', ( 0.000000000000000, 18.0000000000000, -4.39230484541326 ) );
#348 = CARTESIAN_POINT( '', ( 6.36324127227608E-016, 15.0000000000000, -5.19615242270663 ) );
#349 = VECTOR( '', #404, 1.00000000000000 );
#350 = CARTESIAN_POINT( '', ( -7.34763812293426E-016, 12.0000000000000, 6.00000000000000 ) );
#351 = AXIS2_PLACEMENT_3D( '', #405, #406, #407 );
#352 = CARTESIAN_POINT( '', ( -5.37884442161790E-016, 18.0000000000000, 4.39230484541326 ) );
#353 = CARTESIAN_POINT( '', ( -6.36324127227608E-016, 15.0000000000000, 5.19615242270663 ) );
#354 = VECTOR( '', #408, 1.00000000000000 );
#355 = AXIS2_PLACEMENT_3D( '', #409, #410, #411 );
#356 = CARTESIAN_POINT( '', ( 0.000000000000000, 0.000000000000000, -6.00000000000000 ) );
#357 = CARTESIAN_POINT( '', ( 7.34763812293426E-016, 6.00000000000000, -6.00000000000000 ) );
#358 = VECTOR( '', #412, 1.00000000000000 );
#359 = CARTESIAN_POINT( '', ( -7.34763812293426E-016, 0.000000000000000, 6.00000000000000 ) );
#360 = AXIS2_PLACEMENT_3D( '', #413, #414, #415 );
#361 = CARTESIAN_POINT( '', ( -7.34763812293426E-016, 6.00000000000000, 6.00000000000000 ) );
#362 = VECTOR( '', #416, 1.00000000000000 );
#363 = CARTESIAN_POINT( '', ( 0.000000000000000, 6.12303176911197E-017, -2.99999999999999 ) );
#364 = CARTESIAN_POINT( '', ( 0.000000000000000, 0.000000000000000, -4.00000000000001 ) );
#365 = AXIS2_PLACEMENT_3D( '', #417, #418, #419 );
#366 = CARTESIAN_POINT( '', ( -3.67381906146712E-016, 0.000000000000000, 2.99999999999999 ) );
#367 = AXIS2_PLACEMENT_3D( '', #420, #421, #422 );
#368 = CARTESIAN_POINT( '', ( -4.89842541528952E-016, 0.000000000000000, 4.00000000000001 ) );
#369 = AXIS2_PLACEMENT_3D( '', #423, #424, #425 );
#370 = AXIS2_PLACEMENT_3D( '', #426, #427, #428 );
#371 = CARTESIAN_POINT( '', ( 0.000000000000000, -0.799999999999994, -2.99999999999999 ) );
#372 = CARTESIAN_POINT( '', ( 0.000000000000000, 0.000000000000000, -2.20000000000000 ) );
#373 = CARTESIAN_POINT( '', ( 3.18397651993818E-016, -0.399999999999999, -2.60000000000000 ) );
#374 = VECTOR( '', #429, 1.00000000000000 );
#375 = CARTESIAN_POINT( '', ( -3.67381906146712E-016, -0.799999999999994, 2.99999999999999 ) );
#376 = AXIS2_PLACEMENT_3D( '', #430, #431, #432 );
#377 = CARTESIAN_POINT( '', ( -2.69413397840923E-016, 0.000000000000000, 2.20000000000000 ) );
#378 = CARTESIAN_POINT( '', ( -3.18397651993818E-016, -0.399999999999999, 2.60000000000000 ) );
#379 = VECTOR( '', #433, 1.00000000000000 );
#380 = AXIS2_PLACEMENT_3D( '', #434, #435, #436 );
#381 = CARTESIAN_POINT( '', ( 0.000000000000000, -7.40000000000000, -3.00000000000000 ) );
#382 = CARTESIAN_POINT( '', ( 3.67381906146713E-016, -4.10000000000000, -3.00000000000000 ) );
#383 = VECTOR( '', #437, 1.00000000000000 );
#384 = CARTESIAN_POINT( '', ( -3.67381906146713E-016, -7.40000000000000, 3.00000000000000 ) );
#385 = AXIS2_PLACEMENT_3D( '', #438, #439, #440 );
#386 = CARTESIAN_POINT( '', ( -3.67381906146713E-016, -4.10000000000000, 3.00000000000000 ) );
#387 = VECTOR( '', #441, 1.00000000000000 );
#388 = CARTESIAN_POINT( '', ( 0.000000000000000, -9.00000000000000, -2.57128129211020 ) );
#389 = CARTESIAN_POINT( '', ( 3.41131323462495E-016, -8.20000000000000, -2.78564064605510 ) );
#390 = VECTOR( '', #442, 1.00000000000000 );
#391 = CARTESIAN_POINT( '', ( -3.14880740778277E-016, -9.00000000000000, 2.57128129211020 ) );
#392 = AXIS2_PLACEMENT_3D( '', #443, #444, #445 );
#393 = CARTESIAN_POINT( '', ( -3.41131323462495E-016, -8.20000000000000, 2.78564064605510 ) );
#394 = VECTOR( '', #446, 1.00000000000000 );
#395 = AXIS2_PLACEMENT_3D( '', #447, #448, #449 );
#396 = AXIS2_PLACEMENT_3D( '', #450, #451, #452 );
#397 = AXIS2_PLACEMENT_3D( '', #453, #454, #455 );
#398 = AXIS2_PLACEMENT_3D( '', #456, #457, #458 );
#399 = AXIS2_PLACEMENT_3D( '', #459, #460, #461 );
#400 = AXIS2_PLACEMENT_3D( '', #462, #463, #464 );
#401 = AXIS2_PLACEMENT_3D( '', #465, #466, #467 );
#402 = AXIS2_PLACEMENT_3D( '', #468, #469, #470 );
#403 = AXIS2_PLACEMENT_3D( '', #471, #472, #473 );
#404 = DIRECTION( '', ( -3.16951447122787E-017, 0.965925826289068, 0.258819045102521 ) );
#405 = CARTESIAN_POINT( '', ( 0.000000000000000, 12.0000000000000, 0.000000000000000 ) );
#406 = DIRECTION( '', ( 0.000000000000000, 1.00000000000000, 0.000000000000000 ) );
#407 = DIRECTION( '', ( 0.000000000000000, 0.000000000000000, -1.00000000000000 ) );
#408 = DIRECTION( '', ( -3.16951447122787E-017, -0.965925826289068, 0.258819045102521 ) );
#409 = CARTESIAN_POINT( '', ( 0.000000000000000, 18.0000000000000, 0.000000000000000 ) );
#410 = DIRECTION( '', ( 0.000000000000000, 1.00000000000000, 0.000000000000000 ) );
#411 = DIRECTION( '', ( 0.000000000000000, 0.000000000000000, -1.00000000000000 ) );
#412 = DIRECTION( '', ( 0.000000000000000, 1.00000000000000, 0.000000000000000 ) );
#413 = CARTESIAN_POINT( '', ( 0.000000000000000, 0.000000000000000, 0.000000000000000 ) );
#414 = DIRECTION( '', ( 0.000000000000000, 1.00000000000000, 0.000000000000000 ) );
#415 = DIRECTION( '', ( 0.000000000000000, 0.000000000000000, -1.00000000000000 ) );
#416 = DIRECTION( '', ( -0.000000000000000, -1.00000000000000, -0.000000000000000 ) );
#417 = CARTESIAN_POINT( '', ( 4.28612223837832E-016, 0.000000000000000, -3.50000000000000 ) );
#418 = DIRECTION( '', ( -1.00000000000000, 0.000000000000000, -1.22460635382238E-016 ) );
#419 = DIRECTION( '', ( 1.22460635382238E-016, -0.000000000000000, -1.00000000000000 ) );
#420 = CARTESIAN_POINT( '', ( 0.000000000000000, 0.000000000000000, 0.000000000000000 ) );
#421 = DIRECTION( '', ( 0.000000000000000, 1.00000000000000, 0.000000000000000 ) );
#422 = DIRECTION( '', ( 0.000000000000000, 0.000000000000000, -1.00000000000000 ) );
#423 = CARTESIAN_POINT( '', ( -4.28612223837832E-016, 0.000000000000000, 3.50000000000000 ) );
#424 = DIRECTION( '', ( -1.00000000000000, 0.000000000000000, -1.22460635382238E-016 ) );
#425 = DIRECTION( '', ( -1.22460635382238E-016, 0.000000000000000, 1.00000000000000 ) );
#426 = CARTESIAN_POINT( '', ( 0.000000000000000, 0.000000000000000, 0.000000000000000 ) );
#427 = DIRECTION( '', ( 0.000000000000000, 1.00000000000000, 0.000000000000000 ) );
#428 = DIRECTION( '', ( 0.000000000000000, 0.000000000000000, -1.00000000000000 ) );
#429 = DIRECTION( '', ( -8.65927457071934E-017, 0.707106781186549, 0.707106781186546 ) );
#430 = CARTESIAN_POINT( '', ( 0.000000000000000, -0.799999999999994, 0.000000000000000 ) );
#431 = DIRECTION( '', ( 0.000000000000000, 1.00000000000000, 0.000000000000000 ) );
#432 = DIRECTION( '', ( 0.000000000000000, 0.000000000000000, -1.00000000000000 ) );
#433 = DIRECTION( '', ( -8.65927457071934E-017, -0.707106781186549, 0.707106781186546 ) );
#434 = CARTESIAN_POINT( '', ( 0.000000000000000, 0.000000000000000, 0.000000000000000 ) );
#435 = DIRECTION( '', ( 0.000000000000000, 1.00000000000000, 0.000000000000000 ) );
#436 = DIRECTION( '', ( 0.000000000000000, 0.000000000000000, -1.00000000000000 ) );
#437 = DIRECTION( '', ( 0.000000000000000, 1.00000000000000, 0.000000000000000 ) );
#438 = CARTESIAN_POINT( '', ( 0.000000000000000, -7.40000000000000, 0.000000000000000 ) );
#439 = DIRECTION( '', ( 0.000000000000000, 1.00000000000000, 0.000000000000000 ) );
#440 = DIRECTION( '', ( 0.000000000000000, 0.000000000000000, -1.00000000000000 ) );
#441 = DIRECTION( '', ( -0.000000000000000, -1.00000000000000, -0.000000000000000 ) );
#442 = DIRECTION( '', ( 3.16951447122787E-017, 0.965925826289068, -0.258819045102521 ) );
#443 = CARTESIAN_POINT( '', ( 0.000000000000000, -9.00000000000000, 0.000000000000000 ) );
#444 = DIRECTION( '', ( 0.000000000000000, 1.00000000000000, 0.000000000000000 ) );
#445 = DIRECTION( '', ( 0.000000000000000, 0.000000000000000, -1.00000000000000 ) );
#446 = DIRECTION( '', ( 3.16951447122787E-017, -0.965925826289068, -0.258819045102521 ) );
#447 = CARTESIAN_POINT( '', ( 0.000000000000000, -9.00000000000000, 0.000000000000000 ) );
#448 = DIRECTION( '', ( 0.000000000000000, 1.00000000000000, 0.000000000000000 ) );
#449 = DIRECTION( '', ( 0.000000000000000, 0.000000000000000, -1.00000000000000 ) );
#450 = CARTESIAN_POINT( '', ( 0.000000000000000, -7.40000000000000, 0.000000000000000 ) );
#451 = DIRECTION( '', ( 0.000000000000000, 1.00000000000000, 0.000000000000000 ) );
#452 = DIRECTION( '', ( 0.000000000000000, 0.000000000000000, -1.00000000000000 ) );
#453 = CARTESIAN_POINT( '', ( 0.000000000000000, -0.799999999999994, 0.000000000000000 ) );
#454 = DIRECTION( '', ( 0.000000000000000, 1.00000000000000, 0.000000000000000 ) );
#455 = DIRECTION( '', ( 0.000000000000000, 0.000000000000000, -1.00000000000000 ) );
#456 = CARTESIAN_POINT( '', ( 0.000000000000000, 0.000000000000000, 0.000000000000000 ) );
#457 = DIRECTION( '', ( 0.000000000000000, 1.00000000000000, 0.000000000000000 ) );
#458 = DIRECTION( '', ( 0.000000000000000, 0.000000000000000, -1.00000000000000 ) );
#459 = CARTESIAN_POINT( '', ( 0.000000000000000, 0.000000000000000, 0.000000000000000 ) );
#460 = DIRECTION( '', ( 0.000000000000000, 1.00000000000000, 0.000000000000000 ) );
#461 = DIRECTION( '', ( 0.000000000000000, 0.000000000000000, -1.00000000000000 ) );
#462 = CARTESIAN_POINT( '', ( 0.000000000000000, 0.000000000000000, 0.000000000000000 ) );
#463 = DIRECTION( '', ( 0.000000000000000, 1.00000000000000, 0.000000000000000 ) );
#464 = DIRECTION( '', ( 0.000000000000000, 0.000000000000000, -1.00000000000000 ) );
#465 = CARTESIAN_POINT( '', ( 0.000000000000000, 0.000000000000000, 0.000000000000000 ) );
#466 = DIRECTION( '', ( 0.000000000000000, 1.00000000000000, 0.000000000000000 ) );
#467 = DIRECTION( '', ( 0.000000000000000, 0.000000000000000, -1.00000000000000 ) );
#468 = CARTESIAN_POINT( '', ( 0.000000000000000, 12.0000000000000, 0.000000000000000 ) );
#469 = DIRECTION( '', ( 0.000000000000000, 1.00000000000000, 0.000000000000000 ) );
#470 = DIRECTION( '', ( 0.000000000000000, 0.000000000000000, -1.00000000000000 ) );
#471 = CARTESIAN_POINT( '', ( 0.000000000000000, 18.0000000000000, 0.000000000000000 ) );
#472 = DIRECTION( '', ( 0.000000000000000, 1.00000000000000, 0.000000000000000 ) );
#473 = DIRECTION( '', ( 0.000000000000000, 0.000000000000000, -1.00000000000000 ) );
ENDSEC;
END-ISO-10303-21;
