ISO-10303-21;
HEADER;
FILE_DESCRIPTION( ( '' ), '1' );
FILE_NAME( 'C:/Users/Bollwitte/Desktop/987/K0104.45.stp', '2012-10-30T11:21:13', ( '' ), ( '' ), ' ', ' ', ' ' );
FILE_SCHEMA( ( 'CONFIG_CONTROL_DESIGN' ) );
ENDSEC;
DATA;
#1 = DESIGN_CONTEXT( '', #27, 'design' );
#2 = APPLICATION_PROTOCOL_DEFINITION( 'INTERNATIONAL STANDARD', 'config_control_design', 1994, #27 );
#3 = PRODUCT_CATEGORY_RELATIONSHIP( 'NONE', 'NONE', #28, #29 );
#4 = DATE_AND_TIME( #30, #31 );
#5 = DATE_TIME_ROLE( 'creation_date' );
#6 = DATE_TIME_ROLE( 'classification_date' );
#7 = PERSON_AND_ORGANIZATION_ROLE( 'creator' );
#8 = PERSON_AND_ORGANIZATION_ROLE( 'design_supplier' );
#9 = PERSON_AND_ORGANIZATION_ROLE( 'classification_officer' );
#10 = PERSON_AND_ORGANIZATION_ROLE( 'design_owner' );
#11 = APPROVAL_PERSON_ORGANIZATION( #32, #33, #34 );
#12 = APPROVAL_DATE_TIME( #4, #33 );
#13 = CC_DESIGN_APPROVAL( #33, ( #35, #36, #37 ) );
#14 = CC_DESIGN_DATE_AND_TIME_ASSIGNMENT( #4, #5, ( #37 ) );
#15 = CC_DESIGN_DATE_AND_TIME_ASSIGNMENT( #4, #6, ( #35 ) );
#16 = CC_DESIGN_PERSON_AND_ORGANIZATION_ASSIGNMENT( #32, #10, ( #38 ) );
#17 = CC_DESIGN_PERSON_AND_ORGANIZATION_ASSIGNMENT( #32, #7, ( #37 ) );
#18 = CC_DESIGN_PERSON_AND_ORGANIZATION_ASSIGNMENT( #32, #7, ( #36 ) );
#19 = CC_DESIGN_PERSON_AND_ORGANIZATION_ASSIGNMENT( #32, #8, ( #36 ) );
#20 = CC_DESIGN_SECURITY_CLASSIFICATION( #35, ( #36 ) );
#21 = CC_DESIGN_PERSON_AND_ORGANIZATION_ASSIGNMENT( #32, #9, ( #35 ) );
#22 = SHAPE_DEFINITION_REPRESENTATION( #39, #40 );
#23 =  ( GEOMETRIC_REPRESENTATION_CONTEXT( 3 )GLOBAL_UNCERTAINTY_ASSIGNED_CONTEXT( ( #43 ) )GLOBAL_UNIT_ASSIGNED_CONTEXT( ( #45, #46, #47 ) )REPRESENTATION_CONTEXT( 'NONE', 'WORKSPACE' ) );
#27 = APPLICATION_CONTEXT( 'CONFIGURATION CONTROLLED 3D DESIGNS OF MECHANICAL PARTS AND ASSEMBLIES' );
#28 = PRODUCT_CATEGORY( 'part', 'NONE' );
#29 = PRODUCT_RELATED_PRODUCT_CATEGORY( 'detail', ' ', ( #38 ) );
#30 = CALENDAR_DATE( 2012, 30, 9 );
#31 = LOCAL_TIME( 12, 21, 13.0000000000000, #49 );
#32 = PERSON_AND_ORGANIZATION( #50, #51 );
#33 = APPROVAL( #52, 'SOLID MODEL' );
#34 = APPROVAL_ROLE( 'APPROVED' );
#35 = SECURITY_CLASSIFICATION( '', '', #53 );
#36 = PRODUCT_DEFINITION_FORMATION_WITH_SPECIFIED_SOURCE( ' ', 'NONE', #38, .NOT_KNOWN. );
#37 = PRODUCT_DEFINITION( 'NONE', 'NONE', #36, #1 );
#38 = PRODUCT( '1', '1', 'PART-1-DESC', ( #54 ) );
#39 = PRODUCT_DEFINITION_SHAPE( 'NONE', 'NONE', #37 );
#40 = ADVANCED_BREP_SHAPE_REPRESENTATION( '1', ( #55, #56 ), #23 );
#43 = UNCERTAINTY_MEASURE_WITH_UNIT( LENGTH_MEASURE( 1.00000000000000E-006 ), #45, '', '' );
#45 =  ( CONVERSION_BASED_UNIT( 'MILLIMETRE', #59 )LENGTH_UNIT(  )NAMED_UNIT( #62 ) );
#46 =  ( NAMED_UNIT( #64 )PLANE_ANGLE_UNIT(  )SI_UNIT( $, .RADIAN. ) );
#47 =  ( NAMED_UNIT( #64 )SOLID_ANGLE_UNIT(  )SI_UNIT( $, .STERADIAN. ) );
#49 = COORDINATED_UNIVERSAL_TIME_OFFSET( 1, 0, .AHEAD. );
#50 = PERSON( '', 'UNSPECIFIED', $, $, $, $ );
#51 = ORGANIZATION( 'UNSPECIFIED', 'UNSPECIFIED', 'UNSPECIFIED' );
#52 = APPROVAL_STATUS( 'approved' );
#53 = SECURITY_CLASSIFICATION_LEVEL( 'unclassified' );
#54 = MECHANICAL_CONTEXT( '', #27, 'mechanical' );
#55 = MANIFOLD_SOLID_BREP( '1', #70 );
#56 = AXIS2_PLACEMENT_3D( '', #71, #72, #73 );
#59 = LENGTH_MEASURE_WITH_UNIT( LENGTH_MEASURE( 1.00000000000000 ), #74 );
#62 = DIMENSIONAL_EXPONENTS( 1.00000000000000, 0.000000000000000, 0.000000000000000, 0.000000000000000, 0.000000000000000, 0.000000000000000, 0.000000000000000 );
#64 = DIMENSIONAL_EXPONENTS( 0.000000000000000, 0.000000000000000, 0.000000000000000, 0.000000000000000, 0.000000000000000, 0.000000000000000, 0.000000000000000 );
#70 = CLOSED_SHELL( '', ( #75, #76, #77, #78, #79, #80, #81, #82, #83 ) );
#71 = CARTESIAN_POINT( '', ( 0.000000000000000, 0.000000000000000, 0.000000000000000 ) );
#72 = DIRECTION( '', ( 0.000000000000000, 0.000000000000000, 1.00000000000000 ) );
#73 = DIRECTION( '', ( 1.00000000000000, 0.000000000000000, 0.000000000000000 ) );
#74 =  ( NAMED_UNIT( #62 )LENGTH_UNIT(  )SI_UNIT( .MILLI., .METRE. ) );
#75 = ADVANCED_FACE( '', ( #85 ), #86, .T. );
#76 = ADVANCED_FACE( '', ( #87 ), #88, .F. );
#77 = ADVANCED_FACE( '', ( #89 ), #90, .F. );
#78 = ADVANCED_FACE( '', ( #91 ), #92, .F. );
#79 = ADVANCED_FACE( '', ( #93 ), #94, .F. );
#80 = ADVANCED_FACE( '', ( #95 ), #96, .F. );
#81 = ADVANCED_FACE( '', ( #97 ), #98, .T. );
#82 = ADVANCED_FACE( '', ( #99 ), #100, .T. );
#83 = ADVANCED_FACE( '', ( #101, #102 ), #103, .T. );
#85 = FACE_OUTER_BOUND( '', #104, .T. );
#86 = CONICAL_SURFACE( '', #105, 5.50000000000000, 0.124354994546761 );
#87 = FACE_OUTER_BOUND( '', #106, .T. );
#88 = CONICAL_SURFACE( '', #107, 2.55000000000000, 0.785398163397448 );
#89 = FACE_OUTER_BOUND( '', #108, .T. );
#90 = CYLINDRICAL_SURFACE( '', #109, 2.25000000000000 );
#91 = FACE_OUTER_BOUND( '', #110, .T. );
#92 = PLANE( '', #111 );
#93 = FACE_OUTER_BOUND( '', #112, .T. );
#94 = CYLINDRICAL_SURFACE( '', #113, 2.25000000000000 );
#95 = FACE_OUTER_BOUND( '', #114, .T. );
#96 = CONICAL_SURFACE( '', #115, 2.55000000000000, 0.785398163397448 );
#97 = FACE_OUTER_BOUND( '', #116, .T. );
#98 = SPHERICAL_SURFACE( '', #117, 10.0000000000000 );
#99 = FACE_OUTER_BOUND( '', #118, .T. );
#100 = CONICAL_SURFACE( '', #119, 5.50000000000000, 0.124354994546761 );
#101 = FACE_BOUND( '', #120, .T. );
#102 = FACE_OUTER_BOUND( '', #121, .T. );
#103 = PLANE( '', #122 );
#104 = EDGE_LOOP( '', ( #123, #124, #125, #126 ) );
#105 = AXIS2_PLACEMENT_3D( '', #127, #128, #129 );
#106 = EDGE_LOOP( '', ( #130, #131, #132, #133 ) );
#107 = AXIS2_PLACEMENT_3D( '', #134, #135, #136 );
#108 = EDGE_LOOP( '', ( #137, #138, #139, #140 ) );
#109 = AXIS2_PLACEMENT_3D( '', #141, #142, #143 );
#110 = EDGE_LOOP( '', ( #144, #145 ) );
#111 = AXIS2_PLACEMENT_3D( '', #146, #147, #148 );
#112 = EDGE_LOOP( '', ( #149, #150, #151, #152 ) );
#113 = AXIS2_PLACEMENT_3D( '', #153, #154, #155 );
#114 = EDGE_LOOP( '', ( #156, #157, #158, #159 ) );
#115 = AXIS2_PLACEMENT_3D( '', #160, #161, #162 );
#116 = EDGE_LOOP( '', ( #163, #164 ) );
#117 = AXIS2_PLACEMENT_3D( '', #165, #166, #167 );
#118 = EDGE_LOOP( '', ( #168, #169, #170, #171 ) );
#119 = AXIS2_PLACEMENT_3D( '', #172, #173, #174 );
#120 = EDGE_LOOP( '', ( #175, #176 ) );
#121 = EDGE_LOOP( '', ( #177, #178 ) );
#122 = AXIS2_PLACEMENT_3D( '', #179, #180, #181 );
#123 = ORIENTED_EDGE( '', *, *, #182, .F. );
#124 = ORIENTED_EDGE( '', *, *, #183, .T. );
#125 = ORIENTED_EDGE( '', *, *, #184, .F. );
#126 = ORIENTED_EDGE( '', *, *, #185, .F. );
#127 = CARTESIAN_POINT( '', ( 0.000000000000000, 6.00000000000000, 0.000000000000000 ) );
#128 = DIRECTION( '', ( -0.000000000000000, -1.00000000000000, -0.000000000000000 ) );
#129 = DIRECTION( '', ( 1.00000000000000, 0.000000000000000, -2.44921270764475E-016 ) );
#130 = ORIENTED_EDGE( '', *, *, #186, .F. );
#131 = ORIENTED_EDGE( '', *, *, #187, .F. );
#132 = ORIENTED_EDGE( '', *, *, #188, .F. );
#133 = ORIENTED_EDGE( '', *, *, #189, .F. );
#134 = CARTESIAN_POINT( '', ( 0.000000000000000, 9.70000000000000, 0.000000000000000 ) );
#135 = DIRECTION( '', ( -0.000000000000000, 1.00000000000000, 0.000000000000000 ) );
#136 = DIRECTION( '', ( 1.00000000000000, 0.000000000000000, -2.44921270764475E-016 ) );
#137 = ORIENTED_EDGE( '', *, *, #190, .F. );
#138 = ORIENTED_EDGE( '', *, *, #189, .T. );
#139 = ORIENTED_EDGE( '', *, *, #191, .F. );
#140 = ORIENTED_EDGE( '', *, *, #192, .F. );
#141 = CARTESIAN_POINT( '', ( 0.000000000000000, 6.20000000000000, 0.000000000000000 ) );
#142 = DIRECTION( '', ( -0.000000000000000, -1.00000000000000, -0.000000000000000 ) );
#143 = DIRECTION( '', ( 1.00000000000000, 0.000000000000000, -2.44921270764475E-016 ) );
#144 = ORIENTED_EDGE( '', *, *, #192, .T. );
#145 = ORIENTED_EDGE( '', *, *, #193, .T. );
#146 = CARTESIAN_POINT( '', ( 1.12500000000000, 3.00000000000000, -2.75536429610035E-016 ) );
#147 = DIRECTION( '', ( -0.000000000000000, -1.00000000000000, 0.000000000000000 ) );
#148 = DIRECTION( '', ( -1.00000000000000, 0.000000000000000, 2.44921270764475E-016 ) );
#149 = ORIENTED_EDGE( '', *, *, #190, .T. );
#150 = ORIENTED_EDGE( '', *, *, #193, .F. );
#151 = ORIENTED_EDGE( '', *, *, #191, .T. );
#152 = ORIENTED_EDGE( '', *, *, #194, .T. );
#153 = CARTESIAN_POINT( '', ( 0.000000000000000, 6.20000000000000, 0.000000000000000 ) );
#154 = DIRECTION( '', ( -0.000000000000000, -1.00000000000000, -0.000000000000000 ) );
#155 = DIRECTION( '', ( 1.00000000000000, 0.000000000000000, -2.44921270764475E-016 ) );
#156 = ORIENTED_EDGE( '', *, *, #186, .T. );
#157 = ORIENTED_EDGE( '', *, *, #194, .F. );
#158 = ORIENTED_EDGE( '', *, *, #188, .T. );
#159 = ORIENTED_EDGE( '', *, *, #195, .F. );
#160 = CARTESIAN_POINT( '', ( 0.000000000000000, 9.70000000000000, 0.000000000000000 ) );
#161 = DIRECTION( '', ( -0.000000000000000, 1.00000000000000, 0.000000000000000 ) );
#162 = DIRECTION( '', ( 1.00000000000000, 0.000000000000000, -2.44921270764475E-016 ) );
#163 = ORIENTED_EDGE( '', *, *, #183, .F. );
#164 = ORIENTED_EDGE( '', *, *, #196, .F. );
#165 = CARTESIAN_POINT( '', ( 0.000000000000000, 10.0000000000000, 0.000000000000000 ) );
#166 = DIRECTION( '', ( 0.000000000000000, 0.000000000000000, 1.00000000000000 ) );
#167 = DIRECTION( '', ( 1.00000000000000, 0.000000000000000, 0.000000000000000 ) );
#168 = ORIENTED_EDGE( '', *, *, #182, .T. );
#169 = ORIENTED_EDGE( '', *, *, #197, .F. );
#170 = ORIENTED_EDGE( '', *, *, #184, .T. );
#171 = ORIENTED_EDGE( '', *, *, #196, .T. );
#172 = CARTESIAN_POINT( '', ( 0.000000000000000, 6.00000000000000, 0.000000000000000 ) );
#173 = DIRECTION( '', ( -0.000000000000000, -1.00000000000000, -0.000000000000000 ) );
#174 = DIRECTION( '', ( 1.00000000000000, 0.000000000000000, -2.44921270764475E-016 ) );
#175 = ORIENTED_EDGE( '', *, *, #195, .T. );
#176 = ORIENTED_EDGE( '', *, *, #187, .T. );
#177 = ORIENTED_EDGE( '', *, *, #185, .T. );
#178 = ORIENTED_EDGE( '', *, *, #197, .T. );
#179 = CARTESIAN_POINT( '', ( 2.50000000000000, 10.0000000000000, -6.12303176911189E-016 ) );
#180 = DIRECTION( '', ( 0.000000000000000, 1.00000000000000, 0.000000000000000 ) );
#181 = DIRECTION( '', ( 1.00000000000000, 0.000000000000000, -2.44921270764475E-016 ) );
#182 = EDGE_CURVE( '', #198, #199, #200, .T. );
#183 = EDGE_CURVE( '', #198, #201, #202, .T. );
#184 = EDGE_CURVE( '', #203, #201, #204, .T. );
#185 = EDGE_CURVE( '', #199, #203, #205, .T. );
#186 = EDGE_CURVE( '', #206, #207, #208, .T. );
#187 = EDGE_CURVE( '', #209, #206, #210, .T. );
#188 = EDGE_CURVE( '', #211, #209, #212, .T. );
#189 = EDGE_CURVE( '', #207, #211, #213, .T. );
#190 = EDGE_CURVE( '', #207, #214, #215, .T. );
#191 = EDGE_CURVE( '', #216, #211, #217, .T. );
#192 = EDGE_CURVE( '', #214, #216, #218, .T. );
#193 = EDGE_CURVE( '', #216, #214, #219, .T. );
#194 = EDGE_CURVE( '', #211, #207, #220, .T. );
#195 = EDGE_CURVE( '', #206, #209, #221, .T. );
#196 = EDGE_CURVE( '', #201, #198, #222, .T. );
#197 = EDGE_CURVE( '', #203, #199, #223, .T. );
#198 = VERTEX_POINT( '', #224 );
#199 = VERTEX_POINT( '', #225 );
#200 = LINE( '', #226, #227 );
#201 = VERTEX_POINT( '', #228 );
#202 = CIRCLE( '', #229, 6.00000000000000 );
#203 = VERTEX_POINT( '', #230 );
#204 = LINE( '', #231, #232 );
#205 = CIRCLE( '', #233, 5.00000000000000 );
#206 = VERTEX_POINT( '', #234 );
#207 = VERTEX_POINT( '', #235 );
#208 = LINE( '', #236, #237 );
#209 = VERTEX_POINT( '', #238 );
#210 = CIRCLE( '', #239, 2.85000000000000 );
#211 = VERTEX_POINT( '', #240 );
#212 = LINE( '', #241, #242 );
#213 = CIRCLE( '', #243, 2.25000000000000 );
#214 = VERTEX_POINT( '', #244 );
#215 = LINE( '', #245, #246 );
#216 = VERTEX_POINT( '', #247 );
#217 = LINE( '', #248, #249 );
#218 = CIRCLE( '', #250, 2.25000000000000 );
#219 = CIRCLE( '', #251, 2.25000000000000 );
#220 = CIRCLE( '', #252, 2.25000000000000 );
#221 = CIRCLE( '', #253, 2.85000000000000 );
#222 = CIRCLE( '', #254, 6.00000000000000 );
#223 = CIRCLE( '', #255, 5.00000000000000 );
#224 = CARTESIAN_POINT( '', ( 6.00000000000000, 2.00000000000000, -1.46952762458685E-015 ) );
#225 = CARTESIAN_POINT( '', ( 5.00000000000000, 10.0000000000000, -1.22460635382238E-015 ) );
#226 = CARTESIAN_POINT( '', ( 5.50000000000000, 6.00000000000000, -6.73533494602307E-016 ) );
#227 = VECTOR( '', #256, 1.00000000000000 );
#228 = CARTESIAN_POINT( '', ( -6.00000000000000, 2.00000000000000, 7.34763812293426E-016 ) );
#229 = AXIS2_PLACEMENT_3D( '', #257, #258, #259 );
#230 = CARTESIAN_POINT( '', ( -5.00000000000000, 10.0000000000000, 6.12303176911189E-016 ) );
#231 = CARTESIAN_POINT( '', ( -5.50000000000000, 6.00000000000000, 6.73533494602307E-016 ) );
#232 = VECTOR( '', #260, 1.00000000000000 );
#233 = AXIS2_PLACEMENT_3D( '', #261, #262, #263 );
#234 = CARTESIAN_POINT( '', ( 2.85000000000000, 10.0000000000000, -6.98025621678755E-016 ) );
#235 = CARTESIAN_POINT( '', ( 2.25000000000000, 9.40000000000000, -5.51072859220070E-016 ) );
#236 = CARTESIAN_POINT( '', ( 2.55000000000000, 9.70000000000000, -3.12274620224706E-016 ) );
#237 = VECTOR( '', #264, 1.00000000000000 );
#238 = CARTESIAN_POINT( '', ( -2.85000000000000, 10.0000000000000, 3.49012810839378E-016 ) );
#239 = AXIS2_PLACEMENT_3D( '', #265, #266, #267 );
#240 = CARTESIAN_POINT( '', ( -2.25000000000000, 9.40000000000000, 2.75536429610035E-016 ) );
#241 = CARTESIAN_POINT( '', ( -2.55000000000000, 9.70000000000000, 3.12274620224706E-016 ) );
#242 = VECTOR( '', #268, 1.00000000000000 );
#243 = AXIS2_PLACEMENT_3D( '', #269, #270, #271 );
#244 = CARTESIAN_POINT( '', ( 2.25000000000000, 3.00000000000000, -5.51072859220070E-016 ) );
#245 = CARTESIAN_POINT( '', ( 2.25000000000000, 6.20000000000000, -2.75536429610035E-016 ) );
#246 = VECTOR( '', #272, 1.00000000000000 );
#247 = CARTESIAN_POINT( '', ( -2.25000000000000, 3.00000000000000, 2.75536429610035E-016 ) );
#248 = CARTESIAN_POINT( '', ( -2.25000000000000, 6.20000000000000, 2.75536429610035E-016 ) );
#249 = VECTOR( '', #273, 1.00000000000000 );
#250 = AXIS2_PLACEMENT_3D( '', #274, #275, #276 );
#251 = AXIS2_PLACEMENT_3D( '', #277, #278, #279 );
#252 = AXIS2_PLACEMENT_3D( '', #280, #281, #282 );
#253 = AXIS2_PLACEMENT_3D( '', #283, #284, #285 );
#254 = AXIS2_PLACEMENT_3D( '', #286, #287, #288 );
#255 = AXIS2_PLACEMENT_3D( '', #289, #290, #291 );
#256 = DIRECTION( '', ( -0.124034734589208, 0.992277876713668, 1.51893724072617E-017 ) );
#257 = CARTESIAN_POINT( '', ( 0.000000000000000, 2.00000000000000, 0.000000000000000 ) );
#258 = DIRECTION( '', ( 0.000000000000000, 1.00000000000000, 0.000000000000000 ) );
#259 = DIRECTION( '', ( 1.00000000000000, 0.000000000000000, -2.44921270764475E-016 ) );
#260 = DIRECTION( '', ( -0.124034734589208, -0.992277876713668, 1.51893724072617E-017 ) );
#261 = CARTESIAN_POINT( '', ( 0.000000000000000, 10.0000000000000, 0.000000000000000 ) );
#262 = DIRECTION( '', ( 0.000000000000000, 1.00000000000000, 0.000000000000000 ) );
#263 = DIRECTION( '', ( 1.00000000000000, 0.000000000000000, -2.44921270764475E-016 ) );
#264 = DIRECTION( '', ( -0.707106781186547, -0.707106781186548, 8.65927457071935E-017 ) );
#265 = CARTESIAN_POINT( '', ( 0.000000000000000, 10.0000000000000, 0.000000000000000 ) );
#266 = DIRECTION( '', ( 0.000000000000000, -1.00000000000000, -0.000000000000000 ) );
#267 = DIRECTION( '', ( 1.00000000000000, 0.000000000000000, -2.44921270764475E-016 ) );
#268 = DIRECTION( '', ( -0.707106781186547, 0.707106781186548, 8.65927457071935E-017 ) );
#269 = CARTESIAN_POINT( '', ( 0.000000000000000, 9.40000000000000, 0.000000000000000 ) );
#270 = DIRECTION( '', ( 0.000000000000000, 1.00000000000000, 0.000000000000000 ) );
#271 = DIRECTION( '', ( 1.00000000000000, 0.000000000000000, -2.44921270764475E-016 ) );
#272 = DIRECTION( '', ( -0.000000000000000, -1.00000000000000, 0.000000000000000 ) );
#273 = DIRECTION( '', ( -0.000000000000000, 1.00000000000000, 0.000000000000000 ) );
#274 = CARTESIAN_POINT( '', ( 0.000000000000000, 3.00000000000000, 0.000000000000000 ) );
#275 = DIRECTION( '', ( 0.000000000000000, 1.00000000000000, 0.000000000000000 ) );
#276 = DIRECTION( '', ( 1.00000000000000, 0.000000000000000, -2.44921270764475E-016 ) );
#277 = CARTESIAN_POINT( '', ( 0.000000000000000, 3.00000000000000, 0.000000000000000 ) );
#278 = DIRECTION( '', ( 0.000000000000000, 1.00000000000000, 0.000000000000000 ) );
#279 = DIRECTION( '', ( 1.00000000000000, 0.000000000000000, -2.44921270764475E-016 ) );
#280 = CARTESIAN_POINT( '', ( 0.000000000000000, 9.40000000000000, 0.000000000000000 ) );
#281 = DIRECTION( '', ( 0.000000000000000, 1.00000000000000, 0.000000000000000 ) );
#282 = DIRECTION( '', ( 1.00000000000000, 0.000000000000000, -2.44921270764475E-016 ) );
#283 = CARTESIAN_POINT( '', ( 0.000000000000000, 10.0000000000000, 0.000000000000000 ) );
#284 = DIRECTION( '', ( 0.000000000000000, -1.00000000000000, -0.000000000000000 ) );
#285 = DIRECTION( '', ( 1.00000000000000, 0.000000000000000, -2.44921270764475E-016 ) );
#286 = CARTESIAN_POINT( '', ( 0.000000000000000, 2.00000000000000, 0.000000000000000 ) );
#287 = DIRECTION( '', ( 0.000000000000000, 1.00000000000000, 0.000000000000000 ) );
#288 = DIRECTION( '', ( 1.00000000000000, 0.000000000000000, -2.44921270764475E-016 ) );
#289 = CARTESIAN_POINT( '', ( 0.000000000000000, 10.0000000000000, 0.000000000000000 ) );
#290 = DIRECTION( '', ( 0.000000000000000, 1.00000000000000, 0.000000000000000 ) );
#291 = DIRECTION( '', ( 1.00000000000000, 0.000000000000000, -2.44921270764475E-016 ) );
ENDSEC;
END-ISO-10303-21;
