ISO-10303-21;
HEADER;
FILE_DESCRIPTION (( 'STEP AP203' ),
    '1' );
FILE_NAME ('WDS-402-219.step',
    '2012-04-05T12:53:12',
    ( 'sysAdmin' ),
    ( 'SolidWorks' ),
    'SwSTEP 2.0',
    'SolidWorks 2012',
    '' );
FILE_SCHEMA (( 'CONFIG_CONTROL_DESIGN' ));
ENDSEC;

DATA;
#1 = CC_DESIGN_APPROVAL ( #13, ( #8 ) ) ;
#2 = CC_DESIGN_SECURITY_CLASSIFICATION ( #8, ( #348 ) ) ;
#3 = COORDINATED_UNIVERSAL_TIME_OFFSET ( 5, 0, .BEHIND. ) ;
#4 = CALENDAR_DATE ( 2012, 5, 4 ) ;
#5 = COORDINATED_UNIVERSAL_TIME_OFFSET ( 5, 0, .BEHIND. ) ;
#6 = CALENDAR_DATE ( 2012, 5, 4 ) ;
#7 = APPROVAL_PERSON_ORGANIZATION ( #175, #13, #170 ) ;
#8 = SECURITY_CLASSIFICATION ( '', '', #181 ) ;
#9 = CC_DESIGN_APPROVAL ( #71, ( #348 ) ) ;
#10 = CALENDAR_DATE ( 2012, 5, 4 ) ;
#11 = PRODUCT_RELATED_PRODUCT_CATEGORY ( 'detail', '', ( #77 ) ) ;
#12 = LOCAL_TIME ( 8, 53, 12.00000000000000000, #3 ) ;
#13 = APPROVAL ( #169, 'UNSPECIFIED' ) ;
#14 = CC_DESIGN_DATE_AND_TIME_ASSIGNMENT ( #173, #178, ( #8 ) ) ;
#15 = CIRCLE ( 'NONE', #375, 27.00000000000000000 ) ;
#16 = CONICAL_SURFACE ( 'NONE', #372, 26.50000000000000000, 0.7853981633974447300 ) ;
#17 = CIRCLE ( 'NONE', #351, 26.49999999999999600 ) ;
#18 = ADVANCED_FACE ( 'NONE', ( #379 ), #214, .T. ) ;
#19 = EDGE_CURVE ( 'NONE', #193, #112, #208, .T. ) ;
#20 = EDGE_CURVE ( 'NONE', #218, #112, #30, .T. ) ;
#21 = CIRCLE ( 'NONE', #331, 26.49999999999999600 ) ;
#22 = CONICAL_SURFACE ( 'NONE', #363, 27.00000000000000000, 0.7853981633974466100 ) ;
#23 = CC_DESIGN_PERSON_AND_ORGANIZATION_ASSIGNMENT ( #86, #87, ( #72 ) ) ;
#24 = LOCAL_TIME ( 8, 53, 12.00000000000000000, #349 ) ;
#25 = CC_DESIGN_PERSON_AND_ORGANIZATION_ASSIGNMENT ( #206, #204, ( #77 ) ) ;
#26 = EDGE_CURVE ( 'NONE', #222, #215, #44, .T. ) ;
#27 = EDGE_CURVE ( 'NONE', #133, #218, #265, .T. ) ;
#28 = EDGE_CURVE ( 'NONE', #288, #209, #259, .T. ) ;
#29 = EDGE_CURVE ( 'NONE', #203, #96, #31, .T. ) ;
#30 = CIRCLE ( 'NONE', #366, 8.500000000000001800 ) ;
#31 = CIRCLE ( 'NONE', #361, 27.00000000000000000 ) ;
#32 = CONICAL_SURFACE ( 'NONE', #373, 26.50000000000000000, 0.7853981633974447300 ) ;
#33 = EDGE_CURVE ( 'NONE', #210, #218, #253, .T. ) ;
#34 = ADVANCED_FACE ( 'NONE', ( #356 ), #32, .T. ) ;
#35 = CIRCLE ( 'NONE', #336, 26.50000000000000000 ) ;
#36 = ADVANCED_FACE ( 'NONE', ( #367 ), #374, .T. ) ;
#37 = EDGE_CURVE ( 'NONE', #203, #207, #414, .T. ) ;
#38 = EDGE_CURVE ( 'NONE', #209, #215, #413, .T. ) ;
#39 = EDGE_CURVE ( 'NONE', #139, #96, #273, .T. ) ;
#40 = ADVANCED_FACE ( 'NONE', ( #362 ), #369, .F. ) ;
#41 = ADVANCED_FACE ( 'NONE', ( #371 ), #166, .F. ) ;
#42 = ADVANCED_FACE ( 'NONE', ( #354 ), #16, .T. ) ;
#43 = EDGE_CURVE ( 'NONE', #222, #106, #409, .T. ) ;
#44 = CIRCLE ( 'NONE', #353, 27.00000000000000000 ) ;
#45 = EDGE_CURVE ( 'NONE', #193, #288, #148, .T. ) ;
#46 = EDGE_CURVE ( 'NONE', #132, #139, #17, .T. ) ;
#47 = EDGE_CURVE ( 'NONE', #96, #213, #15, .T. ) ;
#48 = ADVANCED_FACE ( 'NONE', ( #380 ), #294, .T. ) ;
#49 = ADVANCED_FACE ( 'NONE', ( #378 ), #22, .T. ) ;
#50 = ADVANCED_FACE ( 'NONE', ( #352 ), #306, .F. ) ;
#51 = ADVANCED_FACE ( 'NONE', ( #337 ), #304, .F. ) ;
#52 = ADVANCED_FACE ( 'NONE', ( #332 ), #298, .F. ) ;
#53 = EDGE_CURVE ( 'NONE', #132, #213, #412, .T. ) ;
#54 = EDGE_CURVE ( 'NONE', #216, #288, #197, .T. ) ;
#55 = EDGE_CURVE ( 'NONE', #210, #132, #196, .T. ) ;
#56 = EDGE_CURVE ( 'NONE', #139, #207, #21, .T. ) ;
#57 = EDGE_CURVE ( 'NONE', #106, #151, #248, .T. ) ;
#58 = EDGE_CURVE ( 'NONE', #151, #133, #189, .T. ) ;
#59 = EDGE_CURVE ( 'NONE', #207, #216, #236, .T. ) ;
#60 = EDGE_CURVE ( 'NONE', #213, #222, #277, .T. ) ;
#61 = EDGE_CURVE ( 'NONE', #133, #193, #74, .T. ) ;
#62 = EDGE_CURVE ( 'NONE', #112, #216, #235, .T. ) ;
#63 = EDGE_CURVE ( 'NONE', #215, #203, #101, .T. ) ;
#64 = CC_DESIGN_DATE_AND_TIME_ASSIGNMENT ( #85, #90, ( #72 ) ) ;
#65 = LOCAL_TIME ( 8, 53, 12.00000000000000000, #327 ) ;
#66 = LOCAL_TIME ( 8, 53, 12.00000000000000000, #5 ) ;
#67 = CC_DESIGN_PERSON_AND_ORGANIZATION_ASSIGNMENT ( #174, #176, ( #8 ) ) ;
#68 = CC_DESIGN_PERSON_AND_ORGANIZATION_ASSIGNMENT ( #177, #180, ( #348 ) ) ;
#69 = CC_DESIGN_PERSON_AND_ORGANIZATION_ASSIGNMENT ( #183, #179, ( #348 ) ) ;
#70 = EDGE_CURVE ( 'NONE', #209, #106, #35, .T. ) ;
#71 = APPROVAL ( #89, 'UNSPECIFIED' ) ;
#72 = PRODUCT_DEFINITION ( 'UNKNOWN', '', #348, #384 ) ;
#73 = LOCAL_TIME ( 8, 53, 12.00000000000000000, #341 ) ;
#74 = CIRCLE ( 'NONE', #342, 8.500000000000001800 ) ;
#75 = APPROVAL ( #91, 'UNSPECIFIED' ) ;
#76 = EDGE_CURVE ( 'NONE', #151, #210, #161, .T. ) ;
#77 = PRODUCT ( 'WDS-402-219', 'WDS-402-219', '', ( #202 ) ) ;
#78 = CARTESIAN_POINT ( 'NONE',  ( 25.12983738819601600, 9.873766902394727700, -0.5000000000000038900 ) ) ;
#79 = CARTESIAN_POINT ( 'NONE',  ( 24.44039508514725900, 8.500000000000005300, 0.0000000000000000000 ) ) ;
#80 = APPROVAL_ROLE ( '' ) ;
#81 = CARTESIAN_POINT ( 'NONE',  ( 25.12983738819602000, -9.873766902394718800, -0.5000000000000038900 ) ) ;
#82 = CARTESIAN_POINT ( 'NONE',  ( 25.12983738819602000, -9.873766902394722300, -8.999999999999998200 ) ) ;
#83 = CARTESIAN_POINT ( 'NONE',  ( 24.82620162693255800, -9.268749256447232900, -9.500000000000000000 ) ) ;
#84 = DATE_AND_TIME ( #330, #24 ) ;
#85 = DATE_AND_TIME ( #347, #73 ) ;
#86 = PERSON_AND_ORGANIZATION ( #408, #344 ) ;
#87 = PERSON_AND_ORGANIZATION_ROLE ( 'creator' ) ;
#88 = APPROVAL_DATE_TIME ( #84, #75 ) ;
#89 = APPROVAL_STATUS ( 'not_yet_approved' ) ;
#90 = DATE_TIME_ROLE ( 'creation_date' ) ;
#91 = APPROVAL_STATUS ( 'not_yet_approved' ) ;
#92 = APPROVAL_ROLE ( '' ) ;
#93 = PERSON_AND_ORGANIZATION ( #408, #344 ) ;
#94 = PERSON_AND_ORGANIZATION ( #408, #344 ) ;
#95 = DIRECTION ( 'NONE',  ( -0.0000000000000000000, -0.0000000000000000000, 1.000000000000000000 ) ) ;
#96 = VERTEX_POINT ( 'NONE', #164 ) ;
#97 = DIRECTION ( 'NONE',  ( 0.4485449123827571200, -0.8937602931298440600, 0.0000000000000000000 ) ) ;
#98 = EDGE_LOOP ( 'NONE', ( #400, #389, #394, #399 ) ) ;
#99 = DIRECTION ( 'NONE',  ( 0.0000000000000000000, 0.0000000000000000000, -1.000000000000000000 ) ) ;
#100 = CARTESIAN_POINT ( 'NONE',  ( 24.44039508514726200, -8.499999999999996400, -9.000000000000000000 ) ) ;
#101 = LINE ( 'NONE', #144, #325 ) ;
#102 = CARTESIAN_POINT ( 'NONE',  ( -26.49999999999999600, 0.0000000000000000000, 0.0000000000000000000 ) ) ;
#103 = ORIENTED_EDGE ( 'NONE', *, *, #60, .T. ) ;
#104 = CARTESIAN_POINT ( 'NONE',  ( 24.82620162693255800, 9.268749256447240000, 0.0000000000000000000 ) ) ;
#105 = ORIENTED_EDGE ( 'NONE', *, *, #57, .T. ) ;
#106 = VERTEX_POINT ( 'NONE', #165 ) ;
#107 = EDGE_LOOP ( 'NONE', ( #122, #286, #404, #109 ) ) ;
#108 = ORIENTED_EDGE ( 'NONE', *, *, #56, .T. ) ;
#109 = ORIENTED_EDGE ( 'NONE', *, *, #27, .F. ) ;
#110 = ORIENTED_EDGE ( 'NONE', *, *, #70, .T. ) ;
#111 = ORIENTED_EDGE ( 'NONE', *, *, #63, .T. ) ;
#112 = VERTEX_POINT ( 'NONE', #160 ) ;
#113 = ORIENTED_EDGE ( 'NONE', *, *, #20, .T. ) ;
#114 = ORIENTED_EDGE ( 'NONE', *, *, #45, .T. ) ;
#115 = ORIENTED_EDGE ( 'NONE', *, *, #61, .T. ) ;
#116 = EDGE_LOOP ( 'NONE', ( #113, #147, #117, #401 ) ) ;
#117 = ORIENTED_EDGE ( 'NONE', *, *, #61, .F. ) ;
#118 = ORIENTED_EDGE ( 'NONE', *, *, #56, .F. ) ;
#119 = ORIENTED_EDGE ( 'NONE', *, *, #54, .T. ) ;
#120 = ORIENTED_EDGE ( 'NONE', *, *, #63, .F. ) ;
#121 = ORIENTED_EDGE ( 'NONE', *, *, #37, .F. ) ;
#122 = ORIENTED_EDGE ( 'NONE', *, *, #58, .F. ) ;
#123 = ORIENTED_EDGE ( 'NONE', *, *, #33, .F. ) ;
#124 = EDGE_LOOP ( 'NONE', ( #126, #119, #387, #129 ) ) ;
#125 = ORIENTED_EDGE ( 'NONE', *, *, #59, .F. ) ;
#126 = ORIENTED_EDGE ( 'NONE', *, *, #62, .T. ) ;
#127 = ORIENTED_EDGE ( 'NONE', *, *, #47, .T. ) ;
#128 = EDGE_LOOP ( 'NONE', ( #121, #120, #131, #392, #138, #125 ) ) ;
#129 = ORIENTED_EDGE ( 'NONE', *, *, #19, .T. ) ;
#130 = ORIENTED_EDGE ( 'NONE', *, *, #46, .T. ) ;
#131 = ORIENTED_EDGE ( 'NONE', *, *, #38, .F. ) ;
#132 = VERTEX_POINT ( 'NONE', #104 ) ;
#133 = VERTEX_POINT ( 'NONE', #261 ) ;
#134 = DIRECTION ( 'NONE',  ( -1.000000000000000000, 0.0000000000000000000, 0.0000000000000000000 ) ) ;
#135 = ORIENTED_EDGE ( 'NONE', *, *, #47, .F. ) ;
#136 = CARTESIAN_POINT ( 'NONE',  ( 0.0000000000000000000, 0.0000000000000000000, -9.500000000000000000 ) ) ;
#137 = EDGE_LOOP ( 'NONE', ( #118, #145, #402, #395 ) ) ;
#138 = ORIENTED_EDGE ( 'NONE', *, *, #54, .F. ) ;
#139 = VERTEX_POINT ( 'NONE', #102 ) ;
#140 = DIRECTION ( 'NONE',  ( 0.0000000000000000000, 0.0000000000000000000, 1.000000000000000000 ) ) ;
#141 = EDGE_LOOP ( 'NONE', ( #110, #105, #405, #115, #114, #403 ) ) ;
#142 = DIRECTION ( 'NONE',  ( 1.000000000000000000, 0.0000000000000000000, 0.0000000000000000000 ) ) ;
#143 = ORIENTED_EDGE ( 'NONE', *, *, #53, .T. ) ;
#144 = CARTESIAN_POINT ( 'NONE',  ( 25.12983738819602300, -9.873766902394722300, -9.500000000000000000 ) ) ;
#145 = ORIENTED_EDGE ( 'NONE', *, *, #39, .T. ) ;
#146 = DIRECTION ( 'NONE',  ( -0.0000000000000000000, -0.0000000000000000000, 1.000000000000000000 ) ) ;
#147 = ORIENTED_EDGE ( 'NONE', *, *, #19, .F. ) ;
#148 = LINE ( 'NONE', #229, #355 ) ;
#149 = CARTESIAN_POINT ( 'NONE',  ( 25.02890094694346200, 9.672643267211492800, -9.167494972132644200 ) ) ;
#150 = DIRECTION ( 'NONE',  ( -0.0000000000000000000, -0.0000000000000000000, 1.000000000000000000 ) ) ;
#151 = VERTEX_POINT ( 'NONE', #262 ) ;
#152 = CARTESIAN_POINT ( 'NONE',  ( 25.02890094694346200, 9.672643267211494600, -0.3325050278673591400 ) ) ;
#153 = CARTESIAN_POINT ( 'NONE',  ( 24.44039508514726200, -8.499999999999996400, -9.500000000000000000 ) ) ;
#154 = DIRECTION ( 'NONE',  ( -0.4485449123827571200, 0.8937602931298440600, 0.0000000000000000000 ) ) ;
#155 = CARTESIAN_POINT ( 'NONE',  ( 25.02890094694346600, -9.672643267211485700, -0.3325050278673569200 ) ) ;
#156 = DIRECTION ( 'NONE',  ( -1.000000000000000000, 0.0000000000000000000, 0.0000000000000000000 ) ) ;
#157 = DIRECTION ( 'NONE',  ( -0.7071067811865451300, 0.0000000000000000000, -0.7071067811865500200 ) ) ;
#158 = DIRECTION ( 'NONE',  ( -0.0000000000000000000, -0.0000000000000000000, -1.000000000000000000 ) ) ;
#159 = DIRECTION ( 'NONE',  ( 1.000000000000000000, 0.0000000000000000000, 0.0000000000000000000 ) ) ;
#160 = CARTESIAN_POINT ( 'NONE',  ( 1.040948101710813100E-015, -8.500000000000000000, 0.0000000000000000000 ) ) ;
#161 = LINE ( 'NONE', #162, #333 ) ;
#162 = CARTESIAN_POINT ( 'NONE',  ( 24.44039508514726200, 8.500000000000003600, -0.5000000000000028900 ) ) ;
#163 = DIRECTION ( 'NONE',  ( 0.0000000000000000000, 0.0000000000000000000, 1.000000000000000000 ) ) ;
#164 = CARTESIAN_POINT ( 'NONE',  ( -27.00000000000000000, 0.0000000000000000000, -0.5000000000000038900 ) ) ;
#165 = CARTESIAN_POINT ( 'NONE',  ( 24.82620162693256200, 9.268749256447241800, -9.500000000000000000 ) ) ;
#166 = PLANE ( 'NONE',  #368 ) ;
#167 = CARTESIAN_POINT ( 'NONE',  ( 25.12983738819602000, -9.873766902394722300, -8.999999999999998200 ) ) ;
#168 = EDGE_LOOP ( 'NONE', ( #385, #127, #103, #284, #111 ) ) ;
#169 = APPROVAL_STATUS ( 'not_yet_approved' ) ;
#170 = APPROVAL_ROLE ( '' ) ;
#171 = DATE_AND_TIME ( #4, #12 ) ;
#172 = APPROVAL_DATE_TIME ( #171, #13 ) ;
#173 = DATE_AND_TIME ( #10, #66 ) ;
#174 = PERSON_AND_ORGANIZATION ( #408, #344 ) ;
#175 = PERSON_AND_ORGANIZATION ( #408, #344 ) ;
#176 = PERSON_AND_ORGANIZATION_ROLE ( 'classification_officer' ) ;
#177 = PERSON_AND_ORGANIZATION ( #408, #344 ) ;
#178 = DATE_TIME_ROLE ( 'classification_date' ) ;
#179 = PERSON_AND_ORGANIZATION_ROLE ( 'creator' ) ;
#180 = PERSON_AND_ORGANIZATION_ROLE ( 'design_supplier' ) ;
#181 = SECURITY_CLASSIFICATION_LEVEL ( 'unclassified' ) ;
#182 = APPROVAL_DATE_TIME ( #184, #71 ) ;
#183 = PERSON_AND_ORGANIZATION ( #408, #344 ) ;
#184 = DATE_AND_TIME ( #6, #65 ) ;
#185 = DIRECTION ( 'NONE',  ( 1.000000000000000000, 1.284980352575412500E-016, -0.0000000000000000000 ) ) ;
#186 = CARTESIAN_POINT ( 'NONE',  ( 0.0000000000000000000, 0.0000000000000000000, -9.500000000000000000 ) ) ;
#187 = DIRECTION ( 'NONE',  ( -1.000000000000000000, -0.0000000000000000000, -0.0000000000000000000 ) ) ;
#188 = DIRECTION ( 'NONE',  ( 0.0000000000000000000, 0.0000000000000000000, 1.000000000000000000 ) ) ;
#189 = LINE ( 'NONE', #280, #345 ) ;
#190 = DIRECTION ( 'NONE',  ( 0.0000000000000000000, 0.0000000000000000000, -1.000000000000000000 ) ) ;
#191 = DIRECTION ( 'NONE',  ( 0.4485449123827557300, 0.8937602931298446200, -0.0000000000000000000 ) ) ;
#192 = DIRECTION ( 'NONE',  ( 1.000000000000000000, 0.0000000000000000000, 0.0000000000000000000 ) ) ;
#193 = VERTEX_POINT ( 'NONE', #275 ) ;
#194 = CARTESIAN_POINT ( 'NONE',  ( 0.0000000000000000000, 0.0000000000000000000, 0.0000000000000000000 ) ) ;
#195 = DIRECTION ( 'NONE',  ( -1.000000000000000000, -0.0000000000000000000, 0.0000000000000000000 ) ) ;
#196 = LINE ( 'NONE', #240, #346 ) ;
#197 = LINE ( 'NONE', #100, #329 ) ;
#198 = ORIENTED_EDGE ( 'NONE', *, *, #60, .F. ) ;
#199 = DIRECTION ( 'NONE',  ( 1.000000000000000000, 0.0000000000000000000, 0.0000000000000000000 ) ) ;
#200 = DIRECTION ( 'NONE',  ( 0.0000000000000000000, 0.0000000000000000000, 1.000000000000000000 ) ) ;
#201 = CARTESIAN_POINT ( 'NONE',  ( 1.040949779275250100E-015, -8.500000000000000000, -9.500000000000000000 ) ) ;
#202 = MECHANICAL_CONTEXT ( 'NONE', #406, 'mechanical' ) ;
#203 = VERTEX_POINT ( 'NONE', #81 ) ;
#204 = PERSON_AND_ORGANIZATION_ROLE ( 'design_owner' ) ;
#205 = APPLICATION_PROTOCOL_DEFINITION ( 'international standard', 'config_control_design', 1994, #407 ) ;
#206 = PERSON_AND_ORGANIZATION ( #408, #344 ) ;
#207 = VERTEX_POINT ( 'NONE', #274 ) ;
#208 = LINE ( 'NONE', #201, #359 ) ;
#209 = VERTEX_POINT ( 'NONE', #83 ) ;
#210 = VERTEX_POINT ( 'NONE', #79 ) ;
#211 = CARTESIAN_POINT ( 'NONE',  ( 0.0000000000000000000, 0.0000000000000000000, -8.999999999999998200 ) ) ;
#212 = DIRECTION ( 'NONE',  ( 0.8937602931298440600, 0.4485449123827571200, -0.0000000000000000000 ) ) ;
#213 = VERTEX_POINT ( 'NONE', #78 ) ;
#214 = PLANE ( 'NONE',  #360 ) ;
#215 = VERTEX_POINT ( 'NONE', #82 ) ;
#216 = VERTEX_POINT ( 'NONE', #315 ) ;
#217 = ORIENTED_EDGE ( 'NONE', *, *, #43, .F. ) ;
#218 = VERTEX_POINT ( 'NONE', #316 ) ;
#219 = CARTESIAN_POINT ( 'NONE',  ( 24.92769435293853100, -9.470981331856979300, -0.1658157463424596300 ) ) ;
#220 = CARTESIAN_POINT ( 'NONE',  ( 25.12983738819602000, -9.873766902394718800, -0.5000000000000038900 ) ) ;
#221 = CARTESIAN_POINT ( 'NONE',  ( 24.82620162693255800, -9.268749256447232900, -9.500000000000000000 ) ) ;
#222 = VERTEX_POINT ( 'NONE', #317 ) ;
#223 = CARTESIAN_POINT ( 'NONE',  ( 24.44039508514726200, 8.500000000000003600, -9.500000000000000000 ) ) ;
#224 = CARTESIAN_POINT ( 'NONE',  ( 24.92769435293853400, -9.470981331856979300, -9.334184253657538100 ) ) ;
#225 = CARTESIAN_POINT ( 'NONE',  ( -26.50000000000000000, 0.0000000000000000000, 0.0000000000000000000 ) ) ;
#226 = DIRECTION ( 'NONE',  ( 1.000000000000000000, 0.0000000000000000000, 0.0000000000000000000 ) ) ;
#227 = CARTESIAN_POINT ( 'NONE',  ( 0.0000000000000000000, 0.0000000000000000000, 0.0000000000000000000 ) ) ;
#228 = CARTESIAN_POINT ( 'NONE',  ( 25.12983738819602000, 9.873766902394729400, -8.999999999999998200 ) ) ;
#229 = CARTESIAN_POINT ( 'NONE',  ( 27.00000000000000400, -8.499999999999996400, -9.500000000000000000 ) ) ;
#230 = CARTESIAN_POINT ( 'NONE',  ( 24.82620162693256200, 9.268749256447241800, -9.500000000000000000 ) ) ;
#231 = DIRECTION ( 'NONE',  ( 1.000000000000000000, 0.0000000000000000000, 0.0000000000000000000 ) ) ;
#232 = DIRECTION ( 'NONE',  ( 1.000000000000000000, 1.284980352575412500E-016, -0.0000000000000000000 ) ) ;
#233 = CARTESIAN_POINT ( 'NONE',  ( 0.0000000000000000000, 0.0000000000000000000, -9.500000000000000000 ) ) ;
#234 = DIRECTION ( 'NONE',  ( 0.0000000000000000000, 0.0000000000000000000, 1.000000000000000000 ) ) ;
#235 = LINE ( 'NONE', #239, #335 ) ;
#236 = LINE ( 'NONE', #242, #324 ) ;
#237 = CARTESIAN_POINT ( 'NONE',  ( 0.0000000000000000000, 0.0000000000000000000, 0.0000000000000000000 ) ) ;
#238 = DIRECTION ( 'NONE',  ( -0.4485449123827557300, -0.8937602931298446200, 0.0000000000000000000 ) ) ;
#239 = CARTESIAN_POINT ( 'NONE',  ( 27.00000000000000400, -8.499999999999996400, 0.0000000000000000000 ) ) ;
#240 = CARTESIAN_POINT ( 'NONE',  ( 16.11559108269847600, -8.087813304920615600, 0.0000000000000000000 ) ) ;
#241 = DIRECTION ( 'NONE',  ( 0.0000000000000000000, 0.0000000000000000000, 1.000000000000000000 ) ) ;
#242 = CARTESIAN_POINT ( 'NONE',  ( 16.11559108269844400, 8.087813304920631600, 0.0000000000000000000 ) ) ;
#243 = DIRECTION ( 'NONE',  ( 1.000000000000000000, 0.0000000000000000000, 0.0000000000000000000 ) ) ;
#244 = CARTESIAN_POINT ( 'NONE',  ( 0.0000000000000000000, 0.0000000000000000000, -0.5000000000000038900 ) ) ;
#245 = CARTESIAN_POINT ( 'NONE',  ( 25.12983738819601600, 9.873766902394727700, -0.5000000000000038900 ) ) ;
#246 = DIRECTION ( 'NONE',  ( 0.0000000000000000000, 0.0000000000000000000, -1.000000000000000000 ) ) ;
#247 = CARTESIAN_POINT ( 'NONE',  ( 0.0000000000000000000, 0.0000000000000000000, -0.5000000000000038900 ) ) ;
#248 = LINE ( 'NONE', #266, #340 ) ;
#249 = DIRECTION ( 'NONE',  ( 1.000000000000000000, 0.0000000000000000000, 0.0000000000000000000 ) ) ;
#250 = DIRECTION ( 'NONE',  ( -0.0000000000000000000, -0.0000000000000000000, -1.000000000000000000 ) ) ;
#251 = DIRECTION ( 'NONE',  ( -0.8937602931298447300, 0.4485449123827557900, 0.0000000000000000000 ) ) ;
#252 = DIRECTION ( 'NONE',  ( 0.0000000000000000000, 0.0000000000000000000, -1.000000000000000000 ) ) ;
#253 = LINE ( 'NONE', #254, #365 ) ;
#254 = CARTESIAN_POINT ( 'NONE',  ( 0.0000000000000000000, 8.500000000000003600, 0.0000000000000000000 ) ) ;
#255 = CARTESIAN_POINT ( 'NONE',  ( 0.0000000000000000000, 0.0000000000000000000, 0.0000000000000000000 ) ) ;
#256 = DIRECTION ( 'NONE',  ( 1.000000000000000000, 0.0000000000000000000, 0.0000000000000000000 ) ) ;
#257 = DIRECTION ( 'NONE',  ( 0.0000000000000000000, 0.0000000000000000000, 1.000000000000000000 ) ) ;
#258 = CARTESIAN_POINT ( 'NONE',  ( 0.0000000000000000000, 0.0000000000000000000, -9.500000000000000000 ) ) ;
#259 = LINE ( 'NONE', #264, #364 ) ;
#260 = CARTESIAN_POINT ( 'NONE',  ( 24.82620162693255500, -9.268749256447229400, 0.0000000000000000000 ) ) ;
#261 = CARTESIAN_POINT ( 'NONE',  ( 0.0000000000000000000, 8.500000000000003600, -9.500000000000000000 ) ) ;
#262 = CARTESIAN_POINT ( 'NONE',  ( 24.44039508514725500, 8.500000000000001800, -9.500000000000000000 ) ) ;
#263 = DIRECTION ( 'NONE',  ( -0.4485449123827557300, -0.8937602931298446200, 0.0000000000000000000 ) ) ;
#264 = CARTESIAN_POINT ( 'NONE',  ( 24.44039508514726200, -8.499999999999996400, -9.500000000000000000 ) ) ;
#265 = LINE ( 'NONE', #271, #358 ) ;
#266 = CARTESIAN_POINT ( 'NONE',  ( 24.44039508514726200, 8.500000000000003600, -9.500000000000000000 ) ) ;
#267 = CARTESIAN_POINT ( 'NONE',  ( 24.92769435293853100, 9.470981331856988200, -9.334184253657538100 ) ) ;
#268 = DIRECTION ( 'NONE',  ( -0.0000000000000000000, -0.0000000000000000000, 1.000000000000000000 ) ) ;
#269 = DIRECTION ( 'NONE',  ( 1.000000000000000000, 0.0000000000000000000, 0.0000000000000000000 ) ) ;
#270 = DIRECTION ( 'NONE',  ( -0.4485449123827571200, 0.8937602931298440600, 0.0000000000000000000 ) ) ;
#271 = CARTESIAN_POINT ( 'NONE',  ( 0.0000000000000000000, 8.500000000000003600, -9.500000000000000000 ) ) ;
#272 = CARTESIAN_POINT ( 'NONE',  ( 0.0000000000000000000, 0.0000000000000000000, 0.0000000000000000000 ) ) ;
#273 = LINE ( 'NONE', #225, #370 ) ;
#274 = CARTESIAN_POINT ( 'NONE',  ( 24.82620162693255500, -9.268749256447229400, 0.0000000000000000000 ) ) ;
#275 = CARTESIAN_POINT ( 'NONE',  ( 1.040949779275250100E-015, -8.500000000000000000, -9.500000000000000000 ) ) ;
#276 = CARTESIAN_POINT ( 'NONE',  ( 25.12983738819602000, 9.873766902394729400, -9.500000000000000000 ) ) ;
#277 = LINE ( 'NONE', #276, #339 ) ;
#278 = DIRECTION ( 'NONE',  ( 0.0000000000000000000, 0.0000000000000000000, -1.000000000000000000 ) ) ;
#279 = CARTESIAN_POINT ( 'NONE',  ( 25.02890094694346600, -9.672643267211487500, -9.167494972132644200 ) ) ;
#280 = CARTESIAN_POINT ( 'NONE',  ( 0.0000000000000000000, 8.500000000000003600, -9.500000000000000000 ) ) ;
#281 = EDGE_LOOP ( 'NONE', ( #393, #388, #143, #135 ) ) ;
#282 = EDGE_LOOP ( 'NONE', ( #123, #396, #130, #108, #390, #386, #391 ) ) ;
#283 = ORIENTED_EDGE ( 'NONE', *, *, #53, .F. ) ;
#284 = ORIENTED_EDGE ( 'NONE', *, *, #26, .T. ) ;
#285 = EDGE_LOOP ( 'NONE', ( #217, #198, #283, #398, #397, #287 ) ) ;
#286 = ORIENTED_EDGE ( 'NONE', *, *, #76, .T. ) ;
#287 = ORIENTED_EDGE ( 'NONE', *, *, #57, .F. ) ;
#288 = VERTEX_POINT ( 'NONE', #318 ) ;
#289 = CARTESIAN_POINT ( 'NONE',  ( 0.0000000000000000000, 0.0000000000000000000, 0.0000000000000000000 ) ) ;
#290 = SHAPE_DEFINITION_REPRESENTATION ( #383, #411 ) ;
#291 = DIRECTION ( 'NONE',  ( 0.0000000000000000000, 0.0000000000000000000, 1.000000000000000000 ) ) ;
#292 = DIRECTION ( 'NONE',  ( 1.000000000000000000, 0.0000000000000000000, 0.0000000000000000000 ) ) ;
#293 = APPLICATION_PROTOCOL_DEFINITION ( 'international standard', 'config_control_design', 1994, #406 ) ;
#294 = PLANE ( 'NONE',  #381 ) ;
#295 = CARTESIAN_POINT ( 'NONE',  ( 0.0000000000000000000, 0.0000000000000000000, 0.0000000000000000000 ) ) ;
#296 = DIRECTION ( 'NONE',  ( 0.0000000000000000000, 0.0000000000000000000, 1.000000000000000000 ) ) ;
#297 = DIRECTION ( 'NONE',  ( 1.000000000000000000, 0.0000000000000000000, -0.0000000000000000000 ) ) ;
#298 = PLANE ( 'NONE',  #334 ) ;
#299 = DIRECTION ( 'NONE',  ( 1.284980352575412700E-016, -1.000000000000000000, 0.0000000000000000000 ) ) ;
#300 = DIRECTION ( 'NONE',  ( 1.000000000000000000, 1.284980352575412700E-016, 0.0000000000000000000 ) ) ;
#301 = CARTESIAN_POINT ( 'NONE',  ( 27.00000000000000400, -8.499999999999996400, -9.500000000000000000 ) ) ;
#302 = DIRECTION ( 'NONE',  ( 0.0000000000000000000, 0.0000000000000000000, 1.000000000000000000 ) ) ;
#303 = DIRECTION ( 'NONE',  ( 1.000000000000000000, 0.0000000000000000000, -0.0000000000000000000 ) ) ;
#304 = PLANE ( 'NONE',  #338 ) ;
#305 = CARTESIAN_POINT ( 'NONE',  ( 0.0000000000000000000, 0.0000000000000000000, -9.500000000000000000 ) ) ;
#306 = PLANE ( 'NONE',  #322 ) ;
#307 = CARTESIAN_POINT ( 'NONE',  ( 0.0000000000000000000, 8.500000000000003600, -9.500000000000000000 ) ) ;
#308 = DIRECTION ( 'NONE',  ( -0.0000000000000000000, 1.000000000000000000, 0.0000000000000000000 ) ) ;
#309 = DIRECTION ( 'NONE',  ( 0.0000000000000000000, -0.0000000000000000000, 1.000000000000000000 ) ) ;
#310 = CARTESIAN_POINT ( 'NONE',  ( 24.82620162693255800, 9.268749256447240000, 0.0000000000000000000 ) ) ;
#311 = CARTESIAN_POINT ( 'NONE',  ( 24.92769435293853400, 9.470981331856986400, -0.1658157463424626600 ) ) ;
#312 = DIRECTION ( 'NONE',  ( -0.0000000000000000000, -0.0000000000000000000, 1.000000000000000000 ) ) ;
#313 = DIRECTION ( 'NONE',  ( 1.000000000000000000, 0.0000000000000000000, 0.0000000000000000000 ) ) ;
#314 = CARTESIAN_POINT ( 'NONE',  ( 0.0000000000000000000, 0.0000000000000000000, -8.999999999999998200 ) ) ;
#315 = CARTESIAN_POINT ( 'NONE',  ( 24.44039508514726600, -8.499999999999996400, 0.0000000000000000000 ) ) ;
#316 = CARTESIAN_POINT ( 'NONE',  ( 0.0000000000000000000, 8.500000000000003600, 0.0000000000000000000 ) ) ;
#317 = CARTESIAN_POINT ( 'NONE',  ( 25.12983738819602000, 9.873766902394729400, -8.999999999999998200 ) ) ;
#318 = CARTESIAN_POINT ( 'NONE',  ( 24.44039508514726200, -8.499999999999996400, -9.500000000000000000 ) ) ;
#319 =( LENGTH_UNIT ( ) NAMED_UNIT ( * ) SI_UNIT ( .MILLI., .METRE. ) );
#320 =( NAMED_UNIT ( * ) PLANE_ANGLE_UNIT ( ) SI_UNIT ( $, .RADIAN. ) );
#321 =( NAMED_UNIT ( * ) SI_UNIT ( $, .STERADIAN. ) SOLID_ANGLE_UNIT ( ) );
#322 = AXIS2_PLACEMENT_3D ( 'NONE', #307, #308, #309 ) ;
#323 = APPROVAL_PERSON_ORGANIZATION ( #93, #75, #80 ) ;
#324 = VECTOR ( 'NONE', #270, 1000.000000000000000 ) ;
#325 = VECTOR ( 'NONE', #257, 1000.000000000000000 ) ;
#326 = CC_DESIGN_APPROVAL ( #75, ( #72 ) ) ;
#327 = COORDINATED_UNIVERSAL_TIME_OFFSET ( 5, 0, .BEHIND. ) ;
#328 = APPROVAL_PERSON_ORGANIZATION ( #94, #71, #92 ) ;
#329 = VECTOR ( 'NONE', #190, 1000.000000000000000 ) ;
#330 = CALENDAR_DATE ( 2012, 5, 4 ) ;
#331 = AXIS2_PLACEMENT_3D ( 'NONE', #237, #188, #192 ) ;
#332 = FACE_OUTER_BOUND ( 'NONE', #124, .T. ) ;
#333 = VECTOR ( 'NONE', #163, 1000.000000000000000 ) ;
#334 = AXIS2_PLACEMENT_3D ( 'NONE', #301, #299, #300 ) ;
#335 = VECTOR ( 'NONE', #185, 1000.000000000000000 ) ;
#336 = AXIS2_PLACEMENT_3D ( 'NONE', #233, #158, #159 ) ;
#337 = FACE_OUTER_BOUND ( 'NONE', #141, .T. ) ;
#338 = AXIS2_PLACEMENT_3D ( 'NONE', #305, #302, #303 ) ;
#339 = VECTOR ( 'NONE', #250, 1000.000000000000000 ) ;
#340 = VECTOR ( 'NONE', #238, 1000.000000000000200 ) ;
#341 = COORDINATED_UNIVERSAL_TIME_OFFSET ( 5, 0, .BEHIND. ) ;
#342 = AXIS2_PLACEMENT_3D ( 'NONE', #186, #241, #249 ) ;
#343 = AXIS2_PLACEMENT_3D ( 'NONE', #289, #291, #292 ) ;
#344 = ORGANIZATION ( 'UNSPECIFIED', 'UNSPECIFIED', '' ) ;
#345 = VECTOR ( 'NONE', #187, 1000.000000000000000 ) ;
#346 = VECTOR ( 'NONE', #191, 1000.000000000000200 ) ;
#347 = CALENDAR_DATE ( 2012, 5, 4 ) ;
#348 = PRODUCT_DEFINITION_FORMATION_WITH_SPECIFIED_SOURCE ( 'ANY', '', #77, .NOT_KNOWN. ) ;
#349 = COORDINATED_UNIVERSAL_TIME_OFFSET ( 5, 0, .BEHIND. ) ;
#350 =( GEOMETRIC_REPRESENTATION_CONTEXT ( 3 ) GLOBAL_UNCERTAINTY_ASSIGNED_CONTEXT ( ( #410 ) ) GLOBAL_UNIT_ASSIGNED_CONTEXT ( ( #319, #320, #321 ) ) REPRESENTATION_CONTEXT ( 'NONE', 'WORKASPACE' ) );
#351 = AXIS2_PLACEMENT_3D ( 'NONE', #272, #234, #231 ) ;
#352 = FACE_OUTER_BOUND ( 'NONE', #107, .T. ) ;
#353 = AXIS2_PLACEMENT_3D ( 'NONE', #211, #146, #256 ) ;
#354 = FACE_OUTER_BOUND ( 'NONE', #137, .T. ) ;
#355 = VECTOR ( 'NONE', #232, 1000.000000000000000 ) ;
#356 = FACE_OUTER_BOUND ( 'NONE', #281, .T. ) ;
#357 = AXIS2_PLACEMENT_3D ( 'NONE', #258, #95, #226 ) ;
#358 = VECTOR ( 'NONE', #268, 1000.000000000000000 ) ;
#359 = VECTOR ( 'NONE', #150, 1000.000000000000000 ) ;
#360 = AXIS2_PLACEMENT_3D ( 'NONE', #153, #212, #154 ) ;
#361 = AXIS2_PLACEMENT_3D ( 'NONE', #244, #99, #269 ) ;
#362 = FACE_OUTER_BOUND ( 'NONE', #116, .T. ) ;
#363 = AXIS2_PLACEMENT_3D ( 'NONE', #314, #312, #313 ) ;
#364 = VECTOR ( 'NONE', #97, 1000.000000000000000 ) ;
#365 = VECTOR ( 'NONE', #195, 1000.000000000000000 ) ;
#366 = AXIS2_PLACEMENT_3D ( 'NONE', #194, #200, #199 ) ;
#367 = FACE_OUTER_BOUND ( 'NONE', #168, .T. ) ;
#368 = AXIS2_PLACEMENT_3D ( 'NONE', #223, #251, #263 ) ;
#369 = CYLINDRICAL_SURFACE ( 'NONE', #357, 8.500000000000001800 ) ;
#370 = VECTOR ( 'NONE', #157, 1000.000000000000100 ) ;
#371 = FACE_OUTER_BOUND ( 'NONE', #285, .T. ) ;
#372 = AXIS2_PLACEMENT_3D ( 'NONE', #227, #278, #156 ) ;
#373 = AXIS2_PLACEMENT_3D ( 'NONE', #255, #252, #134 ) ;
#374 = CYLINDRICAL_SURFACE ( 'NONE', #376, 27.00000000000000000 ) ;
#375 = AXIS2_PLACEMENT_3D ( 'NONE', #247, #246, #243 ) ;
#376 = AXIS2_PLACEMENT_3D ( 'NONE', #136, #140, #142 ) ;
#377 = CLOSED_SHELL ( 'NONE', ( #42, #36, #51, #48, #40, #50, #52, #49, #34, #41, #18 ) ) ;
#378 = FACE_OUTER_BOUND ( 'NONE', #98, .T. ) ;
#379 = FACE_OUTER_BOUND ( 'NONE', #128, .T. ) ;
#380 = FACE_OUTER_BOUND ( 'NONE', #282, .T. ) ;
#381 = AXIS2_PLACEMENT_3D ( 'NONE', #295, #296, #297 ) ;
#382 = MANIFOLD_SOLID_BREP ( 'Chamfer2', #377 ) ;
#383 = PRODUCT_DEFINITION_SHAPE ( 'NONE', 'NONE',  #72 ) ;
#384 = DESIGN_CONTEXT ( 'detailed design', #407, 'design' ) ;
#385 = ORIENTED_EDGE ( 'NONE', *, *, #29, .T. ) ;
#386 = ORIENTED_EDGE ( 'NONE', *, *, #62, .F. ) ;
#387 = ORIENTED_EDGE ( 'NONE', *, *, #45, .F. ) ;
#388 = ORIENTED_EDGE ( 'NONE', *, *, #46, .F. ) ;
#389 = ORIENTED_EDGE ( 'NONE', *, *, #43, .T. ) ;
#390 = ORIENTED_EDGE ( 'NONE', *, *, #59, .T. ) ;
#391 = ORIENTED_EDGE ( 'NONE', *, *, #20, .F. ) ;
#392 = ORIENTED_EDGE ( 'NONE', *, *, #28, .F. ) ;
#393 = ORIENTED_EDGE ( 'NONE', *, *, #39, .F. ) ;
#394 = ORIENTED_EDGE ( 'NONE', *, *, #70, .F. ) ;
#395 = ORIENTED_EDGE ( 'NONE', *, *, #37, .T. ) ;
#396 = ORIENTED_EDGE ( 'NONE', *, *, #55, .T. ) ;
#397 = ORIENTED_EDGE ( 'NONE', *, *, #76, .F. ) ;
#398 = ORIENTED_EDGE ( 'NONE', *, *, #55, .F. ) ;
#399 = ORIENTED_EDGE ( 'NONE', *, *, #38, .T. ) ;
#400 = ORIENTED_EDGE ( 'NONE', *, *, #26, .F. ) ;
#401 = ORIENTED_EDGE ( 'NONE', *, *, #27, .T. ) ;
#402 = ORIENTED_EDGE ( 'NONE', *, *, #29, .F. ) ;
#403 = ORIENTED_EDGE ( 'NONE', *, *, #28, .T. ) ;
#404 = ORIENTED_EDGE ( 'NONE', *, *, #33, .T. ) ;
#405 = ORIENTED_EDGE ( 'NONE', *, *, #58, .T. ) ;
#406 = APPLICATION_CONTEXT ( 'configuration controlled 3d designs of mechanical parts and assemblies' ) ;
#407 = APPLICATION_CONTEXT ( 'configuration controlled 3d designs of mechanical parts and assemblies' ) ;
#408 = PERSON ( 'UNSPECIFIED', 'UNSPECIFIED', 'UNSPECIFIED', ('UNSPECIFIED'), ('UNSPECIFIED'), ('UNSPECIFIED') ) ;
#409 = B_SPLINE_CURVE_WITH_KNOTS ( 'NONE', 3,
 ( #228, #149, #267, #230 ),
 .UNSPECIFIED., .F., .F.,
 ( 4, 4 ),
 ( 2.453269466693398700E-018, 0.0008415705718630362400 ),
 .UNSPECIFIED. ) ;
#410 = UNCERTAINTY_MEASURE_WITH_UNIT (LENGTH_MEASURE( 1.000000000000000100E-005 ), #319, 'distance_accuracy_value', 'NONE');
#411 = ADVANCED_BREP_SHAPE_REPRESENTATION ( 'WDS-402-219', ( #382, #343 ), #350 ) ;
#412 = B_SPLINE_CURVE_WITH_KNOTS ( 'NONE', 3,
 ( #310, #311, #152, #245 ),
 .UNSPECIFIED., .F., .F.,
 ( 4, 4 ),
 ( 0.0000000000000000000, 0.0008415705718630394900 ),
 .UNSPECIFIED. ) ;
#413 = B_SPLINE_CURVE_WITH_KNOTS ( 'NONE', 3,
 ( #221, #224, #279, #167 ),
 .UNSPECIFIED., .F., .F.,
 ( 4, 4 ),
 ( 0.0000000000000000000, 0.0008415705718630409000 ),
 .UNSPECIFIED. ) ;
#414 = B_SPLINE_CURVE_WITH_KNOTS ( 'NONE', 3,
 ( #220, #155, #219, #260 ),
 .UNSPECIFIED., .F., .F.,
 ( 4, 4 ),
 ( 2.305045436800919100E-018, 0.0008415705718630456700 ),
 .UNSPECIFIED. ) ;
ENDSEC;
END-ISO-10303-21;
