ISO-10303-21;
HEADER;
FILE_DESCRIPTION (( 'STEP AP203' ),
    '1' );
FILE_NAME ('WDS-402-212.step',
    '2012-04-05T12:49:59',
    ( 'SysAdmin' ),
    ( 'SolidWorks' ),
    'SwSTEP 2.0',
    'SolidWorks 2012',
    '' );
FILE_SCHEMA (( 'CONFIG_CONTROL_DESIGN' ));
ENDSEC;

DATA;
#1 = ADVANCED_FACE ( 'NONE', ( #170 ), #169, .T. ) ;
#2 = ORIENTED_EDGE ( 'NONE', *, *, #202, .F. ) ;
#3 = EDGE_CURVE ( 'NONE', #186, #187, #134, .T. ) ;
#4 = EDGE_LOOP ( 'NONE', ( #288, #2, #289, #75, #69, #15 ) ) ;
#5 = ORIENTED_EDGE ( 'NONE', *, *, #182, .F. ) ;
#6 = ORIENTED_EDGE ( 'NONE', *, *, #61, .F. ) ;
#7 = ORIENTED_EDGE ( 'NONE', *, *, #207, .F. ) ;
#8 = EDGE_LOOP ( 'NONE', ( #72, #74, #71, #5 ) ) ;
#9 = ORIENTED_EDGE ( 'NONE', *, *, #46, .T. ) ;
#10 = ORIENTED_EDGE ( 'NONE', *, *, #14, .T. ) ;
#11 = ORIENTED_EDGE ( 'NONE', *, *, #53, .T. ) ;
#12 = ADVANCED_FACE ( 'NONE', ( #168 ), #135, .F. ) ;
#13 = ORIENTED_EDGE ( 'NONE', *, *, #47, .F. ) ;
#14 = EDGE_CURVE ( 'NONE', #35, #20, #124, .T. ) ;
#15 = ORIENTED_EDGE ( 'NONE', *, *, #285, .F. ) ;
#16 = ADVANCED_FACE ( 'NONE', ( #133 ), #138, .T. ) ;
#17 = ORIENTED_EDGE ( 'NONE', *, *, #14, .F. ) ;
#18 = EDGE_LOOP ( 'NONE', ( #54, #10, #6, #9 ) ) ;
#19 = ADVANCED_FACE ( 'NONE', ( #127 ), #126, .T. ) ;
#20 = VERTEX_POINT ( 'NONE', #120 ) ;
#21 = VERTEX_POINT ( 'NONE', #111 ) ;
#22 = EDGE_CURVE ( 'NONE', #81, #21, #270, .T. ) ;
#23 = ORIENTED_EDGE ( 'NONE', *, *, #61, .T. ) ;
#24 = ORIENTED_EDGE ( 'NONE', *, *, #25, .T. ) ;
#25 = EDGE_CURVE ( 'NONE', #82, #66, #266, .T. ) ;
#26 = SHAPE_DEFINITION_REPRESENTATION ( #27, #374 ) ;
#27 = PRODUCT_DEFINITION_SHAPE ( 'NONE', 'NONE',  #303 ) ;
#28 = PRODUCT_RELATED_PRODUCT_CATEGORY ( 'detail', '', ( #312 ) ) ;
#29 = EDGE_LOOP ( 'NONE', ( #48, #50, #52, #51 ) ) ;
#30 = VERTEX_POINT ( 'NONE', #271 ) ;
#31 = EDGE_CURVE ( 'NONE', #287, #243, #273, .T. ) ;
#32 = ORIENTED_EDGE ( 'NONE', *, *, #33, .T. ) ;
#33 = EDGE_CURVE ( 'NONE', #208, #35, #259, .T. ) ;
#34 = ORIENTED_EDGE ( 'NONE', *, *, #22, .T. ) ;
#35 = VERTEX_POINT ( 'NONE', #125 ) ;
#36 = ORIENTED_EDGE ( 'NONE', *, *, #242, .T. ) ;
#37 = ORIENTED_EDGE ( 'NONE', *, *, #41, .F. ) ;
#38 = EDGE_CURVE ( 'NONE', #30, #35, #260, .T. ) ;
#39 = ORIENTED_EDGE ( 'NONE', *, *, #49, .T. ) ;
#40 = ORIENTED_EDGE ( 'NONE', *, *, #38, .F. ) ;
#41 = EDGE_CURVE ( 'NONE', #21, #30, #249, .T. ) ;
#42 = ORIENTED_EDGE ( 'NONE', *, *, #3, .F. ) ;
#43 = ORIENTED_EDGE ( 'NONE', *, *, #63, .F. ) ;
#44 = ORIENTED_EDGE ( 'NONE', *, *, #33, .F. ) ;
#45 = ADVANCED_FACE ( 'NONE', ( #265 ), #254, .F. ) ;
#46 = EDGE_CURVE ( 'NONE', #66, #30, #247, .T. ) ;
#47 = EDGE_CURVE ( 'NONE', #82, #21, #100, .T. ) ;
#48 = ORIENTED_EDGE ( 'NONE', *, *, #41, .T. ) ;
#49 = EDGE_CURVE ( 'NONE', #203, #81, #95, .T. ) ;
#50 = ORIENTED_EDGE ( 'NONE', *, *, #46, .F. ) ;
#51 = ORIENTED_EDGE ( 'NONE', *, *, #47, .T. ) ;
#52 = ORIENTED_EDGE ( 'NONE', *, *, #25, .F. ) ;
#53 = EDGE_CURVE ( 'NONE', #181, #283, #90, .T. ) ;
#54 = ORIENTED_EDGE ( 'NONE', *, *, #38, .T. ) ;
#55 = ADVANCED_FACE ( 'NONE', ( #89 ), #107, .F. ) ;
#56 = EDGE_LOOP ( 'NONE', ( #58, #11, #68, #67 ) ) ;
#57 = ORIENTED_EDGE ( 'NONE', *, *, #240, .F. ) ;
#58 = ORIENTED_EDGE ( 'NONE', *, *, #204, .F. ) ;
#59 = EDGE_CURVE ( 'NONE', #81, #287, #88, .T. ) ;
#60 = ORIENTED_EDGE ( 'NONE', *, *, #59, .T. ) ;
#61 = EDGE_CURVE ( 'NONE', #66, #20, #155, .T. ) ;
#62 = EDGE_LOOP ( 'NONE', ( #65, #60, #286, #36, #32, #40, #37 ) ) ;
#63 = EDGE_CURVE ( 'NONE', #20, #186, #150, .T. ) ;
#64 = ORIENTED_EDGE ( 'NONE', *, *, #63, .T. ) ;
#65 = ORIENTED_EDGE ( 'NONE', *, *, #22, .F. ) ;
#66 = VERTEX_POINT ( 'NONE', #151 ) ;
#67 = ORIENTED_EDGE ( 'NONE', *, *, #3, .T. ) ;
#68 = ORIENTED_EDGE ( 'NONE', *, *, #281, .F. ) ;
#69 = ORIENTED_EDGE ( 'NONE', *, *, #49, .F. ) ;
#70 = ADVANCED_FACE ( 'NONE', ( #96 ), #145, .T. ) ;
#71 = ORIENTED_EDGE ( 'NONE', *, *, #73, .T. ) ;
#72 = ORIENTED_EDGE ( 'NONE', *, *, #175, .F. ) ;
#73 = EDGE_CURVE ( 'NONE', #287, #183, #140, .T. ) ;
#74 = ORIENTED_EDGE ( 'NONE', *, *, #31, .F. ) ;
#75 = ORIENTED_EDGE ( 'NONE', *, *, #59, .F. ) ;
#76 = ORIENTED_EDGE ( 'NONE', *, *, #180, .F. ) ;
#77 = ADVANCED_FACE ( 'NONE', ( #238 ), #141, .F. ) ;
#78 = EDGE_LOOP ( 'NONE', ( #76, #7, #42, #43, #17, #44 ) ) ;
#79 = CC_DESIGN_SECURITY_CLASSIFICATION ( #398, ( #355 ) ) ;
#80 = APPROVAL_DATE_TIME ( #380, #386 ) ;
#81 = VERTEX_POINT ( 'NONE', #87 ) ;
#82 = VERTEX_POINT ( 'NONE', #163 ) ;
#83 = CLOSED_SHELL ( 'NONE', ( #173, #185, #282, #19, #45, #55, #12, #1, #70, #77, #16 ) ) ;
#84 = CC_DESIGN_APPROVAL ( #386, ( #398 ) ) ;
#85 = CARTESIAN_POINT ( 'NONE',  ( 30.66910873820170700, 6.415678515168184300, -9.167398662499241600 ) ) ;
#86 = CARTESIAN_POINT ( 'NONE',  ( 30.80084101926690500, 6.599863067204148100, -9.000000000000001800 ) ) ;
#87 = CARTESIAN_POINT ( 'NONE',  ( 29.77057666298721400, 5.159374999999998000, 0.0000000000000000000 ) ) ;
#88 = LINE ( 'NONE', #159, #158 ) ;
#89 = FACE_OUTER_BOUND ( 'NONE', #245, .T. ) ;
#90 = B_SPLINE_CURVE_WITH_KNOTS ( 'NONE', 3,
 ( #86, #85, #165, #164 ),
 .UNSPECIFIED., .F., .F.,
 ( 4, 4 ),
 ( 0.0000000000000000000, 0.0008448058342653485500 ),
 .UNSPECIFIED. ) ;
#91 = AXIS2_PLACEMENT_3D ( 'NONE', #108, #162, #161 ) ;
#92 = DIRECTION ( 'NONE',  ( 0.0000000000000000000, 0.0000000000000000000, 1.000000000000000000 ) ) ;
#93 = VECTOR ( 'NONE', #92, 1000.000000000000000 ) ;
#94 = CARTESIAN_POINT ( 'NONE',  ( 29.77057666298721700, 5.159375000000000700, -0.5000000000000022200 ) ) ;
#95 = LINE ( 'NONE', #94, #93 ) ;
#96 = FACE_OUTER_BOUND ( 'NONE', #8, .T. ) ;
#97 = DIRECTION ( 'NONE',  ( -0.0000000000000000000, -0.0000000000000000000, 1.000000000000000000 ) ) ;
#98 = VECTOR ( 'NONE', #97, 1000.000000000000000 ) ;
#99 = CARTESIAN_POINT ( 'NONE',  ( 0.0000000000000000000, 5.159375000000000700, -9.500000000000000000 ) ) ;
#100 = LINE ( 'NONE', #99, #98 ) ;
#101 = DIRECTION ( 'NONE',  ( -0.0000000000000000000, -0.0000000000000000000, 1.000000000000000000 ) ) ;
#102 = VECTOR ( 'NONE', #101, 1000.000000000000000 ) ;
#103 = CARTESIAN_POINT ( 'NONE',  ( 6.318412079350879600E-016, -5.159375000000002500, -9.500000000000000000 ) ) ;
#104 = DIRECTION ( 'NONE',  ( 1.000000000000000000, 0.0000000000000000000, 0.0000000000000000000 ) ) ;
#105 = DIRECTION ( 'NONE',  ( -0.0000000000000000000, -0.0000000000000000000, 1.000000000000000000 ) ) ;
#106 = CARTESIAN_POINT ( 'NONE',  ( 0.0000000000000000000, 0.0000000000000000000, -9.500000000000000000 ) ) ;
#107 = PLANE ( 'NONE',  #91 ) ;
#108 = CARTESIAN_POINT ( 'NONE',  ( 0.0000000000000000000, 5.159375000000000700, -9.500000000000000000 ) ) ;
#109 = DIRECTION ( 'NONE',  ( 1.000000000000000000, 0.0000000000000000000, 0.0000000000000000000 ) ) ;
#110 = DIRECTION ( 'NONE',  ( 0.0000000000000000000, 0.0000000000000000000, 1.000000000000000000 ) ) ;
#111 = CARTESIAN_POINT ( 'NONE',  ( 0.0000000000000000000, 5.159375000000000700, 0.0000000000000000000 ) ) ;
#112 = CARTESIAN_POINT ( 'NONE',  ( 0.0000000000000000000, 0.0000000000000000000, 0.0000000000000000000 ) ) ;
#113 = DIRECTION ( 'NONE',  ( -0.5817407077556690000, 0.8133742981800773400, 0.0000000000000000000 ) ) ;
#114 = DIRECTION ( 'NONE',  ( 0.8133742981800773400, 0.5817407077556690000, -0.0000000000000000000 ) ) ;
#115 = CARTESIAN_POINT ( 'NONE',  ( 29.77057666298721700, -5.159374999999997200, -9.500000000000000000 ) ) ;
#116 = AXIS2_PLACEMENT_3D ( 'NONE', #115, #114, #113 ) ;
#117 = DIRECTION ( 'NONE',  ( 0.0000000000000000000, 0.0000000000000000000, -1.000000000000000000 ) ) ;
#118 = VECTOR ( 'NONE', #117, 1000.000000000000000 ) ;
#119 = CARTESIAN_POINT ( 'NONE',  ( 29.77057666298721700, -5.159374999999997200, -9.000000000000001800 ) ) ;
#120 = CARTESIAN_POINT ( 'NONE',  ( 29.77057666298721700, -5.159374999999997200, -9.500000000000000000 ) ) ;
#121 = DIRECTION ( 'NONE',  ( 1.000000000000000000, 1.652117596168387800E-016, 0.0000000000000000000 ) ) ;
#122 = DIRECTION ( 'NONE',  ( 1.652117596168387800E-016, -1.000000000000000000, 0.0000000000000000000 ) ) ;
#123 = CARTESIAN_POINT ( 'NONE',  ( 31.50000000000000000, -5.159374999999997200, -9.500000000000000000 ) ) ;
#124 = LINE ( 'NONE', #119, #118 ) ;
#125 = CARTESIAN_POINT ( 'NONE',  ( 29.77057666298722100, -5.159374999999998900, 0.0000000000000000000 ) ) ;
#126 = PLANE ( 'NONE',  #136 ) ;
#127 = FACE_OUTER_BOUND ( 'NONE', #62, .T. ) ;
#128 = CARTESIAN_POINT ( 'NONE',  ( 30.80084101926690500, -6.599863067204151600, -9.000000000000001800 ) ) ;
#129 = CARTESIAN_POINT ( 'NONE',  ( 30.66910873820170700, -6.415678515168186100, -9.167398662499241600 ) ) ;
#130 = CARTESIAN_POINT ( 'NONE',  ( 30.53706789536758800, -6.231062540319787700, -9.334082500175409100 ) ) ;
#131 = CARTESIAN_POINT ( 'NONE',  ( 30.40470297779861800, -6.045993452844920800, -9.500000000000000000 ) ) ;
#132 = AXIS2_PLACEMENT_3D ( 'NONE', #123, #122, #121 ) ;
#133 = FACE_OUTER_BOUND ( 'NONE', #78, .T. ) ;
#134 = B_SPLINE_CURVE_WITH_KNOTS ( 'NONE', 3,
 ( #131, #130, #129, #128 ),
 .UNSPECIFIED., .F., .F.,
 ( 4, 4 ),
 ( 0.0000000000000000000, 0.0008448058342653473600 ),
 .UNSPECIFIED. ) ;
#135 = PLANE ( 'NONE',  #132 ) ;
#136 = AXIS2_PLACEMENT_3D ( 'NONE', #277, #276, #275 ) ;
#137 = DIRECTION ( 'NONE',  ( 1.000000000000000000, 0.0000000000000000000, 0.0000000000000000000 ) ) ;
#138 = PLANE ( 'NONE',  #116 ) ;
#139 = AXIS2_PLACEMENT_3D ( 'NONE', #215, #195, #194 ) ;
#140 = B_SPLINE_CURVE_WITH_KNOTS ( 'NONE', 3,
 ( #237, #236, #235, #234 ),
 .UNSPECIFIED., .F., .F.,
 ( 4, 4 ),
 ( 0.0000000000000000000, 0.0008448058342653459500 ),
 .UNSPECIFIED. ) ;
#141 = PLANE ( 'NONE',  #143 ) ;
#142 = CARTESIAN_POINT ( 'NONE',  ( 30.80084101926690500, 6.599863067204148900, -0.5000000000000004400 ) ) ;
#143 = AXIS2_PLACEMENT_3D ( 'NONE', #231, #230, #229 ) ;
#144 = DIRECTION ( 'NONE',  ( -1.000000000000000000, 0.0000000000000000000, 0.0000000000000000000 ) ) ;
#145 = CONICAL_SURFACE ( 'NONE', #160, 31.00000000000000000, 0.7853981633974482800 ) ;
#146 = DIRECTION ( 'NONE',  ( 0.5817407077556690000, -0.8133742981800773400, 0.0000000000000000000 ) ) ;
#147 = VECTOR ( 'NONE', #146, 999.9999999999998900 ) ;
#148 = CARTESIAN_POINT ( 'NONE',  ( 29.77057666298721700, -5.159374999999997200, -9.500000000000000000 ) ) ;
#149 = CARTESIAN_POINT ( 'NONE',  ( 0.0000000000000000000, 0.0000000000000000000, 0.0000000000000000000 ) ) ;
#150 = LINE ( 'NONE', #148, #147 ) ;
#151 = CARTESIAN_POINT ( 'NONE',  ( 6.318412079350879600E-016, -5.159375000000002500, -9.500000000000000000 ) ) ;
#152 = DIRECTION ( 'NONE',  ( 1.000000000000000000, 1.652117596168387800E-016, -0.0000000000000000000 ) ) ;
#153 = VECTOR ( 'NONE', #152, 1000.000000000000000 ) ;
#154 = CARTESIAN_POINT ( 'NONE',  ( 31.50000000000000000, -5.159374999999997200, -9.500000000000000000 ) ) ;
#155 = LINE ( 'NONE', #154, #153 ) ;
#156 = DIRECTION ( 'NONE',  ( 0.0000000000000000000, 0.0000000000000000000, -1.000000000000000000 ) ) ;
#157 = DIRECTION ( 'NONE',  ( 0.5817407077556708800, 0.8133742981800758900, -0.0000000000000000000 ) ) ;
#158 = VECTOR ( 'NONE', #157, 1000.000000000000000 ) ;
#159 = CARTESIAN_POINT ( 'NONE',  ( 17.25427445657944500, -12.34058398038891400, 0.0000000000000000000 ) ) ;
#160 = AXIS2_PLACEMENT_3D ( 'NONE', #149, #156, #144 ) ;
#161 = DIRECTION ( 'NONE',  ( 0.0000000000000000000, -0.0000000000000000000, 1.000000000000000000 ) ) ;
#162 = DIRECTION ( 'NONE',  ( -0.0000000000000000000, 1.000000000000000000, 0.0000000000000000000 ) ) ;
#163 = CARTESIAN_POINT ( 'NONE',  ( 0.0000000000000000000, 5.159375000000000700, -9.500000000000000000 ) ) ;
#164 = CARTESIAN_POINT ( 'NONE',  ( 30.40470297779861400, 6.045993452844919100, -9.500000000000000000 ) ) ;
#165 = CARTESIAN_POINT ( 'NONE',  ( 30.53706789536758800, 6.231062540319785000, -9.334082500175409100 ) ) ;
#166 = CARTESIAN_POINT ( 'NONE',  ( 0.0000000000000000000, 0.0000000000000000000, -9.000000000000001800 ) ) ;
#167 = DIRECTION ( 'NONE',  ( -0.0000000000000000000, -0.0000000000000000000, 1.000000000000000000 ) ) ;
#168 = FACE_OUTER_BOUND ( 'NONE', #18, .T. ) ;
#169 = CONICAL_SURFACE ( 'NONE', #172, 31.50000000000000000, 0.7853981633974535000 ) ;
#170 = FACE_OUTER_BOUND ( 'NONE', #56, .T. ) ;
#171 = MANIFOLD_SOLID_BREP ( 'Chamfer2', #83 ) ;
#172 = AXIS2_PLACEMENT_3D ( 'NONE', #166, #167, #137 ) ;
#173 = ADVANCED_FACE ( 'NONE', ( #227 ), #225, .T. ) ;
#174 = VERTEX_POINT ( 'NONE', #221 ) ;
#175 = EDGE_CURVE ( 'NONE', #243, #177, #219, .T. ) ;
#176 = ORIENTED_EDGE ( 'NONE', *, *, #240, .T. ) ;
#177 = VERTEX_POINT ( 'NONE', #226 ) ;
#178 = ORIENTED_EDGE ( 'NONE', *, *, #175, .T. ) ;
#179 = EDGE_CURVE ( 'NONE', #174, #177, #232, .T. ) ;
#180 = EDGE_CURVE ( 'NONE', #174, #208, #200, .T. ) ;
#181 = VERTEX_POINT ( 'NONE', #220 ) ;
#182 = EDGE_CURVE ( 'NONE', #177, #183, #201, .T. ) ;
#183 = VERTEX_POINT ( 'NONE', #142 ) ;
#184 = ORIENTED_EDGE ( 'NONE', *, *, #180, .T. ) ;
#185 = ADVANCED_FACE ( 'NONE', ( #224 ), #193, .T. ) ;
#186 = VERTEX_POINT ( 'NONE', #368 ) ;
#187 = VERTEX_POINT ( 'NONE', #367 ) ;
#188 = ORIENTED_EDGE ( 'NONE', *, *, #202, .T. ) ;
#189 = DIRECTION ( 'NONE',  ( 1.000000000000000000, 0.0000000000000000000, 0.0000000000000000000 ) ) ;
#190 = DIRECTION ( 'NONE',  ( 0.0000000000000000000, 0.0000000000000000000, 1.000000000000000000 ) ) ;
#191 = CARTESIAN_POINT ( 'NONE',  ( 0.0000000000000000000, 0.0000000000000000000, -9.500000000000000000 ) ) ;
#192 = AXIS2_PLACEMENT_3D ( 'NONE', #191, #190, #189 ) ;
#193 = CYLINDRICAL_SURFACE ( 'NONE', #192, 31.50000000000000000 ) ;
#194 = DIRECTION ( 'NONE',  ( 1.000000000000000000, 0.0000000000000000000, 0.0000000000000000000 ) ) ;
#195 = DIRECTION ( 'NONE',  ( 0.0000000000000000000, 0.0000000000000000000, -1.000000000000000000 ) ) ;
#196 = CARTESIAN_POINT ( 'NONE',  ( 30.40470297779862500, -6.045993452844924400, 0.0000000000000000000 ) ) ;
#197 = CARTESIAN_POINT ( 'NONE',  ( 30.53706789536758800, -6.231062540319791200, -0.1659174998245917800 ) ) ;
#198 = CARTESIAN_POINT ( 'NONE',  ( 30.66910873820170700, -6.415678515168187900, -0.3326013375007593200 ) ) ;
#199 = CARTESIAN_POINT ( 'NONE',  ( 30.80084101926690500, -6.599863067204149800, -0.5000000000000004400 ) ) ;
#200 = B_SPLINE_CURVE_WITH_KNOTS ( 'NONE', 3,
 ( #199, #198, #197, #196 ),
 .UNSPECIFIED., .F., .F.,
 ( 4, 4 ),
 ( 1.084202172485504400E-018, 0.0008448058342653428000 ),
 .UNSPECIFIED. ) ;
#201 = CIRCLE ( 'NONE', #139, 31.50000000000000000 ) ;
#202 = EDGE_CURVE ( 'NONE', #183, #181, #412, .T. ) ;
#203 = VERTEX_POINT ( 'NONE', #410 ) ;
#204 = EDGE_CURVE ( 'NONE', #181, #187, #414, .T. ) ;
#205 = EDGE_LOOP ( 'NONE', ( #284, #239, #176, #24, #23, #64 ) ) ;
#206 = ORIENTED_EDGE ( 'NONE', *, *, #204, .T. ) ;
#207 = EDGE_CURVE ( 'NONE', #187, #174, #347, .T. ) ;
#208 = VERTEX_POINT ( 'NONE', #413 ) ;
#209 = ORIENTED_EDGE ( 'NONE', *, *, #179, .F. ) ;
#210 = EDGE_LOOP ( 'NONE', ( #244, #278, #188, #206, #279 ) ) ;
#211 = DIRECTION ( 'NONE',  ( 1.000000000000000000, 0.0000000000000000000, 0.0000000000000000000 ) ) ;
#212 = DIRECTION ( 'NONE',  ( 0.0000000000000000000, 0.0000000000000000000, -1.000000000000000000 ) ) ;
#213 = CARTESIAN_POINT ( 'NONE',  ( 0.0000000000000000000, 0.0000000000000000000, -0.5000000000000004400 ) ) ;
#214 = AXIS2_PLACEMENT_3D ( 'NONE', #213, #212, #211 ) ;
#215 = CARTESIAN_POINT ( 'NONE',  ( 0.0000000000000000000, 0.0000000000000000000, -0.5000000000000004400 ) ) ;
#216 = DIRECTION ( 'NONE',  ( -0.7071067811865474600, 0.0000000000000000000, -0.7071067811865474600 ) ) ;
#217 = VECTOR ( 'NONE', #216, 1000.000000000000100 ) ;
#218 = CARTESIAN_POINT ( 'NONE',  ( -31.00000000000000000, 0.0000000000000000000, 0.0000000000000000000 ) ) ;
#219 = LINE ( 'NONE', #218, #217 ) ;
#220 = CARTESIAN_POINT ( 'NONE',  ( 30.80084101926690500, 6.599863067204148100, -9.000000000000001800 ) ) ;
#221 = CARTESIAN_POINT ( 'NONE',  ( 30.80084101926690500, -6.599863067204149800, -0.5000000000000004400 ) ) ;
#222 = DIRECTION ( 'NONE',  ( -1.000000000000000000, 0.0000000000000000000, 0.0000000000000000000 ) ) ;
#223 = DIRECTION ( 'NONE',  ( 0.0000000000000000000, 0.0000000000000000000, -1.000000000000000000 ) ) ;
#224 = FACE_OUTER_BOUND ( 'NONE', #210, .T. ) ;
#225 = CONICAL_SURFACE ( 'NONE', #233, 31.00000000000000000, 0.7853981633974482800 ) ;
#226 = CARTESIAN_POINT ( 'NONE',  ( -31.50000000000000000, 0.0000000000000000000, -0.5000000000000004400 ) ) ;
#227 = FACE_OUTER_BOUND ( 'NONE', #241, .T. ) ;
#228 = CARTESIAN_POINT ( 'NONE',  ( 0.0000000000000000000, 0.0000000000000000000, 0.0000000000000000000 ) ) ;
#229 = DIRECTION ( 'NONE',  ( -0.5817407077556708800, -0.8133742981800758900, 0.0000000000000000000 ) ) ;
#230 = DIRECTION ( 'NONE',  ( -0.8133742981800758900, 0.5817407077556708800, 0.0000000000000000000 ) ) ;
#231 = CARTESIAN_POINT ( 'NONE',  ( 29.77057666298721700, 5.159375000000000700, -9.500000000000000000 ) ) ;
#232 = CIRCLE ( 'NONE', #214, 31.50000000000000000 ) ;
#233 = AXIS2_PLACEMENT_3D ( 'NONE', #228, #223, #222 ) ;
#234 = CARTESIAN_POINT ( 'NONE',  ( 30.80084101926690500, 6.599863067204148900, -0.5000000000000004400 ) ) ;
#235 = CARTESIAN_POINT ( 'NONE',  ( 30.66910873820171100, 6.415678515168183400, -0.3326013375007593800 ) ) ;
#236 = CARTESIAN_POINT ( 'NONE',  ( 30.53706789536758800, 6.231062540319787700, -0.1659174998245921100 ) ) ;
#237 = CARTESIAN_POINT ( 'NONE',  ( 30.40470297779861800, 6.045993452844922600, 0.0000000000000000000 ) ) ;
#238 = FACE_OUTER_BOUND ( 'NONE', #4, .T. ) ;
#239 = ORIENTED_EDGE ( 'NONE', *, *, #285, .T. ) ;
#240 = EDGE_CURVE ( 'NONE', #203, #82, #316, .T. ) ;
#241 = EDGE_LOOP ( 'NONE', ( #280, #178, #209, #184 ) ) ;
#242 = EDGE_CURVE ( 'NONE', #243, #208, #343, .T. ) ;
#243 = VERTEX_POINT ( 'NONE', #411 ) ;
#244 = ORIENTED_EDGE ( 'NONE', *, *, #179, .T. ) ;
#245 = EDGE_LOOP ( 'NONE', ( #57, #39, #34, #13 ) ) ;
#246 = CARTESIAN_POINT ( 'NONE',  ( 0.0000000000000000000, 0.0000000000000000000, 0.0000000000000000000 ) ) ;
#247 = LINE ( 'NONE', #103, #102 ) ;
#248 = DIRECTION ( 'NONE',  ( 1.000000000000000000, 1.652117596168387800E-016, -0.0000000000000000000 ) ) ;
#249 = CIRCLE ( 'NONE', #250, 5.159375000000001600 ) ;
#250 = AXIS2_PLACEMENT_3D ( 'NONE', #246, #110, #109 ) ;
#251 = DIRECTION ( 'NONE',  ( -0.5817407077556690000, 0.8133742981800773400, 0.0000000000000000000 ) ) ;
#252 = VECTOR ( 'NONE', #251, 999.9999999999998900 ) ;
#253 = CARTESIAN_POINT ( 'NONE',  ( 17.25427445657952000, 12.34058398038890500, 0.0000000000000000000 ) ) ;
#254 = CYLINDRICAL_SURFACE ( 'NONE', #274, 5.159375000000001600 ) ;
#255 = DIRECTION ( 'NONE',  ( 1.000000000000000000, 0.0000000000000000000, 0.0000000000000000000 ) ) ;
#256 = DIRECTION ( 'NONE',  ( 0.0000000000000000000, 0.0000000000000000000, 1.000000000000000000 ) ) ;
#257 = VECTOR ( 'NONE', #248, 1000.000000000000000 ) ;
#258 = CARTESIAN_POINT ( 'NONE',  ( 31.50000000000000000, -5.159374999999997200, 0.0000000000000000000 ) ) ;
#259 = LINE ( 'NONE', #253, #252 ) ;
#260 = LINE ( 'NONE', #258, #257 ) ;
#261 = DIRECTION ( 'NONE',  ( 1.000000000000000000, 0.0000000000000000000, 0.0000000000000000000 ) ) ;
#262 = DIRECTION ( 'NONE',  ( 0.0000000000000000000, 0.0000000000000000000, 1.000000000000000000 ) ) ;
#263 = CARTESIAN_POINT ( 'NONE',  ( 0.0000000000000000000, 0.0000000000000000000, -9.500000000000000000 ) ) ;
#264 = AXIS2_PLACEMENT_3D ( 'NONE', #263, #262, #261 ) ;
#265 = FACE_OUTER_BOUND ( 'NONE', #29, .T. ) ;
#266 = CIRCLE ( 'NONE', #264, 5.159375000000001600 ) ;
#267 = DIRECTION ( 'NONE',  ( -1.000000000000000000, -0.0000000000000000000, 0.0000000000000000000 ) ) ;
#268 = VECTOR ( 'NONE', #267, 1000.000000000000000 ) ;
#269 = CARTESIAN_POINT ( 'NONE',  ( 0.0000000000000000000, 5.159375000000000700, 0.0000000000000000000 ) ) ;
#270 = LINE ( 'NONE', #269, #268 ) ;
#271 = CARTESIAN_POINT ( 'NONE',  ( 6.318432186317895300E-016, -5.159375000000002500, 0.0000000000000000000 ) ) ;
#272 = AXIS2_PLACEMENT_3D ( 'NONE', #112, #256, #255 ) ;
#273 = CIRCLE ( 'NONE', #272, 31.00000000000000000 ) ;
#274 = AXIS2_PLACEMENT_3D ( 'NONE', #106, #105, #104 ) ;
#275 = DIRECTION ( 'NONE',  ( 1.000000000000000000, 0.0000000000000000000, -0.0000000000000000000 ) ) ;
#276 = DIRECTION ( 'NONE',  ( 0.0000000000000000000, 0.0000000000000000000, 1.000000000000000000 ) ) ;
#277 = CARTESIAN_POINT ( 'NONE',  ( 0.0000000000000000000, 0.0000000000000000000, 0.0000000000000000000 ) ) ;
#278 = ORIENTED_EDGE ( 'NONE', *, *, #182, .T. ) ;
#279 = ORIENTED_EDGE ( 'NONE', *, *, #207, .T. ) ;
#280 = ORIENTED_EDGE ( 'NONE', *, *, #242, .F. ) ;
#281 = EDGE_CURVE ( 'NONE', #186, #283, #333, .T. ) ;
#282 = ADVANCED_FACE ( 'NONE', ( #329 ), #342, .F. ) ;
#283 = VERTEX_POINT ( 'NONE', #334 ) ;
#284 = ORIENTED_EDGE ( 'NONE', *, *, #281, .T. ) ;
#285 = EDGE_CURVE ( 'NONE', #283, #203, #324, .T. ) ;
#286 = ORIENTED_EDGE ( 'NONE', *, *, #31, .T. ) ;
#287 = VERTEX_POINT ( 'NONE', #339 ) ;
#288 = ORIENTED_EDGE ( 'NONE', *, *, #53, .F. ) ;
#289 = ORIENTED_EDGE ( 'NONE', *, *, #73, .F. ) ;
#290 = PERSON_AND_ORGANIZATION_ROLE ( 'creator' ) ;
#291 = PERSON_AND_ORGANIZATION ( #311, #310 ) ;
#292 = CC_DESIGN_APPROVAL ( #300, ( #303 ) ) ;
#293 = APPROVAL_DATE_TIME ( #294, #300 ) ;
#294 = DATE_AND_TIME ( #295, #296 ) ;
#295 = CALENDAR_DATE ( 2012, 5, 4 ) ;
#296 = LOCAL_TIME ( 8, 49, 59.00000000000000000, #297 ) ;
#297 = COORDINATED_UNIVERSAL_TIME_OFFSET ( 5, 0, .BEHIND. ) ;
#298 = APPROVAL_PERSON_ORGANIZATION ( #302, #300, #299 ) ;
#299 = APPROVAL_ROLE ( '' ) ;
#300 = APPROVAL ( #301, 'UNSPECIFIED' ) ;
#301 = APPROVAL_STATUS ( 'not_yet_approved' ) ;
#302 = PERSON_AND_ORGANIZATION ( #311, #310 ) ;
#303 = PRODUCT_DEFINITION ( 'UNKNOWN', '', #355, #304 ) ;
#304 = DESIGN_CONTEXT ( 'detailed design', #306, 'design' ) ;
#305 = APPLICATION_PROTOCOL_DEFINITION ( 'international standard', 'config_control_design', 1994, #306 ) ;
#306 = APPLICATION_CONTEXT ( 'configuration controlled 3d designs of mechanical parts and assemblies' ) ;
#307 = CC_DESIGN_PERSON_AND_ORGANIZATION_ASSIGNMENT ( #309, #308, ( #312 ) ) ;
#308 = PERSON_AND_ORGANIZATION_ROLE ( 'design_owner' ) ;
#309 = PERSON_AND_ORGANIZATION ( #311, #310 ) ;
#310 = ORGANIZATION ( 'UNSPECIFIED', 'UNSPECIFIED', '' ) ;
#311 = PERSON ( 'UNSPECIFIED', 'UNSPECIFIED', 'UNSPECIFIED', ('UNSPECIFIED'), ('UNSPECIFIED'), ('UNSPECIFIED') ) ;
#312 = PRODUCT ( 'WDS-402-212', 'WDS-402-212', '', ( #313 ) ) ;
#313 = MECHANICAL_CONTEXT ( 'NONE', #373, 'mechanical' ) ;
#314 = APPLICATION_PROTOCOL_DEFINITION ( 'international standard', 'config_control_design', 1994, #373 ) ;
#315 = CARTESIAN_POINT ( 'NONE',  ( 0.0000000000000000000, 5.159375000000000700, -9.500000000000000000 ) ) ;
#316 = LINE ( 'NONE', #315, #341 ) ;
#317 = CARTESIAN_POINT ( 'NONE',  ( 0.0000000000000000000, 0.0000000000000000000, 0.0000000000000000000 ) ) ;
#318 = DIRECTION ( 'NONE',  ( 1.000000000000000000, 0.0000000000000000000, 0.0000000000000000000 ) ) ;
#319 = DIRECTION ( 'NONE',  ( -0.0000000000000000000, -0.0000000000000000000, 1.000000000000000000 ) ) ;
#320 = CARTESIAN_POINT ( 'NONE',  ( 0.0000000000000000000, 0.0000000000000000000, -9.000000000000001800 ) ) ;
#321 = DIRECTION ( 'NONE',  ( -0.5817407077556708800, -0.8133742981800758900, 0.0000000000000000000 ) ) ;
#322 = VECTOR ( 'NONE', #321, 1000.000000000000000 ) ;
#323 = CARTESIAN_POINT ( 'NONE',  ( 29.77057666298721700, 5.159375000000000700, -9.500000000000000000 ) ) ;
#324 = LINE ( 'NONE', #323, #322 ) ;
#325 =( LENGTH_UNIT ( ) NAMED_UNIT ( * ) SI_UNIT ( .MILLI., .METRE. ) );
#326 = DIRECTION ( 'NONE',  ( 1.000000000000000000, 0.0000000000000000000, -0.0000000000000000000 ) ) ;
#327 = DIRECTION ( 'NONE',  ( 0.0000000000000000000, 0.0000000000000000000, 1.000000000000000000 ) ) ;
#328 = CARTESIAN_POINT ( 'NONE',  ( 0.0000000000000000000, 0.0000000000000000000, -9.500000000000000000 ) ) ;
#329 = FACE_OUTER_BOUND ( 'NONE', #205, .T. ) ;
#330 = DIRECTION ( 'NONE',  ( 1.000000000000000000, 0.0000000000000000000, 0.0000000000000000000 ) ) ;
#331 = DIRECTION ( 'NONE',  ( -0.0000000000000000000, -0.0000000000000000000, -1.000000000000000000 ) ) ;
#332 = CARTESIAN_POINT ( 'NONE',  ( 0.0000000000000000000, 0.0000000000000000000, -9.500000000000000000 ) ) ;
#333 = CIRCLE ( 'NONE', #338, 30.99999999999999600 ) ;
#334 = CARTESIAN_POINT ( 'NONE',  ( 30.40470297779861400, 6.045993452844919100, -9.500000000000000000 ) ) ;
#335 = DIRECTION ( 'NONE',  ( 1.000000000000000000, 0.0000000000000000000, 0.0000000000000000000 ) ) ;
#336 = DIRECTION ( 'NONE',  ( 0.0000000000000000000, 0.0000000000000000000, 1.000000000000000000 ) ) ;
#337 = AXIS2_PLACEMENT_3D ( 'NONE', #328, #327, #326 ) ;
#338 = AXIS2_PLACEMENT_3D ( 'NONE', #332, #331, #330 ) ;
#339 = CARTESIAN_POINT ( 'NONE',  ( 30.40470297779861800, 6.045993452844922600, 0.0000000000000000000 ) ) ;
#340 = DIRECTION ( 'NONE',  ( -1.000000000000000000, -0.0000000000000000000, -0.0000000000000000000 ) ) ;
#341 = VECTOR ( 'NONE', #340, 1000.000000000000000 ) ;
#342 = PLANE ( 'NONE',  #337 ) ;
#343 = CIRCLE ( 'NONE', #379, 31.00000000000000000 ) ;
#344 = DIRECTION ( 'NONE',  ( 0.0000000000000000000, 0.0000000000000000000, 1.000000000000000000 ) ) ;
#345 = VECTOR ( 'NONE', #344, 1000.000000000000000 ) ;
#346 = CARTESIAN_POINT ( 'NONE',  ( 30.80084101926690500, -6.599863067204151600, -9.500000000000000000 ) ) ;
#347 = LINE ( 'NONE', #346, #345 ) ;
#348 = LOCAL_TIME ( 8, 49, 59.00000000000000000, #349 ) ;
#349 = COORDINATED_UNIVERSAL_TIME_OFFSET ( 5, 0, .BEHIND. ) ;
#350 = APPROVAL_PERSON_ORGANIZATION ( #354, #352, #351 ) ;
#351 = APPROVAL_ROLE ( '' ) ;
#352 = APPROVAL ( #353, 'UNSPECIFIED' ) ;
#353 = APPROVAL_STATUS ( 'not_yet_approved' ) ;
#354 = PERSON_AND_ORGANIZATION ( #311, #310 ) ;
#355 = PRODUCT_DEFINITION_FORMATION_WITH_SPECIFIED_SOURCE ( 'ANY', '', #312, .NOT_KNOWN. ) ;
#356 = CC_DESIGN_DATE_AND_TIME_ASSIGNMENT ( #358, #357, ( #303 ) ) ;
#357 = DATE_TIME_ROLE ( 'creation_date' ) ;
#358 = DATE_AND_TIME ( #359, #360 ) ;
#359 = CALENDAR_DATE ( 2012, 5, 4 ) ;
#360 = LOCAL_TIME ( 8, 49, 59.00000000000000000, #361 ) ;
#361 = COORDINATED_UNIVERSAL_TIME_OFFSET ( 5, 0, .BEHIND. ) ;
#362 = CC_DESIGN_PERSON_AND_ORGANIZATION_ASSIGNMENT ( #291, #290, ( #303 ) ) ;
#363 = AXIS2_PLACEMENT_3D ( 'NONE', #320, #319, #318 ) ;
#364 = DIRECTION ( 'NONE',  ( -0.0000000000000000000, -0.0000000000000000000, -1.000000000000000000 ) ) ;
#365 = VECTOR ( 'NONE', #364, 1000.000000000000000 ) ;
#366 = CARTESIAN_POINT ( 'NONE',  ( 30.80084101926690500, 6.599863067204149800, -9.500000000000000000 ) ) ;
#367 = CARTESIAN_POINT ( 'NONE',  ( 30.80084101926690500, -6.599863067204151600, -9.000000000000001800 ) ) ;
#368 = CARTESIAN_POINT ( 'NONE',  ( 30.40470297779861800, -6.045993452844920800, -9.500000000000000000 ) ) ;
#369 = AXIS2_PLACEMENT_3D ( 'NONE', #372, #371, #370 ) ;
#370 = DIRECTION ( 'NONE',  ( 1.000000000000000000, 0.0000000000000000000, 0.0000000000000000000 ) ) ;
#371 = DIRECTION ( 'NONE',  ( 0.0000000000000000000, 0.0000000000000000000, 1.000000000000000000 ) ) ;
#372 = CARTESIAN_POINT ( 'NONE',  ( 0.0000000000000000000, 0.0000000000000000000, 0.0000000000000000000 ) ) ;
#373 = APPLICATION_CONTEXT ( 'configuration controlled 3d designs of mechanical parts and assemblies' ) ;
#374 = ADVANCED_BREP_SHAPE_REPRESENTATION ( 'WDS-402-212', ( #171, #369 ), #375 ) ;
#375 =( GEOMETRIC_REPRESENTATION_CONTEXT ( 3 ) GLOBAL_UNCERTAINTY_ASSIGNED_CONTEXT ( ( #376 ) ) GLOBAL_UNIT_ASSIGNED_CONTEXT ( ( #325, #378, #377 ) ) REPRESENTATION_CONTEXT ( 'NONE', 'WORKASPACE' ) );
#376 = UNCERTAINTY_MEASURE_WITH_UNIT (LENGTH_MEASURE( 1.000000000000000100E-005 ), #325, 'distance_accuracy_value', 'NONE');
#377 =( NAMED_UNIT ( * ) SI_UNIT ( $, .STERADIAN. ) SOLID_ANGLE_UNIT ( ) );
#378 =( NAMED_UNIT ( * ) PLANE_ANGLE_UNIT ( ) SI_UNIT ( $, .RADIAN. ) );
#379 = AXIS2_PLACEMENT_3D ( 'NONE', #317, #336, #335 ) ;
#380 = DATE_AND_TIME ( #381, #382 ) ;
#381 = CALENDAR_DATE ( 2012, 5, 4 ) ;
#382 = LOCAL_TIME ( 8, 49, 59.00000000000000000, #383 ) ;
#383 = COORDINATED_UNIVERSAL_TIME_OFFSET ( 5, 0, .BEHIND. ) ;
#384 = APPROVAL_PERSON_ORGANIZATION ( #388, #386, #385 ) ;
#385 = APPROVAL_ROLE ( '' ) ;
#386 = APPROVAL ( #387, 'UNSPECIFIED' ) ;
#387 = APPROVAL_STATUS ( 'not_yet_approved' ) ;
#388 = PERSON_AND_ORGANIZATION ( #311, #310 ) ;
#389 = CC_DESIGN_DATE_AND_TIME_ASSIGNMENT ( #391, #390, ( #398 ) ) ;
#390 = DATE_TIME_ROLE ( 'classification_date' ) ;
#391 = DATE_AND_TIME ( #392, #393 ) ;
#392 = CALENDAR_DATE ( 2012, 5, 4 ) ;
#393 = LOCAL_TIME ( 8, 49, 59.00000000000000000, #394 ) ;
#394 = COORDINATED_UNIVERSAL_TIME_OFFSET ( 5, 0, .BEHIND. ) ;
#395 = CC_DESIGN_PERSON_AND_ORGANIZATION_ASSIGNMENT ( #397, #396, ( #398 ) ) ;
#396 = PERSON_AND_ORGANIZATION_ROLE ( 'classification_officer' ) ;
#397 = PERSON_AND_ORGANIZATION ( #311, #310 ) ;
#398 = SECURITY_CLASSIFICATION ( '', '', #399 ) ;
#399 = SECURITY_CLASSIFICATION_LEVEL ( 'unclassified' ) ;
#400 = CC_DESIGN_PERSON_AND_ORGANIZATION_ASSIGNMENT ( #402, #401, ( #355 ) ) ;
#401 = PERSON_AND_ORGANIZATION_ROLE ( 'design_supplier' ) ;
#402 = PERSON_AND_ORGANIZATION ( #311, #310 ) ;
#403 = CC_DESIGN_PERSON_AND_ORGANIZATION_ASSIGNMENT ( #405, #404, ( #355 ) ) ;
#404 = PERSON_AND_ORGANIZATION_ROLE ( 'creator' ) ;
#405 = PERSON_AND_ORGANIZATION ( #311, #310 ) ;
#406 = CC_DESIGN_APPROVAL ( #352, ( #355 ) ) ;
#407 = APPROVAL_DATE_TIME ( #408, #352 ) ;
#408 = DATE_AND_TIME ( #409, #348 ) ;
#409 = CALENDAR_DATE ( 2012, 5, 4 ) ;
#410 = CARTESIAN_POINT ( 'NONE',  ( 29.77057666298721700, 5.159375000000000700, -9.500000000000000000 ) ) ;
#411 = CARTESIAN_POINT ( 'NONE',  ( -31.00000000000000000, 0.0000000000000000000, 0.0000000000000000000 ) ) ;
#412 = LINE ( 'NONE', #366, #365 ) ;
#413 = CARTESIAN_POINT ( 'NONE',  ( 30.40470297779862500, -6.045993452844924400, 0.0000000000000000000 ) ) ;
#414 = CIRCLE ( 'NONE', #363, 31.50000000000000000 ) ;
ENDSEC;
END-ISO-10303-21;
