ISO-10303-21;
HEADER;
FILE_DESCRIPTION (( 'STEP AP203' ),
    '1' );
FILE_NAME ('WDS-402-208.step',
    '2012-04-05T12:48:42',
    ( 'SysAdmin' ),
    ( 'SolidWorks' ),
    'SwSTEP 2.0',
    'SolidWorks 2012',
    '' );
FILE_SCHEMA (( 'CONFIG_CONTROL_DESIGN' ));
ENDSEC;

DATA;
#1 = DIRECTION ( 'NONE',  ( 1.000000000000000000, 0.0000000000000000000, -0.0000000000000000000 ) ) ;
#2 = MECHANICAL_CONTEXT ( 'NONE', #4, 'mechanical' ) ;
#3 = APPLICATION_PROTOCOL_DEFINITION ( 'international standard', 'config_control_design', 1994, #4 ) ;
#4 = APPLICATION_CONTEXT ( 'configuration controlled 3d designs of mechanical parts and assemblies' ) ;
#5 = PERSON ( 'UNSPECIFIED', 'UNSPECIFIED', 'UNSPECIFIED', ('UNSPECIFIED'), ('UNSPECIFIED'), ('UNSPECIFIED') ) ;
#6 = AXIS2_PLACEMENT_3D ( 'NONE', #18, #51, #50 ) ;
#7 = CARTESIAN_POINT ( 'NONE',  ( 17.84074826126400000, -6.535112965986551900, -6.000000000000005300 ) ) ;
#8 = CARTESIAN_POINT ( 'NONE',  ( 17.51558650800810200, -5.954345411586767300, 0.0000000000000000000 ) ) ;
#9 = AXIS2_PLACEMENT_3D ( 'NONE', #19, #22, #46 ) ;
#10 = DIRECTION ( 'NONE',  ( -0.0000000000000000000, -0.0000000000000000000, -1.000000000000000000 ) ) ;
#11 = VECTOR ( 'NONE', #10, 1000.000000000000000 ) ;
#12 = CARTESIAN_POINT ( 'NONE',  ( 17.84074826126399700, 6.535112965986550100, -6.500000000000000000 ) ) ;
#13 = LINE ( 'NONE', #12, #11 ) ;
#14 = DIRECTION ( 'NONE',  ( 1.000000000000000000, 0.0000000000000000000, 0.0000000000000000000 ) ) ;
#15 = DIRECTION ( 'NONE',  ( 0.0000000000000000000, 0.0000000000000000000, -1.000000000000000000 ) ) ;
#16 = CARTESIAN_POINT ( 'NONE',  ( 0.0000000000000000000, 0.0000000000000000000, -0.5000000000000004400 ) ) ;
#17 = CIRCLE ( 'NONE', #146, 19.00000000000000000 ) ;
#18 = CARTESIAN_POINT ( 'NONE',  ( 0.0000000000000000000, 0.0000000000000000000, 0.0000000000000000000 ) ) ;
#19 = CARTESIAN_POINT ( 'NONE',  ( 17.07049626345188300, -5.159374999999997200, -6.500000000000000000 ) ) ;
#20 = DIRECTION ( 'NONE',  ( 1.000000000000000000, 0.0000000000000000000, 0.0000000000000000000 ) ) ;
#21 = DIRECTION ( 'NONE',  ( 0.0000000000000000000, 0.0000000000000000000, 1.000000000000000000 ) ) ;
#22 = DIRECTION ( 'NONE',  ( 0.8725496152785288100, 0.4885255048380701700, -0.0000000000000000000 ) ) ;
#23 = CYLINDRICAL_SURFACE ( 'NONE', #80, 19.00000000000000000 ) ;
#24 = CARTESIAN_POINT ( 'NONE',  ( 17.51558650800810200, -5.954345411586767300, 0.0000000000000000000 ) ) ;
#25 = CARTESIAN_POINT ( 'NONE',  ( 17.62438187244720200, -6.148663522811874700, -0.1655487444035012000 ) ) ;
#26 = CARTESIAN_POINT ( 'NONE',  ( 17.73275804806296900, -6.342232925846907700, -0.3322568916001885100 ) ) ;
#27 = CARTESIAN_POINT ( 'NONE',  ( 17.84074826126400000, -6.535112965986552800, -0.5000000000000004400 ) ) ;
#28 = FACE_OUTER_BOUND ( 'NONE', #53, .T. ) ;
#29 = CIRCLE ( 'NONE', #6, 18.49999999999999600 ) ;
#30 = CARTESIAN_POINT ( 'NONE',  ( 17.84074826126400000, 6.535112965986551900, -0.5000000000000004400 ) ) ;
#31 = CARTESIAN_POINT ( 'NONE',  ( 17.51558650800810600, -5.954345411586770900, -6.500000000000000000 ) ) ;
#32 = CARTESIAN_POINT ( 'NONE',  ( 17.84074826126400000, -6.535112965986551900, -6.000000000000005300 ) ) ;
#33 = CARTESIAN_POINT ( 'NONE',  ( 17.73275804806296900, -6.342232925846908600, -6.167743108399814200 ) ) ;
#34 = CARTESIAN_POINT ( 'NONE',  ( 17.62438187244720600, -6.148663522811877300, -6.334451255596500000 ) ) ;
#35 = CARTESIAN_POINT ( 'NONE',  ( 17.51558650800810600, -5.954345411586770900, -6.500000000000000000 ) ) ;
#36 = DIRECTION ( 'NONE',  ( 1.826024711554533700E-016, -1.000000000000000000, 0.0000000000000000000 ) ) ;
#37 = B_SPLINE_CURVE_WITH_KNOTS ( 'NONE', 3,
 ( #35, #34, #33, #32 ),
 .UNSPECIFIED., .F., .F.,
 ( 4, 4 ),
 ( 0.0000000000000000000, 0.0008324788994466746900 ),
 .UNSPECIFIED. ) ;
#38 = CARTESIAN_POINT ( 'NONE',  ( 17.51558650800810600, 5.954345411586770900, -6.500000000000000000 ) ) ;
#39 = CARTESIAN_POINT ( 'NONE',  ( 17.62438187244720600, 6.148663522811877300, -6.334451255596501800 ) ) ;
#40 = CARTESIAN_POINT ( 'NONE',  ( 17.73275804806296900, 6.342232925846908600, -6.167743108399815100 ) ) ;
#41 = CARTESIAN_POINT ( 'NONE',  ( 17.84074826126400000, 6.535112965986552800, -6.000000000000005300 ) ) ;
#42 = DIRECTION ( 'NONE',  ( 0.0000000000000000000, 0.0000000000000000000, -1.000000000000000000 ) ) ;
#43 = AXIS2_PLACEMENT_3D ( 'NONE', #89, #95, #94 ) ;
#44 = B_SPLINE_CURVE_WITH_KNOTS ( 'NONE', 3,
 ( #41, #40, #39, #38 ),
 .UNSPECIFIED., .F., .F.,
 ( 4, 4 ),
 ( 0.0000000000000000000, 0.0008324788994466740400 ),
 .UNSPECIFIED. ) ;
#45 = PLANE ( 'NONE',  #103 ) ;
#46 = DIRECTION ( 'NONE',  ( -0.4885255048380701700, 0.8725496152785288100, 0.0000000000000000000 ) ) ;
#47 = AXIS2_PLACEMENT_3D ( 'NONE', #112, #42, #102 ) ;
#48 = FACE_OUTER_BOUND ( 'NONE', #167, .T. ) ;
#49 = FACE_OUTER_BOUND ( 'NONE', #85, .T. ) ;
#50 = DIRECTION ( 'NONE',  ( 1.000000000000000000, 0.0000000000000000000, 0.0000000000000000000 ) ) ;
#51 = DIRECTION ( 'NONE',  ( 0.0000000000000000000, 0.0000000000000000000, 1.000000000000000000 ) ) ;
#52 = FACE_OUTER_BOUND ( 'NONE', #72, .T. ) ;
#53 = EDGE_LOOP ( 'NONE', ( #185, #62, #61, #203, #205 ) ) ;
#54 = EDGE_CURVE ( 'NONE', #198, #68, #145, .T. ) ;
#55 = VERTEX_POINT ( 'NONE', #31 ) ;
#56 = VERTEX_POINT ( 'NONE', #30 ) ;
#57 = ORIENTED_EDGE ( 'NONE', *, *, #54, .T. ) ;
#58 = ORIENTED_EDGE ( 'NONE', *, *, #188, .T. ) ;
#59 = ADVANCED_FACE ( 'NONE', ( #28 ), #23, .T. ) ;
#60 = EDGE_CURVE ( 'NONE', #200, #56, #17, .T. ) ;
#61 = ORIENTED_EDGE ( 'NONE', *, *, #63, .T. ) ;
#62 = ORIENTED_EDGE ( 'NONE', *, *, #60, .T. ) ;
#63 = EDGE_CURVE ( 'NONE', #56, #64, #13, .T. ) ;
#64 = VERTEX_POINT ( 'NONE', #141 ) ;
#65 = ORIENTED_EDGE ( 'NONE', *, *, #199, .F. ) ;
#66 = EDGE_CURVE ( 'NONE', #197, #68, #29, .T. ) ;
#67 = EDGE_LOOP ( 'NONE', ( #195, #187, #65, #57 ) ) ;
#68 = VERTEX_POINT ( 'NONE', #8 ) ;
#69 = VERTEX_POINT ( 'NONE', #7 ) ;
#70 = ORIENTED_EDGE ( 'NONE', *, *, #204, .F. ) ;
#71 = ADVANCED_FACE ( 'NONE', ( #52 ), #142, .T. ) ;
#72 = EDGE_LOOP ( 'NONE', ( #73, #70, #75, #78, #76, #74 ) ) ;
#73 = ORIENTED_EDGE ( 'NONE', *, *, #54, .F. ) ;
#74 = ORIENTED_EDGE ( 'NONE', *, *, #159, .F. ) ;
#75 = ORIENTED_EDGE ( 'NONE', *, *, #116, .F. ) ;
#76 = ORIENTED_EDGE ( 'NONE', *, *, #177, .F. ) ;
#77 = ORIENTED_EDGE ( 'NONE', *, *, #193, .F. ) ;
#78 = ORIENTED_EDGE ( 'NONE', *, *, #139, .F. ) ;
#79 = CARTESIAN_POINT ( 'NONE',  ( 0.0000000000000000000, 0.0000000000000000000, -6.500000000000000000 ) ) ;
#80 = AXIS2_PLACEMENT_3D ( 'NONE', #79, #21, #20 ) ;
#81 = ORIENTED_EDGE ( 'NONE', *, *, #171, .F. ) ;
#82 = ORIENTED_EDGE ( 'NONE', *, *, #137, .F. ) ;
#83 = ORIENTED_EDGE ( 'NONE', *, *, #118, .F. ) ;
#84 = EDGE_LOOP ( 'NONE', ( #178, #156, #123, #183 ) ) ;
#85 = EDGE_LOOP ( 'NONE', ( #158, #122, #166, #151 ) ) ;
#86 = ORIENTED_EDGE ( 'NONE', *, *, #159, .T. ) ;
#87 = ORIENTED_EDGE ( 'NONE', *, *, #138, .T. ) ;
#88 = AXIS2_PLACEMENT_3D ( 'NONE', #100, #98, #1 ) ;
#89 = CARTESIAN_POINT ( 'NONE',  ( 0.0000000000000000000, 0.0000000000000000000, 0.0000000000000000000 ) ) ;
#90 = DIRECTION ( 'NONE',  ( -0.4885255048380701700, -0.8725496152785288100, 0.0000000000000000000 ) ) ;
#91 = DIRECTION ( 'NONE',  ( -0.8725496152785288100, 0.4885255048380701700, 0.0000000000000000000 ) ) ;
#92 = CARTESIAN_POINT ( 'NONE',  ( 17.07049626345188300, 5.159374999999997200, -6.500000000000000000 ) ) ;
#93 = AXIS2_PLACEMENT_3D ( 'NONE', #92, #91, #90 ) ;
#94 = DIRECTION ( 'NONE',  ( 1.000000000000000000, 0.0000000000000000000, 0.0000000000000000000 ) ) ;
#95 = DIRECTION ( 'NONE',  ( 0.0000000000000000000, 0.0000000000000000000, 1.000000000000000000 ) ) ;
#96 = CARTESIAN_POINT ( 'NONE',  ( 17.51558650800810200, 5.954345411586767300, 0.0000000000000000000 ) ) ;
#97 = DIRECTION ( 'NONE',  ( 1.000000000000000000, 1.826024711554533700E-016, 0.0000000000000000000 ) ) ;
#98 = DIRECTION ( 'NONE',  ( 0.0000000000000000000, 0.0000000000000000000, 1.000000000000000000 ) ) ;
#99 = FACE_OUTER_BOUND ( 'NONE', #126, .T. ) ;
#100 = CARTESIAN_POINT ( 'NONE',  ( 0.0000000000000000000, 0.0000000000000000000, 0.0000000000000000000 ) ) ;
#101 = CARTESIAN_POINT ( 'NONE',  ( 17.07049626345188300, 5.159375000000000700, 0.0000000000000000000 ) ) ;
#102 = DIRECTION ( 'NONE',  ( -1.000000000000000000, 0.0000000000000000000, 0.0000000000000000000 ) ) ;
#103 = AXIS2_PLACEMENT_3D ( 'NONE', #114, #36, #97 ) ;
#104 = PLANE ( 'NONE',  #93 ) ;
#105 = CONICAL_SURFACE ( 'NONE', #47, 18.49999999999999600, 0.7853981633974517200 ) ;
#106 = CARTESIAN_POINT ( 'NONE',  ( 17.84074826126400000, 6.535112965986551900, -0.5000000000000004400 ) ) ;
#107 = CARTESIAN_POINT ( 'NONE',  ( 17.73275804806296900, 6.342232925846907700, -0.3322568916001890100 ) ) ;
#108 = CARTESIAN_POINT ( 'NONE',  ( 17.62438187244720200, 6.148663522811874700, -0.1655487444035015400 ) ) ;
#109 = CARTESIAN_POINT ( 'NONE',  ( 17.51558650800810200, 5.954345411586767300, 0.0000000000000000000 ) ) ;
#110 = FACE_OUTER_BOUND ( 'NONE', #84, .T. ) ;
#111 = PLANE ( 'NONE',  #88 ) ;
#112 = CARTESIAN_POINT ( 'NONE',  ( 0.0000000000000000000, 0.0000000000000000000, 0.0000000000000000000 ) ) ;
#113 = B_SPLINE_CURVE_WITH_KNOTS ( 'NONE', 3,
 ( #109, #108, #107, #106 ),
 .UNSPECIFIED., .F., .F.,
 ( 4, 4 ),
 ( 0.0000000000000000000, 0.0008324788994466817300 ),
 .UNSPECIFIED. ) ;
#114 = CARTESIAN_POINT ( 'NONE',  ( 19.00000000000000400, -5.159374999999998900, -6.500000000000000000 ) ) ;
#115 = EDGE_CURVE ( 'NONE', #64, #190, #44, .T. ) ;
#116 = EDGE_CURVE ( 'NONE', #55, #69, #37, .T. ) ;
#117 = ORIENTED_EDGE ( 'NONE', *, *, #206, .F. ) ;
#118 = EDGE_CURVE ( 'NONE', #130, #56, #113, .T. ) ;
#119 = ORIENTED_EDGE ( 'NONE', *, *, #115, .F. ) ;
#120 = ADVANCED_FACE ( 'NONE', ( #49 ), #105, .T. ) ;
#121 = ADVANCED_FACE ( 'NONE', ( #110 ), #45, .F. ) ;
#122 = ORIENTED_EDGE ( 'NONE', *, *, #135, .F. ) ;
#123 = ORIENTED_EDGE ( 'NONE', *, *, #148, .F. ) ;
#124 = ORIENTED_EDGE ( 'NONE', *, *, #63, .F. ) ;
#125 = ADVANCED_FACE ( 'NONE', ( #48 ), #104, .F. ) ;
#126 = EDGE_LOOP ( 'NONE', ( #136, #143, #132, #176, #86, #168, #181 ) ) ;
#127 = VERTEX_POINT ( 'NONE', #101 ) ;
#128 = ORIENTED_EDGE ( 'NONE', *, *, #148, .T. ) ;
#129 = ORIENTED_EDGE ( 'NONE', *, *, #139, .T. ) ;
#130 = VERTEX_POINT ( 'NONE', #96 ) ;
#131 = ADVANCED_FACE ( 'NONE', ( #99 ), #111, .T. ) ;
#132 = ORIENTED_EDGE ( 'NONE', *, *, #135, .T. ) ;
#133 = VERTEX_POINT ( 'NONE', #237 ) ;
#134 = VERTEX_POINT ( 'NONE', #236 ) ;
#135 = EDGE_CURVE ( 'NONE', #130, #197, #316, .T. ) ;
#136 = ORIENTED_EDGE ( 'NONE', *, *, #138, .F. ) ;
#137 = EDGE_CURVE ( 'NONE', #127, #130, #291, .T. ) ;
#138 = EDGE_CURVE ( 'NONE', #127, #134, #287, .T. ) ;
#139 = EDGE_CURVE ( 'NONE', #149, #55, #282, .T. ) ;
#140 = PRODUCT ( 'WDS-402-208', 'WDS-402-208', '', ( #2 ) ) ;
#141 = CARTESIAN_POINT ( 'NONE',  ( 17.84074826126400000, 6.535112965986552800, -6.000000000000005300 ) ) ;
#142 = PLANE ( 'NONE',  #9 ) ;
#143 = ORIENTED_EDGE ( 'NONE', *, *, #137, .T. ) ;
#144 = CLOSED_SHELL ( 'NONE', ( #186, #59, #189, #131, #161, #179, #121, #184, #120, #125, #71 ) ) ;
#145 = B_SPLINE_CURVE_WITH_KNOTS ( 'NONE', 3,
 ( #27, #26, #25, #24 ),
 .UNSPECIFIED., .F., .F.,
 ( 4, 4 ),
 ( 3.252606517456513300E-019, 0.0008324788994466817300 ),
 .UNSPECIFIED. ) ;
#146 = AXIS2_PLACEMENT_3D ( 'NONE', #16, #15, #14 ) ;
#147 = MANIFOLD_SOLID_BREP ( 'Chamfer2', #144 ) ;
#148 = EDGE_CURVE ( 'NONE', #133, #149, #283, .T. ) ;
#149 = VERTEX_POINT ( 'NONE', #277 ) ;
#150 = ORIENTED_EDGE ( 'NONE', *, *, #188, .F. ) ;
#151 = ORIENTED_EDGE ( 'NONE', *, *, #60, .F. ) ;
#152 = ORIENTED_EDGE ( 'NONE', *, *, #116, .T. ) ;
#153 = ORIENTED_EDGE ( 'NONE', *, *, #209, .F. ) ;
#154 = ORIENTED_EDGE ( 'NONE', *, *, #201, .F. ) ;
#155 = ORIENTED_EDGE ( 'NONE', *, *, #171, .T. ) ;
#156 = ORIENTED_EDGE ( 'NONE', *, *, #177, .T. ) ;
#157 = ORIENTED_EDGE ( 'NONE', *, *, #163, .F. ) ;
#158 = ORIENTED_EDGE ( 'NONE', *, *, #196, .F. ) ;
#159 = EDGE_CURVE ( 'NONE', #68, #165, #273, .T. ) ;
#160 = ORIENTED_EDGE ( 'NONE', *, *, #162, .F. ) ;
#161 = ADVANCED_FACE ( 'NONE', ( #270 ), #238, .F. ) ;
#162 = EDGE_CURVE ( 'NONE', #133, #175, #264, .T. ) ;
#163 = EDGE_CURVE ( 'NONE', #194, #134, #259, .T. ) ;
#164 = EDGE_CURVE ( 'NONE', #175, #165, #254, .T. ) ;
#165 = VERTEX_POINT ( 'NONE', #265 ) ;
#166 = ORIENTED_EDGE ( 'NONE', *, *, #118, .T. ) ;
#167 = EDGE_LOOP ( 'NONE', ( #119, #124, #83, #82, #81, #77 ) ) ;
#168 = ORIENTED_EDGE ( 'NONE', *, *, #164, .F. ) ;
#169 = EDGE_CURVE ( 'NONE', #134, #175, #271, .T. ) ;
#170 = ORIENTED_EDGE ( 'NONE', *, *, #169, .T. ) ;
#171 = EDGE_CURVE ( 'NONE', #202, #127, #249, .T. ) ;
#172 = ORIENTED_EDGE ( 'NONE', *, *, #163, .T. ) ;
#173 = EDGE_LOOP ( 'NONE', ( #153, #155, #87, #157 ) ) ;
#174 = EDGE_LOOP ( 'NONE', ( #170, #160, #150, #172 ) ) ;
#175 = VERTEX_POINT ( 'NONE', #250 ) ;
#176 = ORIENTED_EDGE ( 'NONE', *, *, #66, .T. ) ;
#177 = EDGE_CURVE ( 'NONE', #165, #149, #244, .T. ) ;
#178 = ORIENTED_EDGE ( 'NONE', *, *, #164, .T. ) ;
#179 = ADVANCED_FACE ( 'NONE', ( #329 ), #239, .F. ) ;
#180 = ORIENTED_EDGE ( 'NONE', *, *, #115, .T. ) ;
#181 = ORIENTED_EDGE ( 'NONE', *, *, #169, .F. ) ;
#182 = EDGE_LOOP ( 'NONE', ( #154, #180, #117, #152 ) ) ;
#183 = ORIENTED_EDGE ( 'NONE', *, *, #162, .T. ) ;
#184 = ADVANCED_FACE ( 'NONE', ( #331 ), #323, .T. ) ;
#185 = ORIENTED_EDGE ( 'NONE', *, *, #199, .T. ) ;
#186 = ADVANCED_FACE ( 'NONE', ( #324 ), #325, .T. ) ;
#187 = ORIENTED_EDGE ( 'NONE', *, *, #196, .T. ) ;
#188 = EDGE_CURVE ( 'NONE', #194, #133, #330, .T. ) ;
#189 = ADVANCED_FACE ( 'NONE', ( #223 ), #232, .F. ) ;
#190 = VERTEX_POINT ( 'NONE', #227 ) ;
#191 = ORIENTED_EDGE ( 'NONE', *, *, #193, .T. ) ;
#192 = ORIENTED_EDGE ( 'NONE', *, *, #206, .T. ) ;
#193 = EDGE_CURVE ( 'NONE', #190, #202, #221, .T. ) ;
#194 = VERTEX_POINT ( 'NONE', #218 ) ;
#195 = ORIENTED_EDGE ( 'NONE', *, *, #66, .F. ) ;
#196 = EDGE_CURVE ( 'NONE', #197, #200, #213, .T. ) ;
#197 = VERTEX_POINT ( 'NONE', #214 ) ;
#198 = VERTEX_POINT ( 'NONE', #311 ) ;
#199 = EDGE_CURVE ( 'NONE', #198, #200, #222, .T. ) ;
#200 = VERTEX_POINT ( 'NONE', #312 ) ;
#201 = EDGE_CURVE ( 'NONE', #64, #69, #309, .T. ) ;
#202 = VERTEX_POINT ( 'NONE', #310 ) ;
#203 = ORIENTED_EDGE ( 'NONE', *, *, #201, .T. ) ;
#204 = EDGE_CURVE ( 'NONE', #69, #198, #308, .T. ) ;
#205 = ORIENTED_EDGE ( 'NONE', *, *, #204, .T. ) ;
#206 = EDGE_CURVE ( 'NONE', #55, #190, #297, .T. ) ;
#207 = EDGE_LOOP ( 'NONE', ( #192, #191, #208, #58, #128, #129 ) ) ;
#208 = ORIENTED_EDGE ( 'NONE', *, *, #209, .T. ) ;
#209 = EDGE_CURVE ( 'NONE', #202, #194, #342, .T. ) ;
#210 = DIRECTION ( 'NONE',  ( -0.7071067811865500200, 0.0000000000000000000, -0.7071067811865451300 ) ) ;
#211 = VECTOR ( 'NONE', #210, 1000.000000000000100 ) ;
#212 = CARTESIAN_POINT ( 'NONE',  ( -18.49999999999999600, 0.0000000000000000000, 0.0000000000000000000 ) ) ;
#213 = LINE ( 'NONE', #212, #211 ) ;
#214 = CARTESIAN_POINT ( 'NONE',  ( -18.49999999999999600, 0.0000000000000000000, 0.0000000000000000000 ) ) ;
#215 = DIRECTION ( 'NONE',  ( -0.4885255048380701700, -0.8725496152785288100, 0.0000000000000000000 ) ) ;
#216 = VECTOR ( 'NONE', #215, 1000.000000000000000 ) ;
#217 = CARTESIAN_POINT ( 'NONE',  ( 17.07049626345188300, 5.159374999999997200, -6.500000000000000000 ) ) ;
#218 = CARTESIAN_POINT ( 'NONE',  ( 0.0000000000000000000, 5.159375000000000700, -6.500000000000000000 ) ) ;
#219 = DIRECTION ( 'NONE',  ( 1.000000000000000000, 0.0000000000000000000, -0.0000000000000000000 ) ) ;
#220 = DIRECTION ( 'NONE',  ( 0.0000000000000000000, 0.0000000000000000000, 1.000000000000000000 ) ) ;
#221 = LINE ( 'NONE', #217, #216 ) ;
#222 = CIRCLE ( 'NONE', #307, 19.00000000000000000 ) ;
#223 = FACE_OUTER_BOUND ( 'NONE', #207, .T. ) ;
#224 = DIRECTION ( 'NONE',  ( 1.000000000000000000, 0.0000000000000000000, 0.0000000000000000000 ) ) ;
#225 = DIRECTION ( 'NONE',  ( 0.0000000000000000000, 0.0000000000000000000, 1.000000000000000000 ) ) ;
#226 = CARTESIAN_POINT ( 'NONE',  ( 0.0000000000000000000, 0.0000000000000000000, -6.500000000000000000 ) ) ;
#227 = CARTESIAN_POINT ( 'NONE',  ( 17.51558650800810600, 5.954345411586770900, -6.500000000000000000 ) ) ;
#228 = AXIS2_PLACEMENT_3D ( 'NONE', #303, #302, #301 ) ;
#229 = DIRECTION ( 'NONE',  ( -1.000000000000000000, 0.0000000000000000000, 0.0000000000000000000 ) ) ;
#230 = DIRECTION ( 'NONE',  ( 0.0000000000000000000, 0.0000000000000000000, -1.000000000000000000 ) ) ;
#231 = CARTESIAN_POINT ( 'NONE',  ( 0.0000000000000000000, 0.0000000000000000000, 0.0000000000000000000 ) ) ;
#232 = PLANE ( 'NONE',  #319 ) ;
#233 = DIRECTION ( 'NONE',  ( 1.000000000000000000, 0.0000000000000000000, 0.0000000000000000000 ) ) ;
#234 = DIRECTION ( 'NONE',  ( -0.0000000000000000000, -0.0000000000000000000, 1.000000000000000000 ) ) ;
#235 = CARTESIAN_POINT ( 'NONE',  ( 0.0000000000000000000, 0.0000000000000000000, -6.000000000000005300 ) ) ;
#236 = CARTESIAN_POINT ( 'NONE',  ( 0.0000000000000000000, 5.159375000000000700, 0.0000000000000000000 ) ) ;
#237 = CARTESIAN_POINT ( 'NONE',  ( 6.318412079350879600E-016, -5.159375000000002500, -6.500000000000000000 ) ) ;
#238 = CYLINDRICAL_SURFACE ( 'NONE', #280, 5.159375000000001600 ) ;
#239 = PLANE ( 'NONE',  #328 ) ;
#240 = DIRECTION ( 'NONE',  ( -9.723378473666686600E-017, 8.877564686356388900E-033, 1.000000000000000000 ) ) ;
#241 = VECTOR ( 'NONE', #240, 1000.000000000000000 ) ;
#242 = CARTESIAN_POINT ( 'NONE',  ( 17.07049626345188300, 5.159374999999998900, -0.4999999999999952300 ) ) ;
#243 = CARTESIAN_POINT ( 'NONE',  ( 0.0000000000000000000, 5.159375000000000700, -6.500000000000000000 ) ) ;
#244 = LINE ( 'NONE', #260, #327 ) ;
#245 = DIRECTION ( 'NONE',  ( 1.000000000000000000, 0.0000000000000000000, 0.0000000000000000000 ) ) ;
#246 = DIRECTION ( 'NONE',  ( 0.0000000000000000000, 0.0000000000000000000, 1.000000000000000000 ) ) ;
#247 = CARTESIAN_POINT ( 'NONE',  ( 0.0000000000000000000, 0.0000000000000000000, 0.0000000000000000000 ) ) ;
#248 = CARTESIAN_POINT ( 'NONE',  ( 0.0000000000000000000, 0.0000000000000000000, -6.500000000000000000 ) ) ;
#249 = LINE ( 'NONE', #242, #241 ) ;
#250 = CARTESIAN_POINT ( 'NONE',  ( 6.318424855714771400E-016, -5.159375000000002500, 0.0000000000000000000 ) ) ;
#251 = DIRECTION ( 'NONE',  ( 1.000000000000000000, 1.826024711554533400E-016, -0.0000000000000000000 ) ) ;
#252 = VECTOR ( 'NONE', #251, 1000.000000000000000 ) ;
#253 = CARTESIAN_POINT ( 'NONE',  ( 19.00000000000000400, -5.159374999999998900, 0.0000000000000000000 ) ) ;
#254 = LINE ( 'NONE', #253, #252 ) ;
#255 = AXIS2_PLACEMENT_3D ( 'NONE', #247, #246, #245 ) ;
#256 = DIRECTION ( 'NONE',  ( -0.0000000000000000000, -0.0000000000000000000, 1.000000000000000000 ) ) ;
#257 = VECTOR ( 'NONE', #256, 1000.000000000000000 ) ;
#258 = CARTESIAN_POINT ( 'NONE',  ( 0.0000000000000000000, 5.159375000000000700, -6.500000000000000000 ) ) ;
#259 = LINE ( 'NONE', #258, #257 ) ;
#260 = CARTESIAN_POINT ( 'NONE',  ( 17.07049626345188300, -5.159374999999998900, -6.000000000000011500 ) ) ;
#261 = DIRECTION ( 'NONE',  ( -0.0000000000000000000, -0.0000000000000000000, 1.000000000000000000 ) ) ;
#262 = VECTOR ( 'NONE', #261, 1000.000000000000000 ) ;
#263 = CARTESIAN_POINT ( 'NONE',  ( 6.318412079350879600E-016, -5.159375000000002500, -6.500000000000000000 ) ) ;
#264 = LINE ( 'NONE', #263, #262 ) ;
#265 = CARTESIAN_POINT ( 'NONE',  ( 17.07049626345188300, -5.159374999999998900, 0.0000000000000000000 ) ) ;
#266 = CARTESIAN_POINT ( 'NONE',  ( 0.0000000000000000000, 0.0000000000000000000, -6.500000000000000000 ) ) ;
#267 = DIRECTION ( 'NONE',  ( 1.000000000000000000, 0.0000000000000000000, 0.0000000000000000000 ) ) ;
#268 = DIRECTION ( 'NONE',  ( -0.0000000000000000000, -0.0000000000000000000, 1.000000000000000000 ) ) ;
#269 = DIRECTION ( 'NONE',  ( -0.4885255048380701700, 0.8725496152785288100, 0.0000000000000000000 ) ) ;
#270 = FACE_OUTER_BOUND ( 'NONE', #174, .T. ) ;
#271 = CIRCLE ( 'NONE', #255, 5.159375000000001600 ) ;
#272 = VECTOR ( 'NONE', #269, 1000.000000000000000 ) ;
#273 = LINE ( 'NONE', #317, #272 ) ;
#274 = DIRECTION ( 'NONE',  ( 1.000000000000000000, 1.826024711554533400E-016, -0.0000000000000000000 ) ) ;
#275 = VECTOR ( 'NONE', #274, 1000.000000000000000 ) ;
#276 = CARTESIAN_POINT ( 'NONE',  ( 19.00000000000000400, -5.159374999999998900, -6.500000000000000000 ) ) ;
#277 = CARTESIAN_POINT ( 'NONE',  ( 17.07049626345188300, -5.159374999999998900, -6.500000000000000000 ) ) ;
#278 = DIRECTION ( 'NONE',  ( 0.4885255048380701700, -0.8725496152785288100, 0.0000000000000000000 ) ) ;
#279 = VECTOR ( 'NONE', #278, 1000.000000000000000 ) ;
#280 = AXIS2_PLACEMENT_3D ( 'NONE', #266, #268, #267 ) ;
#281 = CARTESIAN_POINT ( 'NONE',  ( 17.07049626345188300, -5.159374999999997200, -6.500000000000000000 ) ) ;
#282 = LINE ( 'NONE', #281, #279 ) ;
#283 = LINE ( 'NONE', #276, #275 ) ;
#284 = DIRECTION ( 'NONE',  ( -1.000000000000000000, 9.130123557772673300E-017, 0.0000000000000000000 ) ) ;
#285 = VECTOR ( 'NONE', #284, 1000.000000000000000 ) ;
#286 = CARTESIAN_POINT ( 'NONE',  ( 4.710573123088339500E-016, 5.159375000000000700, 0.0000000000000000000 ) ) ;
#287 = LINE ( 'NONE', #286, #285 ) ;
#288 = DIRECTION ( 'NONE',  ( 0.4885255048380701700, 0.8725496152785288100, -0.0000000000000000000 ) ) ;
#289 = VECTOR ( 'NONE', #288, 1000.000000000000000 ) ;
#290 = CARTESIAN_POINT ( 'NONE',  ( 10.79725062299032100, -6.045194701937669300, 0.0000000000000000000 ) ) ;
#291 = LINE ( 'NONE', #290, #289 ) ;
#292 = DIRECTION ( 'NONE',  ( 1.000000000000000000, 0.0000000000000000000, 0.0000000000000000000 ) ) ;
#293 = DIRECTION ( 'NONE',  ( 1.000000000000000000, 0.0000000000000000000, 0.0000000000000000000 ) ) ;
#294 = DIRECTION ( 'NONE',  ( -0.0000000000000000000, -0.0000000000000000000, -1.000000000000000000 ) ) ;
#295 = CARTESIAN_POINT ( 'NONE',  ( 0.0000000000000000000, 0.0000000000000000000, -6.500000000000000000 ) ) ;
#296 = AXIS2_PLACEMENT_3D ( 'NONE', #295, #294, #293 ) ;
#297 = CIRCLE ( 'NONE', #296, 18.50000000000000000 ) ;
#298 = DIRECTION ( 'NONE',  ( 0.0000000000000000000, 0.0000000000000000000, 1.000000000000000000 ) ) ;
#299 = VECTOR ( 'NONE', #298, 1000.000000000000000 ) ;
#300 = CARTESIAN_POINT ( 'NONE',  ( 17.84074826126400000, -6.535112965986551000, -6.500000000000000000 ) ) ;
#301 = DIRECTION ( 'NONE',  ( 1.000000000000000000, 0.0000000000000000000, 0.0000000000000000000 ) ) ;
#302 = DIRECTION ( 'NONE',  ( -0.0000000000000000000, -0.0000000000000000000, 1.000000000000000000 ) ) ;
#303 = CARTESIAN_POINT ( 'NONE',  ( 0.0000000000000000000, 0.0000000000000000000, -6.000000000000005300 ) ) ;
#304 = DIRECTION ( 'NONE',  ( 1.000000000000000000, 0.0000000000000000000, 0.0000000000000000000 ) ) ;
#305 = DIRECTION ( 'NONE',  ( 0.0000000000000000000, 0.0000000000000000000, -1.000000000000000000 ) ) ;
#306 = CARTESIAN_POINT ( 'NONE',  ( 0.0000000000000000000, 0.0000000000000000000, -0.5000000000000004400 ) ) ;
#307 = AXIS2_PLACEMENT_3D ( 'NONE', #306, #305, #304 ) ;
#308 = LINE ( 'NONE', #300, #299 ) ;
#309 = CIRCLE ( 'NONE', #228, 19.00000000000000000 ) ;
#310 = CARTESIAN_POINT ( 'NONE',  ( 17.07049626345189000, 5.159375000000000700, -6.500000000000000000 ) ) ;
#311 = CARTESIAN_POINT ( 'NONE',  ( 17.84074826126400000, -6.535112965986552800, -0.5000000000000004400 ) ) ;
#312 = CARTESIAN_POINT ( 'NONE',  ( -19.00000000000000000, 0.0000000000000000000, -0.5000000000000004400 ) ) ;
#313 = DIRECTION ( 'NONE',  ( 0.0000000000000000000, 0.0000000000000000000, 1.000000000000000000 ) ) ;
#314 = CARTESIAN_POINT ( 'NONE',  ( 0.0000000000000000000, 0.0000000000000000000, 0.0000000000000000000 ) ) ;
#315 = AXIS2_PLACEMENT_3D ( 'NONE', #314, #313, #292 ) ;
#316 = CIRCLE ( 'NONE', #315, 18.49999999999999600 ) ;
#317 = CARTESIAN_POINT ( 'NONE',  ( 10.79725062299032100, 6.045194701937669300, 0.0000000000000000000 ) ) ;
#318 = AXIS2_PLACEMENT_3D ( 'NONE', #231, #230, #229 ) ;
#319 = AXIS2_PLACEMENT_3D ( 'NONE', #248, #220, #219 ) ;
#320 = DIRECTION ( 'NONE',  ( -1.000000000000000000, 9.130123557772673300E-017, 0.0000000000000000000 ) ) ;
#321 = DIRECTION ( 'NONE',  ( 9.130123557772673300E-017, 1.000000000000000000, 0.0000000000000000000 ) ) ;
#322 = AXIS2_PLACEMENT_3D ( 'NONE', #235, #234, #233 ) ;
#323 = CONICAL_SURFACE ( 'NONE', #322, 19.00000000000000000, 0.7853981633974543900 ) ;
#324 = FACE_OUTER_BOUND ( 'NONE', #67, .T. ) ;
#325 = CONICAL_SURFACE ( 'NONE', #318, 18.49999999999999600, 0.7853981633974517200 ) ;
#326 = DIRECTION ( 'NONE',  ( 1.215422309208335800E-017, 2.219391171589096200E-033, -1.000000000000000000 ) ) ;
#327 = VECTOR ( 'NONE', #326, 1000.000000000000000 ) ;
#328 = AXIS2_PLACEMENT_3D ( 'NONE', #243, #321, #320 ) ;
#329 = FACE_OUTER_BOUND ( 'NONE', #173, .T. ) ;
#330 = CIRCLE ( 'NONE', #332, 5.159375000000001600 ) ;
#331 = FACE_OUTER_BOUND ( 'NONE', #182, .T. ) ;
#332 = AXIS2_PLACEMENT_3D ( 'NONE', #226, #225, #224 ) ;
#333 = ADVANCED_BREP_SHAPE_REPRESENTATION ( 'WDS-402-208', ( #147, #43 ), #334 ) ;
#334 =( GEOMETRIC_REPRESENTATION_CONTEXT ( 3 ) GLOBAL_UNCERTAINTY_ASSIGNED_CONTEXT ( ( #335 ) ) GLOBAL_UNIT_ASSIGNED_CONTEXT ( ( #338, #337, #336 ) ) REPRESENTATION_CONTEXT ( 'NONE', 'WORKASPACE' ) );
#335 = UNCERTAINTY_MEASURE_WITH_UNIT (LENGTH_MEASURE( 1.000000000000000100E-005 ), #338, 'distance_accuracy_value', 'NONE');
#336 =( NAMED_UNIT ( * ) SI_UNIT ( $, .STERADIAN. ) SOLID_ANGLE_UNIT ( ) );
#337 =( NAMED_UNIT ( * ) PLANE_ANGLE_UNIT ( ) SI_UNIT ( $, .RADIAN. ) );
#338 =( LENGTH_UNIT ( ) NAMED_UNIT ( * ) SI_UNIT ( .MILLI., .METRE. ) );
#339 = DIRECTION ( 'NONE',  ( -1.000000000000000000, 9.130123557772670800E-017, -0.0000000000000000000 ) ) ;
#340 = VECTOR ( 'NONE', #339, 1000.000000000000000 ) ;
#341 = CARTESIAN_POINT ( 'NONE',  ( 0.0000000000000000000, 5.159375000000000700, -6.500000000000000000 ) ) ;
#342 = LINE ( 'NONE', #341, #340 ) ;
#343 = CC_DESIGN_PERSON_AND_ORGANIZATION_ASSIGNMENT ( #345, #344, ( #140 ) ) ;
#344 = PERSON_AND_ORGANIZATION_ROLE ( 'design_owner' ) ;
#345 = PERSON_AND_ORGANIZATION ( #5, #346 ) ;
#346 = ORGANIZATION ( 'UNSPECIFIED', 'UNSPECIFIED', '' ) ;
#347 = CC_DESIGN_PERSON_AND_ORGANIZATION_ASSIGNMENT ( #349, #348, ( #364 ) ) ;
#348 = PERSON_AND_ORGANIZATION_ROLE ( 'design_supplier' ) ;
#349 = PERSON_AND_ORGANIZATION ( #5, #346 ) ;
#350 = CC_DESIGN_PERSON_AND_ORGANIZATION_ASSIGNMENT ( #352, #351, ( #364 ) ) ;
#351 = PERSON_AND_ORGANIZATION_ROLE ( 'creator' ) ;
#352 = PERSON_AND_ORGANIZATION ( #5, #346 ) ;
#353 = CC_DESIGN_APPROVAL ( #361, ( #364 ) ) ;
#354 = APPROVAL_DATE_TIME ( #355, #361 ) ;
#355 = DATE_AND_TIME ( #356, #357 ) ;
#356 = CALENDAR_DATE ( 2012, 5, 4 ) ;
#357 = LOCAL_TIME ( 8, 48, 42.00000000000000000, #358 ) ;
#358 = COORDINATED_UNIVERSAL_TIME_OFFSET ( 5, 0, .BEHIND. ) ;
#359 = APPROVAL_PERSON_ORGANIZATION ( #363, #361, #360 ) ;
#360 = APPROVAL_ROLE ( '' ) ;
#361 = APPROVAL ( #362, 'UNSPECIFIED' ) ;
#362 = APPROVAL_STATUS ( 'not_yet_approved' ) ;
#363 = PERSON_AND_ORGANIZATION ( #5, #346 ) ;
#364 = PRODUCT_DEFINITION_FORMATION_WITH_SPECIFIED_SOURCE ( 'ANY', '', #140, .NOT_KNOWN. ) ;
#365 = SHAPE_DEFINITION_REPRESENTATION ( #390, #333 ) ;
#366 = CC_DESIGN_DATE_AND_TIME_ASSIGNMENT ( #368, #367, ( #386 ) ) ;
#367 = DATE_TIME_ROLE ( 'creation_date' ) ;
#368 = DATE_AND_TIME ( #369, #370 ) ;
#369 = CALENDAR_DATE ( 2012, 5, 4 ) ;
#370 = LOCAL_TIME ( 8, 48, 42.00000000000000000, #371 ) ;
#371 = COORDINATED_UNIVERSAL_TIME_OFFSET ( 5, 0, .BEHIND. ) ;
#372 = CC_DESIGN_PERSON_AND_ORGANIZATION_ASSIGNMENT ( #374, #373, ( #386 ) ) ;
#373 = PERSON_AND_ORGANIZATION_ROLE ( 'creator' ) ;
#374 = PERSON_AND_ORGANIZATION ( #5, #346 ) ;
#375 = CC_DESIGN_APPROVAL ( #383, ( #386 ) ) ;
#376 = APPROVAL_DATE_TIME ( #377, #383 ) ;
#377 = DATE_AND_TIME ( #378, #379 ) ;
#378 = CALENDAR_DATE ( 2012, 5, 4 ) ;
#379 = LOCAL_TIME ( 8, 48, 42.00000000000000000, #380 ) ;
#380 = COORDINATED_UNIVERSAL_TIME_OFFSET ( 5, 0, .BEHIND. ) ;
#381 = APPROVAL_PERSON_ORGANIZATION ( #385, #383, #382 ) ;
#382 = APPROVAL_ROLE ( '' ) ;
#383 = APPROVAL ( #384, 'UNSPECIFIED' ) ;
#384 = APPROVAL_STATUS ( 'not_yet_approved' ) ;
#385 = PERSON_AND_ORGANIZATION ( #5, #346 ) ;
#386 = PRODUCT_DEFINITION ( 'UNKNOWN', '', #364, #387 ) ;
#387 = DESIGN_CONTEXT ( 'detailed design', #389, 'design' ) ;
#388 = APPLICATION_PROTOCOL_DEFINITION ( 'international standard', 'config_control_design', 1994, #389 ) ;
#389 = APPLICATION_CONTEXT ( 'configuration controlled 3d designs of mechanical parts and assemblies' ) ;
#390 = PRODUCT_DEFINITION_SHAPE ( 'NONE', 'NONE',  #386 ) ;
#391 = PRODUCT_RELATED_PRODUCT_CATEGORY ( 'detail', '', ( #140 ) ) ;
#392 = CC_DESIGN_SECURITY_CLASSIFICATION ( #413, ( #364 ) ) ;
#393 = CC_DESIGN_APPROVAL ( #401, ( #413 ) ) ;
#394 = APPROVAL_DATE_TIME ( #395, #401 ) ;
#395 = DATE_AND_TIME ( #396, #397 ) ;
#396 = CALENDAR_DATE ( 2012, 5, 4 ) ;
#397 = LOCAL_TIME ( 8, 48, 42.00000000000000000, #398 ) ;
#398 = COORDINATED_UNIVERSAL_TIME_OFFSET ( 5, 0, .BEHIND. ) ;
#399 = APPROVAL_PERSON_ORGANIZATION ( #403, #401, #400 ) ;
#400 = APPROVAL_ROLE ( '' ) ;
#401 = APPROVAL ( #402, 'UNSPECIFIED' ) ;
#402 = APPROVAL_STATUS ( 'not_yet_approved' ) ;
#403 = PERSON_AND_ORGANIZATION ( #5, #346 ) ;
#404 = CC_DESIGN_DATE_AND_TIME_ASSIGNMENT ( #406, #405, ( #413 ) ) ;
#405 = DATE_TIME_ROLE ( 'classification_date' ) ;
#406 = DATE_AND_TIME ( #407, #408 ) ;
#407 = CALENDAR_DATE ( 2012, 5, 4 ) ;
#408 = LOCAL_TIME ( 8, 48, 42.00000000000000000, #409 ) ;
#409 = COORDINATED_UNIVERSAL_TIME_OFFSET ( 5, 0, .BEHIND. ) ;
#410 = CC_DESIGN_PERSON_AND_ORGANIZATION_ASSIGNMENT ( #412, #411, ( #413 ) ) ;
#411 = PERSON_AND_ORGANIZATION_ROLE ( 'classification_officer' ) ;
#412 = PERSON_AND_ORGANIZATION ( #5, #346 ) ;
#413 = SECURITY_CLASSIFICATION ( '', '', #414 ) ;
#414 = SECURITY_CLASSIFICATION_LEVEL ( 'unclassified' ) ;
ENDSEC;
END-ISO-10303-21;
