ISO-10303-21;
HEADER;
FILE_DESCRIPTION (( 'STEP AP203' ),
    '1' );
FILE_NAME ('WDS-402-201.step',
    '2012-04-05T12:46:33',
    ( 'SysAdmin' ),
    ( 'SolidWorks' ),
    'SwSTEP 2.0',
    'SolidWorks 2012',
    '' );
FILE_SCHEMA (( 'CONFIG_CONTROL_DESIGN' ));
ENDSEC;

DATA;
#1 = EDGE_CURVE ( 'NONE', #116, #29, #163, .T. ) ;
#2 = EDGE_CURVE ( 'NONE', #54, #107, #155, .T. ) ;
#3 = ORIENTED_EDGE ( 'NONE', *, *, #1, .F. ) ;
#4 = ADVANCED_FACE ( 'NONE', ( #161 ), #153, .T. ) ;
#5 = EDGE_CURVE ( 'NONE', #30, #120, #137, .T. ) ;
#6 = ORIENTED_EDGE ( 'NONE', *, *, #20, .F. ) ;
#7 = ORIENTED_EDGE ( 'NONE', *, *, #2, .T. ) ;
#8 = ORIENTED_EDGE ( 'NONE', *, *, #48, .F. ) ;
#9 = ORIENTED_EDGE ( 'NONE', *, *, #52, .F. ) ;
#10 = ORIENTED_EDGE ( 'NONE', *, *, #82, .F. ) ;
#11 = ORIENTED_EDGE ( 'NONE', *, *, #5, .T. ) ;
#12 = ORIENTED_EDGE ( 'NONE', *, *, #75, .F. ) ;
#13 = ORIENTED_EDGE ( 'NONE', *, *, #75, .T. ) ;
#14 = EDGE_CURVE ( 'NONE', #66, #76, #154, .T. ) ;
#15 = ORIENTED_EDGE ( 'NONE', *, *, #14, .F. ) ;
#16 = EDGE_CURVE ( 'NONE', #22, #66, #125, .T. ) ;
#17 = ORIENTED_EDGE ( 'NONE', *, *, #16, .F. ) ;
#18 = ADVANCED_FACE ( 'NONE', ( #136 ), #160, .F. ) ;
#19 = ORIENTED_EDGE ( 'NONE', *, *, #62, .T. ) ;
#20 = EDGE_CURVE ( 'NONE', #64, #54, #192, .T. ) ;
#21 = VERTEX_POINT ( 'NONE', #193 ) ;
#22 = VERTEX_POINT ( 'NONE', #190 ) ;
#23 = ORIENTED_EDGE ( 'NONE', *, *, #77, .F. ) ;
#24 = EDGE_CURVE ( 'NONE', #21, #22, #182, .T. ) ;
#25 = VERTEX_POINT ( 'NONE', #162 ) ;
#26 = EDGE_LOOP ( 'NONE', ( #50, #108, #112, #114, #49 ) ) ;
#27 = EDGE_LOOP ( 'NONE', ( #121, #57, #56, #61, #19, #59 ) ) ;
#28 = EDGE_LOOP ( 'NONE', ( #23, #83, #65, #85 ) ) ;
#29 = VERTEX_POINT ( 'NONE', #183 ) ;
#30 = VERTEX_POINT ( 'NONE', #177 ) ;
#31 = ORIENTED_EDGE ( 'NONE', *, *, #115, .F. ) ;
#32 = ORIENTED_EDGE ( 'NONE', *, *, #51, .F. ) ;
#33 = ADVANCED_FACE ( 'NONE', ( #147 ), #186, .T. ) ;
#34 = ORIENTED_EDGE ( 'NONE', *, *, #141, .F. ) ;
#35 = ORIENTED_EDGE ( 'NONE', *, *, #2, .F. ) ;
#36 = EDGE_CURVE ( 'NONE', #110, #22, #174, .T. ) ;
#37 = EDGE_LOOP ( 'NONE', ( #42, #44, #144, #143 ) ) ;
#38 = EDGE_CURVE ( 'NONE', #111, #21, #165, .T. ) ;
#39 = EDGE_LOOP ( 'NONE', ( #103, #43, #46, #45 ) ) ;
#40 = ORIENTED_EDGE ( 'NONE', *, *, #36, .T. ) ;
#41 = ADVANCED_FACE ( 'NONE', ( #176 ), #166, .F. ) ;
#42 = ORIENTED_EDGE ( 'NONE', *, *, #14, .T. ) ;
#43 = ORIENTED_EDGE ( 'NONE', *, *, #38, .T. ) ;
#44 = ORIENTED_EDGE ( 'NONE', *, *, #141, .T. ) ;
#45 = ORIENTED_EDGE ( 'NONE', *, *, #36, .F. ) ;
#46 = ORIENTED_EDGE ( 'NONE', *, *, #24, .T. ) ;
#47 = ADVANCED_FACE ( 'NONE', ( #170 ), #323, .T. ) ;
#48 = EDGE_CURVE ( 'NONE', #79, #29, #314, .T. ) ;
#49 = ORIENTED_EDGE ( 'NONE', *, *, #115, .T. ) ;
#50 = ORIENTED_EDGE ( 'NONE', *, *, #84, .T. ) ;
#51 = EDGE_CURVE ( 'NONE', #120, #111, #178, .T. ) ;
#52 = EDGE_CURVE ( 'NONE', #54, #120, #171, .T. ) ;
#53 = EDGE_LOOP ( 'NONE', ( #72, #71, #118, #117, #13, #15, #17 ) ) ;
#54 = VERTEX_POINT ( 'NONE', #324 ) ;
#55 = VERTEX_POINT ( 'NONE', #308 ) ;
#56 = ORIENTED_EDGE ( 'NONE', *, *, #58, .T. ) ;
#57 = ORIENTED_EDGE ( 'NONE', *, *, #51, .T. ) ;
#58 = EDGE_CURVE ( 'NONE', #111, #110, #275, .T. ) ;
#59 = ORIENTED_EDGE ( 'NONE', *, *, #20, .T. ) ;
#60 = EDGE_CURVE ( 'NONE', #110, #55, #272, .T. ) ;
#61 = ORIENTED_EDGE ( 'NONE', *, *, #60, .T. ) ;
#62 = EDGE_CURVE ( 'NONE', #55, #64, #264, .T. ) ;
#63 = EDGE_LOOP ( 'NONE', ( #106, #101, #99, #40 ) ) ;
#64 = VERTEX_POINT ( 'NONE', #306 ) ;
#65 = ORIENTED_EDGE ( 'NONE', *, *, #84, .F. ) ;
#66 = VERTEX_POINT ( 'NONE', #265 ) ;
#67 = EDGE_CURVE ( 'NONE', #81, #25, #258, .T. ) ;
#68 = VECTOR ( 'NONE', #100, 1000.000000000000000 ) ;
#69 = CLOSED_SHELL ( 'NONE', ( #80, #47, #119, #70, #18, #41, #140, #4, #91, #98, #33 ) ) ;
#70 = ADVANCED_FACE ( 'NONE', ( #266 ), #305, .T. ) ;
#71 = ORIENTED_EDGE ( 'NONE', *, *, #73, .T. ) ;
#72 = ORIENTED_EDGE ( 'NONE', *, *, #24, .F. ) ;
#73 = EDGE_CURVE ( 'NONE', #21, #116, #246, .T. ) ;
#74 = EDGE_CURVE ( 'NONE', #116, #78, #247, .T. ) ;
#75 = EDGE_CURVE ( 'NONE', #25, #76, #251, .T. ) ;
#76 = VERTEX_POINT ( 'NONE', #240 ) ;
#77 = EDGE_CURVE ( 'NONE', #78, #25, #232, .T. ) ;
#78 = VERTEX_POINT ( 'NONE', #241 ) ;
#79 = VERTEX_POINT ( 'NONE', #260 ) ;
#80 = ADVANCED_FACE ( 'NONE', ( #223 ), #237, .T. ) ;
#81 = VERTEX_POINT ( 'NONE', #225 ) ;
#82 = EDGE_CURVE ( 'NONE', #78, #79, #217, .T. ) ;
#83 = ORIENTED_EDGE ( 'NONE', *, *, #82, .T. ) ;
#84 = EDGE_CURVE ( 'NONE', #81, #79, #230, .T. ) ;
#85 = ORIENTED_EDGE ( 'NONE', *, *, #67, .T. ) ;
#86 = MANIFOLD_SOLID_BREP ( 'Chamfer2', #69 ) ;
#87 = CARTESIAN_POINT ( 'NONE',  ( 8.201769117280195000, -3.500000000000000000, -4.499999999999999100 ) ) ;
#88 = EDGE_LOOP ( 'NONE', ( #142, #11, #9, #7 ) ) ;
#89 = ORIENTED_EDGE ( 'NONE', *, *, #38, .F. ) ;
#90 = ORIENTED_EDGE ( 'NONE', *, *, #5, .F. ) ;
#91 = ADVANCED_FACE ( 'NONE', ( #221 ), #218, .T. ) ;
#92 = EDGE_LOOP ( 'NONE', ( #90, #95, #3, #93, #89, #32 ) ) ;
#93 = ORIENTED_EDGE ( 'NONE', *, *, #73, .F. ) ;
#94 = ORIENTED_EDGE ( 'NONE', *, *, #74, .F. ) ;
#95 = ORIENTED_EDGE ( 'NONE', *, *, #109, .F. ) ;
#96 = ORIENTED_EDGE ( 'NONE', *, *, #1, .T. ) ;
#97 = EDGE_LOOP ( 'NONE', ( #102, #31, #35, #6, #34, #12 ) ) ;
#98 = ADVANCED_FACE ( 'NONE', ( #208 ), #220, .F. ) ;
#99 = ORIENTED_EDGE ( 'NONE', *, *, #60, .F. ) ;
#100 = DIRECTION ( 'NONE',  ( 0.0000000000000000000, 0.0000000000000000000, -1.000000000000000000 ) ) ;
#101 = ORIENTED_EDGE ( 'NONE', *, *, #104, .F. ) ;
#102 = ORIENTED_EDGE ( 'NONE', *, *, #67, .F. ) ;
#103 = ORIENTED_EDGE ( 'NONE', *, *, #58, .F. ) ;
#104 = EDGE_CURVE ( 'NONE', #55, #66, #200, .T. ) ;
#105 = EDGE_LOOP ( 'NONE', ( #10, #94, #96, #8 ) ) ;
#106 = ORIENTED_EDGE ( 'NONE', *, *, #16, .T. ) ;
#107 = VERTEX_POINT ( 'NONE', #201 ) ;
#108 = ORIENTED_EDGE ( 'NONE', *, *, #48, .T. ) ;
#109 = EDGE_CURVE ( 'NONE', #29, #30, #300, .T. ) ;
#110 = VERTEX_POINT ( 'NONE', #196 ) ;
#111 = VERTEX_POINT ( 'NONE', #195 ) ;
#112 = ORIENTED_EDGE ( 'NONE', *, *, #109, .T. ) ;
#113 = EDGE_CURVE ( 'NONE', #30, #107, #210, .T. ) ;
#114 = ORIENTED_EDGE ( 'NONE', *, *, #113, .T. ) ;
#115 = EDGE_CURVE ( 'NONE', #107, #81, #288, .T. ) ;
#116 = VERTEX_POINT ( 'NONE', #209 ) ;
#117 = ORIENTED_EDGE ( 'NONE', *, *, #77, .T. ) ;
#118 = ORIENTED_EDGE ( 'NONE', *, *, #74, .T. ) ;
#119 = ADVANCED_FACE ( 'NONE', ( #301 ), #296, .F. ) ;
#120 = VERTEX_POINT ( 'NONE', #279 ) ;
#121 = ORIENTED_EDGE ( 'NONE', *, *, #52, .T. ) ;
#122 = DIRECTION ( 'NONE',  ( 1.000000000000000000, 0.0000000000000000000, 0.0000000000000000000 ) ) ;
#123 = DIRECTION ( 'NONE',  ( 0.0000000000000000000, 0.0000000000000000000, 1.000000000000000000 ) ) ;
#124 = CARTESIAN_POINT ( 'NONE',  ( 0.0000000000000000000, 0.0000000000000000000, 0.0000000000000000000 ) ) ;
#125 = CIRCLE ( 'NONE', #139, 3.500000000000002200 ) ;
#126 = CARTESIAN_POINT ( 'NONE',  ( 8.201769117280195000, -3.500000000000000000, -5.000000000000000000 ) ) ;
#127 = DIRECTION ( 'NONE',  ( -0.0000000000000000000, -0.0000000000000000000, 1.000000000000000000 ) ) ;
#128 = CARTESIAN_POINT ( 'NONE',  ( 0.0000000000000000000, 0.0000000000000000000, -5.000000000000000000 ) ) ;
#129 = DIRECTION ( 'NONE',  ( 1.000000000000000000, 1.734723475976806100E-016, -0.0000000000000000000 ) ) ;
#130 = VECTOR ( 'NONE', #129, 1000.000000000000000 ) ;
#131 = CARTESIAN_POINT ( 'NONE',  ( 10.00000000000000500, -3.499999999999999600, 0.0000000000000000000 ) ) ;
#132 = CARTESIAN_POINT ( 'NONE',  ( 8.521053809178385000, 4.200195469390271400, -5.000000000000000000 ) ) ;
#133 = CARTESIAN_POINT ( 'NONE',  ( 8.609446438880212300, 4.394041652483974900, -4.835011556419700300 ) ) ;
#134 = CARTESIAN_POINT ( 'NONE',  ( 8.697267060079788300, 4.586633413515186500, -4.668232412857102900 ) ) ;
#135 = CARTESIAN_POINT ( 'NONE',  ( 8.784600807430411600, 4.778157453882515800, -4.499999999999999100 ) ) ;
#136 = FACE_OUTER_BOUND ( 'NONE', #63, .T. ) ;
#137 = B_SPLINE_CURVE_WITH_KNOTS ( 'NONE', 3,
 ( #135, #134, #133, #132 ),
 .UNSPECIFIED., .F., .F.,
 ( 4, 4 ),
 ( 0.0000000000000000000, 0.0008083916599061791700 ),
 .UNSPECIFIED. ) ;
#138 = DIRECTION ( 'NONE',  ( 1.000000000000000000, 0.0000000000000000000, 0.0000000000000000000 ) ) ;
#139 = AXIS2_PLACEMENT_3D ( 'NONE', #124, #123, #122 ) ;
#140 = ADVANCED_FACE ( 'NONE', ( #290 ), #289, .F. ) ;
#141 = EDGE_CURVE ( 'NONE', #76, #64, #282, .T. ) ;
#142 = ORIENTED_EDGE ( 'NONE', *, *, #113, .F. ) ;
#143 = ORIENTED_EDGE ( 'NONE', *, *, #104, .T. ) ;
#144 = ORIENTED_EDGE ( 'NONE', *, *, #62, .F. ) ;
#145 = DIRECTION ( 'NONE',  ( -0.0000000000000000000, -0.0000000000000000000, 1.000000000000000000 ) ) ;
#146 = CARTESIAN_POINT ( 'NONE',  ( 0.0000000000000000000, 0.0000000000000000000, -4.499999999999999100 ) ) ;
#147 = FACE_OUTER_BOUND ( 'NONE', #97, .T. ) ;
#148 = AXIS2_PLACEMENT_3D ( 'NONE', #146, #145, #138 ) ;
#149 = CARTESIAN_POINT ( 'NONE',  ( 8.784600807430409800, -4.778157453882514900, -4.499999999999999100 ) ) ;
#150 = CARTESIAN_POINT ( 'NONE',  ( 8.697267060079788300, -4.586633413515185600, -4.668232412857102900 ) ) ;
#151 = CARTESIAN_POINT ( 'NONE',  ( 8.609446438880214100, -4.394041652483972300, -4.835011556419701200 ) ) ;
#152 = CARTESIAN_POINT ( 'NONE',  ( 8.521053809178385000, -4.200195469390267900, -5.000000000000000000 ) ) ;
#153 = CONICAL_SURFACE ( 'NONE', #148, 10.00000000000000200, 0.7853981633974509400 ) ;
#154 = LINE ( 'NONE', #131, #130 ) ;
#155 = B_SPLINE_CURVE_WITH_KNOTS ( 'NONE', 3,
 ( #152, #151, #150, #149 ),
 .UNSPECIFIED., .F., .F.,
 ( 4, 4 ),
 ( 0.0000000000000000000, 0.0008083916599061802600 ),
 .UNSPECIFIED. ) ;
#156 = CARTESIAN_POINT ( 'NONE',  ( 8.784600807430409800, 4.778157453882516700, -0.5000000000000022200 ) ) ;
#157 = CARTESIAN_POINT ( 'NONE',  ( 8.697267060079788300, 4.586633413515187400, -0.3317675871428963400 ) ) ;
#158 = CARTESIAN_POINT ( 'NONE',  ( 8.609446438880214100, 4.394041652483974000, -0.1649884435802996800 ) ) ;
#159 = CARTESIAN_POINT ( 'NONE',  ( 8.521053809178385000, 4.200195469390271400, 0.0000000000000000000 ) ) ;
#160 = CYLINDRICAL_SURFACE ( 'NONE', #194, 3.500000000000002200 ) ;
#161 = FACE_OUTER_BOUND ( 'NONE', #88, .T. ) ;
#162 = CARTESIAN_POINT ( 'NONE',  ( 8.521053809178385000, -4.200195469390269700, 0.0000000000000000000 ) ) ;
#163 = B_SPLINE_CURVE_WITH_KNOTS ( 'NONE', 3,
 ( #159, #158, #157, #156 ),
 .UNSPECIFIED., .F., .F.,
 ( 4, 4 ),
 ( 0.0000000000000000000, 0.0008083916599061792800 ),
 .UNSPECIFIED. ) ;
#164 = CARTESIAN_POINT ( 'NONE',  ( 0.0000000000000000000, 0.0000000000000000000, -5.000000000000000000 ) ) ;
#165 = LINE ( 'NONE', #327, #326 ) ;
#166 = PLANE ( 'NONE',  #175 ) ;
#167 = DIRECTION ( 'NONE',  ( -0.0000000000000000000, -0.0000000000000000000, 1.000000000000000000 ) ) ;
#168 = VECTOR ( 'NONE', #167, 1000.000000000000000 ) ;
#169 = CARTESIAN_POINT ( 'NONE',  ( 0.0000000000000000000, 3.500000000000003100, -5.000000000000000000 ) ) ;
#170 = FACE_OUTER_BOUND ( 'NONE', #26, .T. ) ;
#171 = CIRCLE ( 'NONE', #315, 9.500000000000000000 ) ;
#172 = DIRECTION ( 'NONE',  ( -0.4148946915592953700, 0.9098694383898807700, 0.0000000000000000000 ) ) ;
#173 = DIRECTION ( 'NONE',  ( 0.9098694383898808800, 0.4148946915592954300, -0.0000000000000000000 ) ) ;
#174 = LINE ( 'NONE', #169, #168 ) ;
#175 = AXIS2_PLACEMENT_3D ( 'NONE', #321, #320, #319 ) ;
#176 = FACE_OUTER_BOUND ( 'NONE', #39, .T. ) ;
#177 = CARTESIAN_POINT ( 'NONE',  ( 8.784600807430411600, 4.778157453882515800, -4.499999999999999100 ) ) ;
#178 = LINE ( 'NONE', #316, #310 ) ;
#179 = DIRECTION ( 'NONE',  ( -1.000000000000000000, -0.0000000000000000000, 0.0000000000000000000 ) ) ;
#180 = VECTOR ( 'NONE', #179, 1000.000000000000000 ) ;
#181 = CARTESIAN_POINT ( 'NONE',  ( 0.0000000000000000000, 3.500000000000003100, 0.0000000000000000000 ) ) ;
#182 = LINE ( 'NONE', #181, #180 ) ;
#183 = CARTESIAN_POINT ( 'NONE',  ( 8.784600807430409800, 4.778157453882516700, -0.5000000000000022200 ) ) ;
#184 = AXIS2_PLACEMENT_3D ( 'NONE', #126, #173, #172 ) ;
#185 = AXIS2_PLACEMENT_3D ( 'NONE', #164, #318, #317 ) ;
#186 = PLANE ( 'NONE',  #184 ) ;
#187 = DIRECTION ( 'NONE',  ( 0.4148946915592953700, -0.9098694383898807700, 0.0000000000000000000 ) ) ;
#188 = VECTOR ( 'NONE', #187, 1000.000000000000100 ) ;
#189 = CARTESIAN_POINT ( 'NONE',  ( 8.201769117280195000, -3.500000000000000000, -5.000000000000000000 ) ) ;
#190 = CARTESIAN_POINT ( 'NONE',  ( 0.0000000000000000000, 3.500000000000003100, 0.0000000000000000000 ) ) ;
#191 = DIRECTION ( 'NONE',  ( 1.000000000000000000, 0.0000000000000000000, 0.0000000000000000000 ) ) ;
#192 = LINE ( 'NONE', #189, #188 ) ;
#193 = CARTESIAN_POINT ( 'NONE',  ( 8.201769117280193200, 3.500000000000003100, 0.0000000000000000000 ) ) ;
#194 = AXIS2_PLACEMENT_3D ( 'NONE', #128, #127, #191 ) ;
#195 = CARTESIAN_POINT ( 'NONE',  ( 8.201769117280189600, 3.500000000000002700, -5.000000000000000000 ) ) ;
#196 = CARTESIAN_POINT ( 'NONE',  ( 0.0000000000000000000, 3.500000000000003100, -5.000000000000000000 ) ) ;
#197 = DIRECTION ( 'NONE',  ( -0.0000000000000000000, -0.0000000000000000000, 1.000000000000000000 ) ) ;
#198 = VECTOR ( 'NONE', #197, 1000.000000000000000 ) ;
#199 = CARTESIAN_POINT ( 'NONE',  ( 4.286263797015738100E-016, -3.500000000000001300, -5.000000000000000000 ) ) ;
#200 = LINE ( 'NONE', #199, #198 ) ;
#201 = CARTESIAN_POINT ( 'NONE',  ( 8.784600807430409800, -4.778157453882514900, -4.499999999999999100 ) ) ;
#202 = DIRECTION ( 'NONE',  ( -0.4148946915592973700, -0.9098694383898799900, 0.0000000000000000000 ) ) ;
#203 = DIRECTION ( 'NONE',  ( -0.9098694383898799900, 0.4148946915592973700, 0.0000000000000000000 ) ) ;
#204 = CARTESIAN_POINT ( 'NONE',  ( 8.201769117280191400, 3.500000000000003100, -5.000000000000000000 ) ) ;
#205 = DIRECTION ( 'NONE',  ( -1.000000000000000000, 0.0000000000000000000, 0.0000000000000000000 ) ) ;
#206 = DIRECTION ( 'NONE',  ( 0.0000000000000000000, 0.0000000000000000000, -1.000000000000000000 ) ) ;
#207 = AXIS2_PLACEMENT_3D ( 'NONE', #204, #203, #202 ) ;
#208 = FACE_OUTER_BOUND ( 'NONE', #92, .T. ) ;
#209 = CARTESIAN_POINT ( 'NONE',  ( 8.521053809178385000, 4.200195469390271400, 0.0000000000000000000 ) ) ;
#210 = CIRCLE ( 'NONE', #294, 10.00000000000000200 ) ;
#211 = DIRECTION ( 'NONE',  ( 1.000000000000000000, 0.0000000000000000000, 0.0000000000000000000 ) ) ;
#212 = DIRECTION ( 'NONE',  ( 0.0000000000000000000, 0.0000000000000000000, -1.000000000000000000 ) ) ;
#213 = AXIS2_PLACEMENT_3D ( 'NONE', #219, #206, #205 ) ;
#214 = DIRECTION ( 'NONE',  ( -0.7071067811865463500, 0.0000000000000000000, -0.7071067811865487900 ) ) ;
#215 = VECTOR ( 'NONE', #214, 1000.000000000000000 ) ;
#216 = CARTESIAN_POINT ( 'NONE',  ( -9.500000000000001800, 0.0000000000000000000, 0.0000000000000000000 ) ) ;
#217 = LINE ( 'NONE', #216, #215 ) ;
#218 = CONICAL_SURFACE ( 'NONE', #213, 9.500000000000001800, 0.7853981633974466100 ) ;
#219 = CARTESIAN_POINT ( 'NONE',  ( 0.0000000000000000000, 0.0000000000000000000, 0.0000000000000000000 ) ) ;
#220 = PLANE ( 'NONE',  #207 ) ;
#221 = FACE_OUTER_BOUND ( 'NONE', #105, .T. ) ;
#222 = CARTESIAN_POINT ( 'NONE',  ( 0.0000000000000000000, 0.0000000000000000000, 0.0000000000000000000 ) ) ;
#223 = FACE_OUTER_BOUND ( 'NONE', #28, .T. ) ;
#224 = CARTESIAN_POINT ( 'NONE',  ( 0.0000000000000000000, 0.0000000000000000000, -0.5000000000000022200 ) ) ;
#225 = CARTESIAN_POINT ( 'NONE',  ( 8.784600807430411600, -4.778157453882514900, -0.5000000000000022200 ) ) ;
#226 = DIRECTION ( 'NONE',  ( 1.000000000000000000, 0.0000000000000000000, 0.0000000000000000000 ) ) ;
#227 = DIRECTION ( 'NONE',  ( 0.0000000000000000000, 0.0000000000000000000, 1.000000000000000000 ) ) ;
#228 = CARTESIAN_POINT ( 'NONE',  ( 0.0000000000000000000, 0.0000000000000000000, 0.0000000000000000000 ) ) ;
#229 = AXIS2_PLACEMENT_3D ( 'NONE', #228, #227, #226 ) ;
#230 = CIRCLE ( 'NONE', #242, 10.00000000000000200 ) ;
#231 = DIRECTION ( 'NONE',  ( 0.0000000000000000000, 0.0000000000000000000, -1.000000000000000000 ) ) ;
#232 = CIRCLE ( 'NONE', #229, 9.500000000000000000 ) ;
#233 = AXIS2_PLACEMENT_3D ( 'NONE', #222, #231, #259 ) ;
#234 = DIRECTION ( 'NONE',  ( -0.4148946915592953700, 0.9098694383898807700, 0.0000000000000000000 ) ) ;
#235 = VECTOR ( 'NONE', #234, 1000.000000000000100 ) ;
#236 = CARTESIAN_POINT ( 'NONE',  ( 5.468686223978992600, 2.493686223978974300, 0.0000000000000000000 ) ) ;
#237 = CONICAL_SURFACE ( 'NONE', #233, 9.500000000000001800, 0.7853981633974466100 ) ;
#238 = DIRECTION ( 'NONE',  ( 1.000000000000000000, 0.0000000000000000000, 0.0000000000000000000 ) ) ;
#239 = DIRECTION ( 'NONE',  ( 0.0000000000000000000, 0.0000000000000000000, 1.000000000000000000 ) ) ;
#240 = CARTESIAN_POINT ( 'NONE',  ( 8.201769117280195000, -3.500000000000000400, 0.0000000000000000000 ) ) ;
#241 = CARTESIAN_POINT ( 'NONE',  ( -9.500000000000000000, 0.0000000000000000000, 0.0000000000000000000 ) ) ;
#242 = AXIS2_PLACEMENT_3D ( 'NONE', #224, #212, #211 ) ;
#243 = DIRECTION ( 'NONE',  ( 0.4148946915592973700, 0.9098694383898799900, -0.0000000000000000000 ) ) ;
#244 = VECTOR ( 'NONE', #243, 1000.000000000000000 ) ;
#245 = CARTESIAN_POINT ( 'NONE',  ( 5.468686223978973100, -2.493686223978979700, 0.0000000000000000000 ) ) ;
#246 = LINE ( 'NONE', #245, #244 ) ;
#247 = CIRCLE ( 'NONE', #267, 9.500000000000000000 ) ;
#248 = DIRECTION ( 'NONE',  ( 1.000000000000000000, 0.0000000000000000000, -0.0000000000000000000 ) ) ;
#249 = DIRECTION ( 'NONE',  ( 0.0000000000000000000, 0.0000000000000000000, 1.000000000000000000 ) ) ;
#250 = CARTESIAN_POINT ( 'NONE',  ( 0.0000000000000000000, 0.0000000000000000000, 0.0000000000000000000 ) ) ;
#251 = LINE ( 'NONE', #236, #235 ) ;
#252 = CARTESIAN_POINT ( 'NONE',  ( 8.521053809178385000, -4.200195469390269700, 0.0000000000000000000 ) ) ;
#253 = CARTESIAN_POINT ( 'NONE',  ( 8.609446438880214100, -4.394041652483973200, -0.1649884435802982400 ) ) ;
#254 = CARTESIAN_POINT ( 'NONE',  ( 8.697267060079788300, -4.586633413515184700, -0.3317675871428972800 ) ) ;
#255 = CARTESIAN_POINT ( 'NONE',  ( 8.784600807430411600, -4.778157453882514900, -0.5000000000000022200 ) ) ;
#256 = AXIS2_PLACEMENT_3D ( 'NONE', #250, #249, #248 ) ;
#257 = CARTESIAN_POINT ( 'NONE',  ( 0.0000000000000000000, 0.0000000000000000000, 0.0000000000000000000 ) ) ;
#258 = B_SPLINE_CURVE_WITH_KNOTS ( 'NONE', 3,
 ( #255, #254, #253, #252 ),
 .UNSPECIFIED., .F., .F.,
 ( 4, 4 ),
 ( 3.252606517456513300E-019, 0.0008083916599061797100 ),
 .UNSPECIFIED. ) ;
#259 = DIRECTION ( 'NONE',  ( -1.000000000000000000, 0.0000000000000000000, 0.0000000000000000000 ) ) ;
#260 = CARTESIAN_POINT ( 'NONE',  ( -10.00000000000000200, 0.0000000000000000000, -0.5000000000000022200 ) ) ;
#261 = DIRECTION ( 'NONE',  ( 1.000000000000000000, 1.734723475976806100E-016, -0.0000000000000000000 ) ) ;
#262 = VECTOR ( 'NONE', #261, 1000.000000000000000 ) ;
#263 = CARTESIAN_POINT ( 'NONE',  ( 10.00000000000000500, -3.499999999999999600, -5.000000000000000000 ) ) ;
#264 = LINE ( 'NONE', #263, #262 ) ;
#265 = CARTESIAN_POINT ( 'NONE',  ( 4.286277880682376900E-016, -3.500000000000001300, 0.0000000000000000000 ) ) ;
#266 = FACE_OUTER_BOUND ( 'NONE', #53, .T. ) ;
#267 = AXIS2_PLACEMENT_3D ( 'NONE', #257, #239, #238 ) ;
#268 = DIRECTION ( 'NONE',  ( 1.000000000000000000, 0.0000000000000000000, 0.0000000000000000000 ) ) ;
#269 = DIRECTION ( 'NONE',  ( 0.0000000000000000000, 0.0000000000000000000, 1.000000000000000000 ) ) ;
#270 = DIRECTION ( 'NONE',  ( -1.000000000000000000, -0.0000000000000000000, -0.0000000000000000000 ) ) ;
#271 = VECTOR ( 'NONE', #270, 1000.000000000000000 ) ;
#272 = CIRCLE ( 'NONE', #307, 3.500000000000002200 ) ;
#273 = CARTESIAN_POINT ( 'NONE',  ( 0.0000000000000000000, 0.0000000000000000000, -5.000000000000000000 ) ) ;
#274 = CARTESIAN_POINT ( 'NONE',  ( 0.0000000000000000000, 3.500000000000003100, -5.000000000000000000 ) ) ;
#275 = LINE ( 'NONE', #274, #271 ) ;
#276 = DIRECTION ( 'NONE',  ( 1.000000000000000000, 1.734723475976806100E-016, 0.0000000000000000000 ) ) ;
#277 = DIRECTION ( 'NONE',  ( 1.734723475976806100E-016, -1.000000000000000000, 0.0000000000000000000 ) ) ;
#278 = CARTESIAN_POINT ( 'NONE',  ( 10.00000000000000500, -3.499999999999999600, -5.000000000000000000 ) ) ;
#279 = CARTESIAN_POINT ( 'NONE',  ( 8.521053809178385000, 4.200195469390271400, -5.000000000000000000 ) ) ;
#280 = DIRECTION ( 'NONE',  ( 1.000000000000000000, 0.0000000000000000000, -0.0000000000000000000 ) ) ;
#281 = DIRECTION ( 'NONE',  ( 0.0000000000000000000, 0.0000000000000000000, 1.000000000000000000 ) ) ;
#282 = LINE ( 'NONE', #87, #68 ) ;
#283 = AXIS2_PLACEMENT_3D ( 'NONE', #278, #277, #276 ) ;
#284 = AXIS2_PLACEMENT_3D ( 'NONE', #295, #281, #280 ) ;
#285 = DIRECTION ( 'NONE',  ( 0.0000000000000000000, 0.0000000000000000000, 1.000000000000000000 ) ) ;
#286 = VECTOR ( 'NONE', #285, 1000.000000000000000 ) ;
#287 = CARTESIAN_POINT ( 'NONE',  ( 8.784600807430411600, -4.778157453882515800, -5.000000000000000000 ) ) ;
#288 = LINE ( 'NONE', #287, #286 ) ;
#289 = PLANE ( 'NONE',  #283 ) ;
#290 = FACE_OUTER_BOUND ( 'NONE', #37, .T. ) ;
#291 = DIRECTION ( 'NONE',  ( 1.000000000000000000, 0.0000000000000000000, 0.0000000000000000000 ) ) ;
#292 = DIRECTION ( 'NONE',  ( -0.0000000000000000000, -0.0000000000000000000, 1.000000000000000000 ) ) ;
#293 = CARTESIAN_POINT ( 'NONE',  ( 0.0000000000000000000, 0.0000000000000000000, -4.499999999999999100 ) ) ;
#294 = AXIS2_PLACEMENT_3D ( 'NONE', #293, #292, #291 ) ;
#295 = CARTESIAN_POINT ( 'NONE',  ( 0.0000000000000000000, 0.0000000000000000000, -5.000000000000000000 ) ) ;
#296 = PLANE ( 'NONE',  #284 ) ;
#297 = DIRECTION ( 'NONE',  ( -0.0000000000000000000, -0.0000000000000000000, -1.000000000000000000 ) ) ;
#298 = VECTOR ( 'NONE', #297, 1000.000000000000000 ) ;
#299 = CARTESIAN_POINT ( 'NONE',  ( 8.784600807430409800, 4.778157453882516700, -5.000000000000000000 ) ) ;
#300 = LINE ( 'NONE', #299, #298 ) ;
#301 = FACE_OUTER_BOUND ( 'NONE', #27, .T. ) ;
#302 = DIRECTION ( 'NONE',  ( 1.000000000000000000, 0.0000000000000000000, 0.0000000000000000000 ) ) ;
#303 = DIRECTION ( 'NONE',  ( -0.0000000000000000000, -0.0000000000000000000, -1.000000000000000000 ) ) ;
#304 = CARTESIAN_POINT ( 'NONE',  ( 0.0000000000000000000, 0.0000000000000000000, -5.000000000000000000 ) ) ;
#305 = PLANE ( 'NONE',  #256 ) ;
#306 = CARTESIAN_POINT ( 'NONE',  ( 8.201769117280195000, -3.500000000000000000, -5.000000000000000000 ) ) ;
#307 = AXIS2_PLACEMENT_3D ( 'NONE', #273, #269, #268 ) ;
#308 = CARTESIAN_POINT ( 'NONE',  ( 4.286263797015738100E-016, -3.500000000000001300, -5.000000000000000000 ) ) ;
#309 = DIRECTION ( 'NONE',  ( -0.4148946915592973700, -0.9098694383898799900, 0.0000000000000000000 ) ) ;
#310 = VECTOR ( 'NONE', #309, 1000.000000000000000 ) ;
#311 = DIRECTION ( 'NONE',  ( 1.000000000000000000, 0.0000000000000000000, 0.0000000000000000000 ) ) ;
#312 = DIRECTION ( 'NONE',  ( 0.0000000000000000000, 0.0000000000000000000, -1.000000000000000000 ) ) ;
#313 = CARTESIAN_POINT ( 'NONE',  ( 0.0000000000000000000, 0.0000000000000000000, -0.5000000000000022200 ) ) ;
#314 = CIRCLE ( 'NONE', #322, 10.00000000000000200 ) ;
#315 = AXIS2_PLACEMENT_3D ( 'NONE', #304, #303, #302 ) ;
#316 = CARTESIAN_POINT ( 'NONE',  ( 8.201769117280191400, 3.500000000000003100, -5.000000000000000000 ) ) ;
#317 = DIRECTION ( 'NONE',  ( 1.000000000000000000, 0.0000000000000000000, 0.0000000000000000000 ) ) ;
#318 = DIRECTION ( 'NONE',  ( 0.0000000000000000000, 0.0000000000000000000, 1.000000000000000000 ) ) ;
#319 = DIRECTION ( 'NONE',  ( 0.0000000000000000000, -0.0000000000000000000, 1.000000000000000000 ) ) ;
#320 = DIRECTION ( 'NONE',  ( -0.0000000000000000000, 1.000000000000000000, 0.0000000000000000000 ) ) ;
#321 = CARTESIAN_POINT ( 'NONE',  ( 0.0000000000000000000, 3.500000000000003100, -5.000000000000000000 ) ) ;
#322 = AXIS2_PLACEMENT_3D ( 'NONE', #313, #312, #311 ) ;
#323 = CYLINDRICAL_SURFACE ( 'NONE', #185, 10.00000000000000200 ) ;
#324 = CARTESIAN_POINT ( 'NONE',  ( 8.521053809178385000, -4.200195469390267900, -5.000000000000000000 ) ) ;
#325 = DIRECTION ( 'NONE',  ( 0.0000000000000000000, 0.0000000000000000000, 1.000000000000000000 ) ) ;
#326 = VECTOR ( 'NONE', #325, 1000.000000000000000 ) ;
#327 = CARTESIAN_POINT ( 'NONE',  ( 8.201769117280191400, 3.500000000000003100, -0.5000000000000020000 ) ) ;
#328 = PRODUCT_DEFINITION_SHAPE ( 'NONE', 'NONE',  #393 ) ;
#329 = SHAPE_DEFINITION_REPRESENTATION ( #328, #411 ) ;
#330 = AXIS2_PLACEMENT_3D ( 'NONE', #409, #408, #407 ) ;
#331 = PRODUCT_RELATED_PRODUCT_CATEGORY ( 'detail', '', ( #402 ) ) ;
#332 = CC_DESIGN_SECURITY_CLASSIFICATION ( #353, ( #372 ) ) ;
#333 = CC_DESIGN_APPROVAL ( #341, ( #353 ) ) ;
#334 = APPROVAL_DATE_TIME ( #335, #341 ) ;
#335 = DATE_AND_TIME ( #336, #337 ) ;
#336 = CALENDAR_DATE ( 2012, 5, 4 ) ;
#337 = LOCAL_TIME ( 8, 46, 33.00000000000000000, #338 ) ;
#338 = COORDINATED_UNIVERSAL_TIME_OFFSET ( 5, 0, .BEHIND. ) ;
#339 = APPROVAL_PERSON_ORGANIZATION ( #343, #341, #340 ) ;
#340 = APPROVAL_ROLE ( '' ) ;
#341 = APPROVAL ( #342, 'UNSPECIFIED' ) ;
#342 = APPROVAL_STATUS ( 'not_yet_approved' ) ;
#343 = PERSON_AND_ORGANIZATION ( #401, #400 ) ;
#344 = CC_DESIGN_DATE_AND_TIME_ASSIGNMENT ( #346, #345, ( #353 ) ) ;
#345 = DATE_TIME_ROLE ( 'classification_date' ) ;
#346 = DATE_AND_TIME ( #347, #348 ) ;
#347 = CALENDAR_DATE ( 2012, 5, 4 ) ;
#348 = LOCAL_TIME ( 8, 46, 33.00000000000000000, #349 ) ;
#349 = COORDINATED_UNIVERSAL_TIME_OFFSET ( 5, 0, .BEHIND. ) ;
#350 = CC_DESIGN_PERSON_AND_ORGANIZATION_ASSIGNMENT ( #352, #351, ( #353 ) ) ;
#351 = PERSON_AND_ORGANIZATION_ROLE ( 'classification_officer' ) ;
#352 = PERSON_AND_ORGANIZATION ( #401, #400 ) ;
#353 = SECURITY_CLASSIFICATION ( '', '', #354 ) ;
#354 = SECURITY_CLASSIFICATION_LEVEL ( 'unclassified' ) ;
#355 = CC_DESIGN_PERSON_AND_ORGANIZATION_ASSIGNMENT ( #357, #356, ( #372 ) ) ;
#356 = PERSON_AND_ORGANIZATION_ROLE ( 'design_supplier' ) ;
#357 = PERSON_AND_ORGANIZATION ( #401, #400 ) ;
#358 = CC_DESIGN_PERSON_AND_ORGANIZATION_ASSIGNMENT ( #360, #359, ( #372 ) ) ;
#359 = PERSON_AND_ORGANIZATION_ROLE ( 'creator' ) ;
#360 = PERSON_AND_ORGANIZATION ( #401, #400 ) ;
#361 = CC_DESIGN_APPROVAL ( #369, ( #372 ) ) ;
#362 = APPROVAL_DATE_TIME ( #363, #369 ) ;
#363 = DATE_AND_TIME ( #364, #365 ) ;
#364 = CALENDAR_DATE ( 2012, 5, 4 ) ;
#365 = LOCAL_TIME ( 8, 46, 33.00000000000000000, #366 ) ;
#366 = COORDINATED_UNIVERSAL_TIME_OFFSET ( 5, 0, .BEHIND. ) ;
#367 = APPROVAL_PERSON_ORGANIZATION ( #371, #369, #368 ) ;
#368 = APPROVAL_ROLE ( '' ) ;
#369 = APPROVAL ( #370, 'UNSPECIFIED' ) ;
#370 = APPROVAL_STATUS ( 'not_yet_approved' ) ;
#371 = PERSON_AND_ORGANIZATION ( #401, #400 ) ;
#372 = PRODUCT_DEFINITION_FORMATION_WITH_SPECIFIED_SOURCE ( 'ANY', '', #402, .NOT_KNOWN. ) ;
#373 = CC_DESIGN_DATE_AND_TIME_ASSIGNMENT ( #375, #374, ( #393 ) ) ;
#374 = DATE_TIME_ROLE ( 'creation_date' ) ;
#375 = DATE_AND_TIME ( #376, #377 ) ;
#376 = CALENDAR_DATE ( 2012, 5, 4 ) ;
#377 = LOCAL_TIME ( 8, 46, 33.00000000000000000, #378 ) ;
#378 = COORDINATED_UNIVERSAL_TIME_OFFSET ( 5, 0, .BEHIND. ) ;
#379 = CC_DESIGN_PERSON_AND_ORGANIZATION_ASSIGNMENT ( #381, #380, ( #393 ) ) ;
#380 = PERSON_AND_ORGANIZATION_ROLE ( 'creator' ) ;
#381 = PERSON_AND_ORGANIZATION ( #401, #400 ) ;
#382 = CC_DESIGN_APPROVAL ( #390, ( #393 ) ) ;
#383 = APPROVAL_DATE_TIME ( #384, #390 ) ;
#384 = DATE_AND_TIME ( #385, #386 ) ;
#385 = CALENDAR_DATE ( 2012, 5, 4 ) ;
#386 = LOCAL_TIME ( 8, 46, 33.00000000000000000, #387 ) ;
#387 = COORDINATED_UNIVERSAL_TIME_OFFSET ( 5, 0, .BEHIND. ) ;
#388 = APPROVAL_PERSON_ORGANIZATION ( #392, #390, #389 ) ;
#389 = APPROVAL_ROLE ( '' ) ;
#390 = APPROVAL ( #391, 'UNSPECIFIED' ) ;
#391 = APPROVAL_STATUS ( 'not_yet_approved' ) ;
#392 = PERSON_AND_ORGANIZATION ( #401, #400 ) ;
#393 = PRODUCT_DEFINITION ( 'UNKNOWN', '', #372, #394 ) ;
#394 = DESIGN_CONTEXT ( 'detailed design', #396, 'design' ) ;
#395 = APPLICATION_PROTOCOL_DEFINITION ( 'international standard', 'config_control_design', 1994, #396 ) ;
#396 = APPLICATION_CONTEXT ( 'configuration controlled 3d designs of mechanical parts and assemblies' ) ;
#397 = CC_DESIGN_PERSON_AND_ORGANIZATION_ASSIGNMENT ( #399, #398, ( #402 ) ) ;
#398 = PERSON_AND_ORGANIZATION_ROLE ( 'design_owner' ) ;
#399 = PERSON_AND_ORGANIZATION ( #401, #400 ) ;
#400 = ORGANIZATION ( 'UNSPECIFIED', 'UNSPECIFIED', '' ) ;
#401 = PERSON ( 'UNSPECIFIED', 'UNSPECIFIED', 'UNSPECIFIED', ('UNSPECIFIED'), ('UNSPECIFIED'), ('UNSPECIFIED') ) ;
#402 = PRODUCT ( 'WDS-402-201', 'WDS-402-201', '', ( #403 ) ) ;
#403 = MECHANICAL_CONTEXT ( 'NONE', #410, 'mechanical' ) ;
#404 = APPLICATION_PROTOCOL_DEFINITION ( 'international standard', 'config_control_design', 1994, #410 ) ;
#405 =( NAMED_UNIT ( * ) PLANE_ANGLE_UNIT ( ) SI_UNIT ( $, .RADIAN. ) );
#406 =( LENGTH_UNIT ( ) NAMED_UNIT ( * ) SI_UNIT ( .MILLI., .METRE. ) );
#407 = DIRECTION ( 'NONE',  ( 1.000000000000000000, 0.0000000000000000000, 0.0000000000000000000 ) ) ;
#408 = DIRECTION ( 'NONE',  ( 0.0000000000000000000, 0.0000000000000000000, 1.000000000000000000 ) ) ;
#409 = CARTESIAN_POINT ( 'NONE',  ( 0.0000000000000000000, 0.0000000000000000000, 0.0000000000000000000 ) ) ;
#410 = APPLICATION_CONTEXT ( 'configuration controlled 3d designs of mechanical parts and assemblies' ) ;
#411 = ADVANCED_BREP_SHAPE_REPRESENTATION ( 'WDS-402-201', ( #86, #330 ), #412 ) ;
#412 =( GEOMETRIC_REPRESENTATION_CONTEXT ( 3 ) GLOBAL_UNCERTAINTY_ASSIGNED_CONTEXT ( ( #413 ) ) GLOBAL_UNIT_ASSIGNED_CONTEXT ( ( #406, #405, #414 ) ) REPRESENTATION_CONTEXT ( 'NONE', 'WORKASPACE' ) );
#413 = UNCERTAINTY_MEASURE_WITH_UNIT (LENGTH_MEASURE( 1.000000000000000100E-005 ), #406, 'distance_accuracy_value', 'NONE');
#414 =( NAMED_UNIT ( * ) SI_UNIT ( $, .STERADIAN. ) SOLID_ANGLE_UNIT ( ) );
ENDSEC;
END-ISO-10303-21;
