ISO-10303-21;
HEADER;
FILE_DESCRIPTION (( 'STEP AP203' ),
    '1' );
FILE_NAME ('WDS-402-2004.step',
    '2012-04-05T12:45:38',
    ( 'SysAdmin' ),
    ( 'SolidWorks' ),
    'SwSTEP 2.0',
    'SolidWorks 2012',
    '' );
FILE_SCHEMA (( 'CONFIG_CONTROL_DESIGN' ));
ENDSEC;

DATA;
#1 = CARTESIAN_POINT ( 'NONE',  ( 6.868130584479543700, -3.405066759442940700, -2.835186847041400300 ) ) ;
#2 = B_SPLINE_CURVE_WITH_KNOTS ( 'NONE', 3,
 ( #81, #1, #4, #3 ),
 .UNSPECIFIED., .F., .F.,
 ( 4, 4 ),
 ( 0.0000000000000000000, 0.0007974778897383958000 ),
 .UNSPECIFIED. ) ;
#3 = CARTESIAN_POINT ( 'NONE',  ( 7.054143246711270800, -3.773468305800085100, -2.499999999999998700 ) ) ;
#4 = CARTESIAN_POINT ( 'NONE',  ( 6.961426436682686800, -3.589840934533929500, -2.668368715608745200 ) ) ;
#5 = ADVANCED_FACE ( 'NONE', ( #43 ), #65, .F. ) ;
#6 = ORIENTED_EDGE ( 'NONE', *, *, #8, .T. ) ;
#7 = EDGE_CURVE ( 'NONE', #114, #124, #41, .T. ) ;
#8 = EDGE_CURVE ( 'NONE', #125, #114, #86, .T. ) ;
#9 = VERTEX_POINT ( 'NONE', #88 ) ;
#10 = ORIENTED_EDGE ( 'NONE', *, *, #46, .T. ) ;
#11 = ADVANCED_FACE ( 'NONE', ( #64 ), #42, .F. ) ;
#12 = ORIENTED_EDGE ( 'NONE', *, *, #17, .F. ) ;
#13 = ORIENTED_EDGE ( 'NONE', *, *, #122, .F. ) ;
#14 = ORIENTED_EDGE ( 'NONE', *, *, #154, .F. ) ;
#15 = ORIENTED_EDGE ( 'NONE', *, *, #8, .F. ) ;
#16 = EDGE_LOOP ( 'NONE', ( #18, #27, #28, #22 ) ) ;
#17 = EDGE_CURVE ( 'NONE', #109, #116, #77, .T. ) ;
#18 = ORIENTED_EDGE ( 'NONE', *, *, #56, .F. ) ;
#19 = ORIENTED_EDGE ( 'NONE', *, *, #20, .T. ) ;
#20 = EDGE_CURVE ( 'NONE', #125, #118, #2, .T. ) ;
#21 = EDGE_LOOP ( 'NONE', ( #24, #13, #34, #35, #32, #36 ) ) ;
#22 = ORIENTED_EDGE ( 'NONE', *, *, #112, .F. ) ;
#23 = ADVANCED_FACE ( 'NONE', ( #87 ), #62, .T. ) ;
#24 = ORIENTED_EDGE ( 'NONE', *, *, #45, .F. ) ;
#25 = EDGE_LOOP ( 'NONE', ( #26, #29, #12, #14, #30, #31 ) ) ;
#26 = ORIENTED_EDGE ( 'NONE', *, *, #37, .F. ) ;
#27 = ORIENTED_EDGE ( 'NONE', *, *, #151, .F. ) ;
#28 = ORIENTED_EDGE ( 'NONE', *, *, #17, .T. ) ;
#29 = ORIENTED_EDGE ( 'NONE', *, *, #47, .F. ) ;
#30 = ORIENTED_EDGE ( 'NONE', *, *, #142, .F. ) ;
#31 = ORIENTED_EDGE ( 'NONE', *, *, #7, .F. ) ;
#32 = ORIENTED_EDGE ( 'NONE', *, *, #135, .F. ) ;
#33 = ADVANCED_FACE ( 'NONE', ( #255 ), #253, .T. ) ;
#34 = ORIENTED_EDGE ( 'NONE', *, *, #20, .F. ) ;
#35 = ORIENTED_EDGE ( 'NONE', *, *, #108, .F. ) ;
#36 = ORIENTED_EDGE ( 'NONE', *, *, #155, .F. ) ;
#37 = EDGE_CURVE ( 'NONE', #113, #114, #214, .T. ) ;
#38 = DIRECTION ( 'NONE',  ( 1.000000000000000000, 0.0000000000000000000, -0.0000000000000000000 ) ) ;
#39 = DIRECTION ( 'NONE',  ( 0.0000000000000000000, 0.0000000000000000000, 1.000000000000000000 ) ) ;
#40 = CARTESIAN_POINT ( 'NONE',  ( 6.411145864718848800, 2.500000000000002200, -3.000000000000000000 ) ) ;
#41 = LINE ( 'NONE', #40, #90 ) ;
#42 = PLANE ( 'NONE',  #68 ) ;
#43 = FACE_OUTER_BOUND ( 'NONE', #126, .T. ) ;
#44 = ORIENTED_EDGE ( 'NONE', *, *, #59, .F. ) ;
#45 = EDGE_CURVE ( 'NONE', #49, #48, #215, .T. ) ;
#46 = EDGE_CURVE ( 'NONE', #124, #9, #207, .T. ) ;
#47 = EDGE_CURVE ( 'NONE', #116, #113, #199, .T. ) ;
#48 = VERTEX_POINT ( 'NONE', #213 ) ;
#49 = VERTEX_POINT ( 'NONE', #198 ) ;
#50 = EDGE_LOOP ( 'NONE', ( #115, #117, #120, #57, #119 ) ) ;
#51 = EDGE_CURVE ( 'NONE', #52, #48, #256, .T. ) ;
#52 = VERTEX_POINT ( 'NONE', #192 ) ;
#53 = ADVANCED_FACE ( 'NONE', ( #185 ), #191, .T. ) ;
#54 = ORIENTED_EDGE ( 'NONE', *, *, #56, .T. ) ;
#55 = ORIENTED_EDGE ( 'NONE', *, *, #51, .F. ) ;
#56 = EDGE_CURVE ( 'NONE', #52, #127, #181, .T. ) ;
#57 = ORIENTED_EDGE ( 'NONE', *, *, #121, .T. ) ;
#58 = ORIENTED_EDGE ( 'NONE', *, *, #45, .T. ) ;
#59 = EDGE_CURVE ( 'NONE', #49, #127, #182, .T. ) ;
#60 = EDGE_LOOP ( 'NONE', ( #55, #54, #44, #58 ) ) ;
#61 = AXIS2_PLACEMENT_3D ( 'NONE', #110, #39, #38 ) ;
#62 = CONICAL_SURFACE ( 'NONE', #76, 7.500000000000000000, 0.7853981633974466100 ) ;
#63 = ADVANCED_FACE ( 'NONE', ( #186 ), #189, .F. ) ;
#64 = FACE_OUTER_BOUND ( 'NONE', #25, .T. ) ;
#65 = PLANE ( 'NONE',  #61 ) ;
#66 = MANIFOLD_SOLID_BREP ( 'Chamfer2', #91 ) ;
#67 = EDGE_LOOP ( 'NONE', ( #149, #147, #146, #148 ) ) ;
#68 = AXIS2_PLACEMENT_3D ( 'NONE', #80, #79, #78 ) ;
#69 = DIRECTION ( 'NONE',  ( 0.0000000000000000000, 0.0000000000000000000, -1.000000000000000000 ) ) ;
#70 = CARTESIAN_POINT ( 'NONE',  ( 0.0000000000000000000, 0.0000000000000000000, 0.0000000000000000000 ) ) ;
#71 = CARTESIAN_POINT ( 'NONE',  ( 7.054143246711267200, 3.773468305800091700, -0.5000000000000022200 ) ) ;
#72 = CARTESIAN_POINT ( 'NONE',  ( 6.961426436682685000, 3.589840934533935700, -0.3316312843912550000 ) ) ;
#73 = CARTESIAN_POINT ( 'NONE',  ( 6.868130584479540200, 3.405066759442947300, -0.1648131529586002700 ) ) ;
#74 = CARTESIAN_POINT ( 'NONE',  ( 6.774124897751714300, 3.218886743838669700, 0.0000000000000000000 ) ) ;
#75 = DIRECTION ( 'NONE',  ( -1.000000000000000000, 0.0000000000000000000, 0.0000000000000000000 ) ) ;
#76 = AXIS2_PLACEMENT_3D ( 'NONE', #70, #69, #75 ) ;
#77 = B_SPLINE_CURVE_WITH_KNOTS ( 'NONE', 3,
 ( #74, #73, #72, #71 ),
 .UNSPECIFIED., .F., .F.,
 ( 4, 4 ),
 ( 0.0000000000000000000, 0.0007974778897383969900 ),
 .UNSPECIFIED. ) ;
#78 = DIRECTION ( 'NONE',  ( -0.4507224202605958900, -0.8926641585021943800, 0.0000000000000000000 ) ) ;
#79 = DIRECTION ( 'NONE',  ( -0.8926641585021943800, 0.4507224202605958900, 0.0000000000000000000 ) ) ;
#80 = CARTESIAN_POINT ( 'NONE',  ( 6.411145864718848800, 2.500000000000002200, -3.000000000000000000 ) ) ;
#81 = CARTESIAN_POINT ( 'NONE',  ( 6.774124897751717900, -3.218886743838663500, -3.000000000000000000 ) ) ;
#82 = DIRECTION ( 'NONE',  ( 1.000000000000000000, 0.0000000000000000000, 0.0000000000000000000 ) ) ;
#83 = DIRECTION ( 'NONE',  ( -0.0000000000000000000, -0.0000000000000000000, -1.000000000000000000 ) ) ;
#84 = CARTESIAN_POINT ( 'NONE',  ( 0.0000000000000000000, 0.0000000000000000000, -3.000000000000000000 ) ) ;
#85 = AXIS2_PLACEMENT_3D ( 'NONE', #84, #83, #82 ) ;
#86 = CIRCLE ( 'NONE', #85, 7.499999999999998200 ) ;
#87 = FACE_OUTER_BOUND ( 'NONE', #16, .T. ) ;
#88 = CARTESIAN_POINT ( 'NONE',  ( 0.0000000000000000000, 2.500000000000002200, -3.000000000000000000 ) ) ;
#89 = DIRECTION ( 'NONE',  ( -0.4507224202605958900, -0.8926641585021943800, 0.0000000000000000000 ) ) ;
#90 = VECTOR ( 'NONE', #89, 1000.000000000000000 ) ;
#91 = CLOSED_SHELL ( 'NONE', ( #53, #111, #5, #92, #63, #143, #136, #145, #23, #11, #33 ) ) ;
#92 = ADVANCED_FACE ( 'NONE', ( #297 ), #296, .T. ) ;
#93 = ORIENTED_EDGE ( 'NONE', *, *, #96, .F. ) ;
#94 = EDGE_CURVE ( 'NONE', #9, #101, #295, .T. ) ;
#95 = EDGE_CURVE ( 'NONE', #101, #106, #290, .T. ) ;
#96 = EDGE_CURVE ( 'NONE', #160, #161, #292, .T. ) ;
#97 = EDGE_CURVE ( 'NONE', #101, #102, #246, .T. ) ;
#98 = ORIENTED_EDGE ( 'NONE', *, *, #108, .T. ) ;
#99 = ORIENTED_EDGE ( 'NONE', *, *, #51, .T. ) ;
#100 = ORIENTED_EDGE ( 'NONE', *, *, #105, .F. ) ;
#101 = VERTEX_POINT ( 'NONE', #286 ) ;
#102 = VERTEX_POINT ( 'NONE', #242 ) ;
#103 = EDGE_CURVE ( 'NONE', #106, #159, #248, .T. ) ;
#104 = EDGE_CURVE ( 'NONE', #9, #161, #234, .T. ) ;
#105 = EDGE_CURVE ( 'NONE', #161, #106, #247, .T. ) ;
#106 = VERTEX_POINT ( 'NONE', #239 ) ;
#107 = ORIENTED_EDGE ( 'NONE', *, *, #97, .T. ) ;
#108 = EDGE_CURVE ( 'NONE', #102, #125, #224, .T. ) ;
#109 = VERTEX_POINT ( 'NONE', #226 ) ;
#110 = CARTESIAN_POINT ( 'NONE',  ( 0.0000000000000000000, 0.0000000000000000000, -3.000000000000000000 ) ) ;
#111 = ADVANCED_FACE ( 'NONE', ( #220 ), #249, .T. ) ;
#112 = EDGE_CURVE ( 'NONE', #127, #116, #170, .T. ) ;
#113 = VERTEX_POINT ( 'NONE', #166 ) ;
#114 = VERTEX_POINT ( 'NONE', #165 ) ;
#115 = ORIENTED_EDGE ( 'NONE', *, *, #59, .T. ) ;
#116 = VERTEX_POINT ( 'NONE', #176 ) ;
#117 = ORIENTED_EDGE ( 'NONE', *, *, #112, .T. ) ;
#118 = VERTEX_POINT ( 'NONE', #230 ) ;
#119 = ORIENTED_EDGE ( 'NONE', *, *, #122, .T. ) ;
#120 = ORIENTED_EDGE ( 'NONE', *, *, #47, .T. ) ;
#121 = EDGE_CURVE ( 'NONE', #113, #118, #227, .T. ) ;
#122 = EDGE_CURVE ( 'NONE', #118, #49, #175, .T. ) ;
#123 = ORIENTED_EDGE ( 'NONE', *, *, #7, .T. ) ;
#124 = VERTEX_POINT ( 'NONE', #164 ) ;
#125 = VERTEX_POINT ( 'NONE', #277 ) ;
#126 = EDGE_LOOP ( 'NONE', ( #6, #123, #10, #128, #107, #98 ) ) ;
#127 = VERTEX_POINT ( 'NONE', #276 ) ;
#128 = ORIENTED_EDGE ( 'NONE', *, *, #94, .T. ) ;
#129 = ORIENTED_EDGE ( 'NONE', *, *, #37, .T. ) ;
#130 = ORIENTED_EDGE ( 'NONE', *, *, #121, .F. ) ;
#131 = ORIENTED_EDGE ( 'NONE', *, *, #96, .T. ) ;
#132 = ORIENTED_EDGE ( 'NONE', *, *, #103, .T. ) ;
#133 = ORIENTED_EDGE ( 'NONE', *, *, #46, .F. ) ;
#134 = EDGE_LOOP ( 'NONE', ( #132, #144, #140, #137 ) ) ;
#135 = EDGE_CURVE ( 'NONE', #159, #102, #162, .T. ) ;
#136 = ADVANCED_FACE ( 'NONE', ( #163 ), #275, .F. ) ;
#137 = ORIENTED_EDGE ( 'NONE', *, *, #95, .T. ) ;
#138 = ORIENTED_EDGE ( 'NONE', *, *, #142, .T. ) ;
#139 = ORIENTED_EDGE ( 'NONE', *, *, #104, .F. ) ;
#140 = ORIENTED_EDGE ( 'NONE', *, *, #97, .F. ) ;
#141 = EDGE_LOOP ( 'NONE', ( #133, #138, #131, #139 ) ) ;
#142 = EDGE_CURVE ( 'NONE', #124, #160, #264, .T. ) ;
#143 = ADVANCED_FACE ( 'NONE', ( #271 ), #278, .F. ) ;
#144 = ORIENTED_EDGE ( 'NONE', *, *, #135, .T. ) ;
#145 = ADVANCED_FACE ( 'NONE', ( #353 ), #352, .T. ) ;
#146 = ORIENTED_EDGE ( 'NONE', *, *, #94, .F. ) ;
#147 = ORIENTED_EDGE ( 'NONE', *, *, #95, .F. ) ;
#148 = ORIENTED_EDGE ( 'NONE', *, *, #104, .T. ) ;
#149 = ORIENTED_EDGE ( 'NONE', *, *, #105, .T. ) ;
#150 = ORIENTED_EDGE ( 'NONE', *, *, #154, .T. ) ;
#151 = EDGE_CURVE ( 'NONE', #109, #52, #376, .T. ) ;
#152 = ORIENTED_EDGE ( 'NONE', *, *, #151, .T. ) ;
#153 = EDGE_LOOP ( 'NONE', ( #93, #150, #152, #99, #157, #156, #100 ) ) ;
#154 = EDGE_CURVE ( 'NONE', #160, #109, #367, .T. ) ;
#155 = EDGE_CURVE ( 'NONE', #48, #159, #363, .T. ) ;
#156 = ORIENTED_EDGE ( 'NONE', *, *, #103, .F. ) ;
#157 = ORIENTED_EDGE ( 'NONE', *, *, #155, .T. ) ;
#158 = EDGE_LOOP ( 'NONE', ( #130, #129, #15, #19 ) ) ;
#159 = VERTEX_POINT ( 'NONE', #372 ) ;
#160 = VERTEX_POINT ( 'NONE', #359 ) ;
#161 = VERTEX_POINT ( 'NONE', #358 ) ;
#162 = LINE ( 'NONE', #171, #267 ) ;
#163 = FACE_OUTER_BOUND ( 'NONE', #134, .T. ) ;
#164 = CARTESIAN_POINT ( 'NONE',  ( 6.411145864718848800, 2.500000000000002200, -3.000000000000000000 ) ) ;
#165 = CARTESIAN_POINT ( 'NONE',  ( 6.774124897751713400, 3.218886743838668800, -3.000000000000000000 ) ) ;
#166 = CARTESIAN_POINT ( 'NONE',  ( 7.054143246711267200, 3.773468305800090800, -2.499999999999998700 ) ) ;
#167 = DIRECTION ( 'NONE',  ( 1.000000000000000000, 0.0000000000000000000, 0.0000000000000000000 ) ) ;
#168 = DIRECTION ( 'NONE',  ( 0.0000000000000000000, 0.0000000000000000000, -1.000000000000000000 ) ) ;
#169 = CARTESIAN_POINT ( 'NONE',  ( 0.0000000000000000000, 0.0000000000000000000, -0.5000000000000022200 ) ) ;
#170 = CIRCLE ( 'NONE', #225, 8.000000000000000000 ) ;
#171 = CARTESIAN_POINT ( 'NONE',  ( 6.411145864718850600, -2.499999999999999100, -2.499999999999997800 ) ) ;
#172 = DIRECTION ( 'NONE',  ( 1.000000000000000000, 0.0000000000000000000, 0.0000000000000000000 ) ) ;
#173 = DIRECTION ( 'NONE',  ( 0.0000000000000000000, 0.0000000000000000000, 1.000000000000000000 ) ) ;
#174 = CARTESIAN_POINT ( 'NONE',  ( 0.0000000000000000000, 0.0000000000000000000, -3.000000000000000000 ) ) ;
#175 = LINE ( 'NONE', #274, #273 ) ;
#176 = CARTESIAN_POINT ( 'NONE',  ( 7.054143246711267200, 3.773468305800091700, -0.5000000000000022200 ) ) ;
#177 = AXIS2_PLACEMENT_3D ( 'NONE', #293, #299, #291 ) ;
#178 = DIRECTION ( 'NONE',  ( -0.7071067811865463500, 0.0000000000000000000, -0.7071067811865487900 ) ) ;
#179 = VECTOR ( 'NONE', #178, 1000.000000000000000 ) ;
#180 = CARTESIAN_POINT ( 'NONE',  ( -7.500000000000000000, 0.0000000000000000000, 0.0000000000000000000 ) ) ;
#181 = LINE ( 'NONE', #180, #179 ) ;
#182 = CIRCLE ( 'NONE', #303, 8.000000000000000000 ) ;
#183 = DIRECTION ( 'NONE',  ( -1.000000000000000000, 0.0000000000000000000, 0.0000000000000000000 ) ) ;
#184 = DIRECTION ( 'NONE',  ( 0.0000000000000000000, 0.0000000000000000000, -1.000000000000000000 ) ) ;
#185 = FACE_OUTER_BOUND ( 'NONE', #60, .T. ) ;
#186 = FACE_OUTER_BOUND ( 'NONE', #67, .T. ) ;
#187 = DIRECTION ( 'NONE',  ( 1.000000000000000000, 0.0000000000000000000, 0.0000000000000000000 ) ) ;
#188 = DIRECTION ( 'NONE',  ( 0.0000000000000000000, 0.0000000000000000000, 1.000000000000000000 ) ) ;
#189 = CYLINDRICAL_SURFACE ( 'NONE', #304, 2.500000000000001300 ) ;
#190 = DIRECTION ( 'NONE',  ( -0.0000000000000000000, -0.0000000000000000000, 1.000000000000000000 ) ) ;
#191 = CONICAL_SURFACE ( 'NONE', #193, 7.500000000000000000, 0.7853981633974466100 ) ;
#192 = CARTESIAN_POINT ( 'NONE',  ( -7.500000000000000000, 0.0000000000000000000, 0.0000000000000000000 ) ) ;
#193 = AXIS2_PLACEMENT_3D ( 'NONE', #194, #184, #183 ) ;
#194 = CARTESIAN_POINT ( 'NONE',  ( 0.0000000000000000000, 0.0000000000000000000, 0.0000000000000000000 ) ) ;
#195 = DIRECTION ( 'NONE',  ( -0.0000000000000000000, -0.0000000000000000000, -1.000000000000000000 ) ) ;
#196 = VECTOR ( 'NONE', #195, 1000.000000000000000 ) ;
#197 = CARTESIAN_POINT ( 'NONE',  ( 7.054143246711267200, 3.773468305800091700, -3.000000000000000000 ) ) ;
#198 = CARTESIAN_POINT ( 'NONE',  ( 7.054143246711272600, -3.773468305800085500, -0.5000000000000022200 ) ) ;
#199 = LINE ( 'NONE', #197, #196 ) ;
#200 = DIRECTION ( 'NONE',  ( -1.000000000000000000, -0.0000000000000000000, -0.0000000000000000000 ) ) ;
#201 = VECTOR ( 'NONE', #200, 1000.000000000000000 ) ;
#202 = CARTESIAN_POINT ( 'NONE',  ( 0.0000000000000000000, 2.500000000000002200, -3.000000000000000000 ) ) ;
#203 = CARTESIAN_POINT ( 'NONE',  ( 6.774124897751718800, -3.218886743838665200, 0.0000000000000000000 ) ) ;
#204 = CARTESIAN_POINT ( 'NONE',  ( 6.868130584479543700, -3.405066759442942900, -0.1648131529585995200 ) ) ;
#205 = CARTESIAN_POINT ( 'NONE',  ( 6.961426436682687700, -3.589840934533929900, -0.3316312843912560000 ) ) ;
#206 = CARTESIAN_POINT ( 'NONE',  ( 7.054143246711272600, -3.773468305800085500, -0.5000000000000022200 ) ) ;
#207 = LINE ( 'NONE', #202, #201 ) ;
#208 = CARTESIAN_POINT ( 'NONE',  ( 6.774124897751713400, 3.218886743838668800, -3.000000000000000000 ) ) ;
#209 = CARTESIAN_POINT ( 'NONE',  ( 6.868130584479540200, 3.405066759442947300, -2.835186847041400300 ) ) ;
#210 = CARTESIAN_POINT ( 'NONE',  ( 6.961426436682684100, 3.589840934533934800, -2.668368715608744800 ) ) ;
#211 = CARTESIAN_POINT ( 'NONE',  ( 7.054143246711267200, 3.773468305800090800, -2.499999999999998700 ) ) ;
#212 = AXIS2_PLACEMENT_3D ( 'NONE', #254, #188, #187 ) ;
#213 = CARTESIAN_POINT ( 'NONE',  ( 6.774124897751718800, -3.218886743838665200, 0.0000000000000000000 ) ) ;
#214 = B_SPLINE_CURVE_WITH_KNOTS ( 'NONE', 3,
 ( #211, #210, #209, #208 ),
 .UNSPECIFIED., .F., .F.,
 ( 4, 4 ),
 ( 6.133173666733496700E-019, 0.0007974778897383972100 ),
 .UNSPECIFIED. ) ;
#215 = B_SPLINE_CURVE_WITH_KNOTS ( 'NONE', 3,
 ( #206, #205, #204, #203 ),
 .UNSPECIFIED., .F., .F.,
 ( 4, 4 ),
 ( 6.942281208919283300E-019, 0.0007974778897383951500 ),
 .UNSPECIFIED. ) ;
#216 = DIRECTION ( 'NONE',  ( -0.4507224202605976100, 0.8926641585021934900, 0.0000000000000000000 ) ) ;
#217 = DIRECTION ( 'NONE',  ( 0.8926641585021934900, 0.4507224202605976100, -0.0000000000000000000 ) ) ;
#218 = CARTESIAN_POINT ( 'NONE',  ( 6.411145864718850600, -2.499999999999999100, -3.000000000000000000 ) ) ;
#219 = AXIS2_PLACEMENT_3D ( 'NONE', #218, #217, #216 ) ;
#220 = FACE_OUTER_BOUND ( 'NONE', #50, .T. ) ;
#221 = DIRECTION ( 'NONE',  ( 0.4507224202605976100, -0.8926641585021936100, 0.0000000000000000000 ) ) ;
#222 = VECTOR ( 'NONE', #221, 999.9999999999998900 ) ;
#223 = CARTESIAN_POINT ( 'NONE',  ( 6.411145864718850600, -2.499999999999999100, -3.000000000000000000 ) ) ;
#224 = LINE ( 'NONE', #223, #222 ) ;
#225 = AXIS2_PLACEMENT_3D ( 'NONE', #169, #168, #167 ) ;
#226 = CARTESIAN_POINT ( 'NONE',  ( 6.774124897751714300, 3.218886743838669700, 0.0000000000000000000 ) ) ;
#227 = CIRCLE ( 'NONE', #282, 8.000000000000000000 ) ;
#228 = DIRECTION ( 'NONE',  ( 1.000000000000000000, 0.0000000000000000000, 0.0000000000000000000 ) ) ;
#229 = DIRECTION ( 'NONE',  ( 0.0000000000000000000, 0.0000000000000000000, 1.000000000000000000 ) ) ;
#230 = CARTESIAN_POINT ( 'NONE',  ( 7.054143246711270800, -3.773468305800085100, -2.499999999999998700 ) ) ;
#231 = DIRECTION ( 'NONE',  ( -0.0000000000000000000, -0.0000000000000000000, 1.000000000000000000 ) ) ;
#232 = VECTOR ( 'NONE', #231, 1000.000000000000000 ) ;
#233 = CARTESIAN_POINT ( 'NONE',  ( 0.0000000000000000000, 2.500000000000002200, -3.000000000000000000 ) ) ;
#234 = LINE ( 'NONE', #233, #232 ) ;
#235 = AXIS2_PLACEMENT_3D ( 'NONE', #241, #229, #228 ) ;
#236 = DIRECTION ( 'NONE',  ( 1.000000000000000000, 2.168404344971007900E-016, -0.0000000000000000000 ) ) ;
#237 = VECTOR ( 'NONE', #236, 1000.000000000000000 ) ;
#238 = CARTESIAN_POINT ( 'NONE',  ( 8.000000000000003600, -2.499999999999998700, 0.0000000000000000000 ) ) ;
#239 = CARTESIAN_POINT ( 'NONE',  ( 3.061627057630269300E-016, -2.500000000000000400, 0.0000000000000000000 ) ) ;
#240 = AXIS2_PLACEMENT_3D ( 'NONE', #174, #173, #172 ) ;
#241 = CARTESIAN_POINT ( 'NONE',  ( 0.0000000000000000000, 0.0000000000000000000, 0.0000000000000000000 ) ) ;
#242 = CARTESIAN_POINT ( 'NONE',  ( 6.411145864718850600, -2.499999999999999600, -3.000000000000000000 ) ) ;
#243 = DIRECTION ( 'NONE',  ( 1.000000000000000000, 2.168404344971007900E-016, -0.0000000000000000000 ) ) ;
#244 = VECTOR ( 'NONE', #243, 1000.000000000000000 ) ;
#245 = CARTESIAN_POINT ( 'NONE',  ( 8.000000000000003600, -2.499999999999998700, -3.000000000000000000 ) ) ;
#246 = LINE ( 'NONE', #245, #244 ) ;
#247 = CIRCLE ( 'NONE', #235, 2.500000000000001300 ) ;
#248 = LINE ( 'NONE', #238, #237 ) ;
#249 = CYLINDRICAL_SURFACE ( 'NONE', #240, 8.000000000000000000 ) ;
#250 = DIRECTION ( 'NONE',  ( -1.000000000000000000, -0.0000000000000000000, 0.0000000000000000000 ) ) ;
#251 = VECTOR ( 'NONE', #250, 1000.000000000000000 ) ;
#252 = CARTESIAN_POINT ( 'NONE',  ( 0.0000000000000000000, 2.500000000000002200, 0.0000000000000000000 ) ) ;
#253 = PLANE ( 'NONE',  #219 ) ;
#254 = CARTESIAN_POINT ( 'NONE',  ( 0.0000000000000000000, 0.0000000000000000000, 0.0000000000000000000 ) ) ;
#255 = FACE_OUTER_BOUND ( 'NONE', #21, .T. ) ;
#256 = CIRCLE ( 'NONE', #212, 7.500000000000000000 ) ;
#257 = DIRECTION ( 'NONE',  ( 0.0000000000000000000, -0.0000000000000000000, 1.000000000000000000 ) ) ;
#258 = DIRECTION ( 'NONE',  ( -0.0000000000000000000, 1.000000000000000000, 0.0000000000000000000 ) ) ;
#259 = CARTESIAN_POINT ( 'NONE',  ( 0.0000000000000000000, 2.500000000000002200, -3.000000000000000000 ) ) ;
#260 = DIRECTION ( 'NONE',  ( 0.0000000000000000000, 0.0000000000000000000, 1.000000000000000000 ) ) ;
#261 = VECTOR ( 'NONE', #260, 1000.000000000000000 ) ;
#262 = CARTESIAN_POINT ( 'NONE',  ( 6.411145864718848800, 2.500000000000002200, -0.5000000000000015500 ) ) ;
#263 = AXIS2_PLACEMENT_3D ( 'NONE', #259, #258, #257 ) ;
#264 = LINE ( 'NONE', #262, #261 ) ;
#265 = DIRECTION ( 'NONE',  ( 1.000000000000000000, 2.168404344971007900E-016, 0.0000000000000000000 ) ) ;
#266 = DIRECTION ( 'NONE',  ( 0.0000000000000000000, 0.0000000000000000000, -1.000000000000000000 ) ) ;
#267 = VECTOR ( 'NONE', #266, 1000.000000000000000 ) ;
#268 = CARTESIAN_POINT ( 'NONE',  ( 8.000000000000003600, -2.499999999999998700, -3.000000000000000000 ) ) ;
#269 = AXIS2_PLACEMENT_3D ( 'NONE', #268, #270, #265 ) ;
#270 = DIRECTION ( 'NONE',  ( 2.168404344971007900E-016, -1.000000000000000000, 0.0000000000000000000 ) ) ;
#271 = FACE_OUTER_BOUND ( 'NONE', #141, .T. ) ;
#272 = DIRECTION ( 'NONE',  ( 0.0000000000000000000, 0.0000000000000000000, 1.000000000000000000 ) ) ;
#273 = VECTOR ( 'NONE', #272, 1000.000000000000000 ) ;
#274 = CARTESIAN_POINT ( 'NONE',  ( 7.054143246711270800, -3.773468305800085100, -3.000000000000000000 ) ) ;
#275 = PLANE ( 'NONE',  #269 ) ;
#276 = CARTESIAN_POINT ( 'NONE',  ( -8.000000000000000000, 0.0000000000000000000, -0.5000000000000022200 ) ) ;
#277 = CARTESIAN_POINT ( 'NONE',  ( 6.774124897751717900, -3.218886743838663500, -3.000000000000000000 ) ) ;
#278 = PLANE ( 'NONE',  #263 ) ;
#279 = DIRECTION ( 'NONE',  ( 1.000000000000000000, 0.0000000000000000000, 0.0000000000000000000 ) ) ;
#280 = DIRECTION ( 'NONE',  ( -0.0000000000000000000, -0.0000000000000000000, 1.000000000000000000 ) ) ;
#281 = CARTESIAN_POINT ( 'NONE',  ( 0.0000000000000000000, 0.0000000000000000000, -2.499999999999998700 ) ) ;
#282 = AXIS2_PLACEMENT_3D ( 'NONE', #281, #280, #279 ) ;
#283 = DIRECTION ( 'NONE',  ( -0.0000000000000000000, -0.0000000000000000000, 1.000000000000000000 ) ) ;
#284 = VECTOR ( 'NONE', #283, 1000.000000000000000 ) ;
#285 = CARTESIAN_POINT ( 'NONE',  ( 3.061616997868384100E-016, -2.500000000000000400, -3.000000000000000000 ) ) ;
#286 = CARTESIAN_POINT ( 'NONE',  ( 3.061616997868384100E-016, -2.500000000000000400, -3.000000000000000000 ) ) ;
#287 = DIRECTION ( 'NONE',  ( 1.000000000000000000, 0.0000000000000000000, 0.0000000000000000000 ) ) ;
#288 = DIRECTION ( 'NONE',  ( 0.0000000000000000000, 0.0000000000000000000, 1.000000000000000000 ) ) ;
#289 = CARTESIAN_POINT ( 'NONE',  ( 0.0000000000000000000, 0.0000000000000000000, -3.000000000000000000 ) ) ;
#290 = LINE ( 'NONE', #285, #284 ) ;
#291 = DIRECTION ( 'NONE',  ( 1.000000000000000000, 0.0000000000000000000, -0.0000000000000000000 ) ) ;
#292 = LINE ( 'NONE', #252, #251 ) ;
#293 = CARTESIAN_POINT ( 'NONE',  ( 0.0000000000000000000, 0.0000000000000000000, 0.0000000000000000000 ) ) ;
#294 = AXIS2_PLACEMENT_3D ( 'NONE', #289, #288, #287 ) ;
#295 = CIRCLE ( 'NONE', #294, 2.500000000000001300 ) ;
#296 = PLANE ( 'NONE',  #177 ) ;
#297 = FACE_OUTER_BOUND ( 'NONE', #153, .T. ) ;
#298 = CARTESIAN_POINT ( 'NONE',  ( 0.0000000000000000000, 0.0000000000000000000, -3.000000000000000000 ) ) ;
#299 = DIRECTION ( 'NONE',  ( 0.0000000000000000000, 0.0000000000000000000, 1.000000000000000000 ) ) ;
#300 = DIRECTION ( 'NONE',  ( 1.000000000000000000, 0.0000000000000000000, 0.0000000000000000000 ) ) ;
#301 = DIRECTION ( 'NONE',  ( 0.0000000000000000000, 0.0000000000000000000, -1.000000000000000000 ) ) ;
#302 = CARTESIAN_POINT ( 'NONE',  ( 0.0000000000000000000, 0.0000000000000000000, -0.5000000000000022200 ) ) ;
#303 = AXIS2_PLACEMENT_3D ( 'NONE', #302, #301, #300 ) ;
#304 = AXIS2_PLACEMENT_3D ( 'NONE', #298, #190, #305 ) ;
#305 = DIRECTION ( 'NONE',  ( 1.000000000000000000, 0.0000000000000000000, 0.0000000000000000000 ) ) ;
#306 = CC_DESIGN_APPROVAL ( #314, ( #317 ) ) ;
#307 = APPROVAL_DATE_TIME ( #308, #314 ) ;
#308 = DATE_AND_TIME ( #309, #310 ) ;
#309 = CALENDAR_DATE ( 2012, 5, 4 ) ;
#310 = LOCAL_TIME ( 8, 45, 37.00000000000000000, #311 ) ;
#311 = COORDINATED_UNIVERSAL_TIME_OFFSET ( 5, 0, .BEHIND. ) ;
#312 = APPROVAL_PERSON_ORGANIZATION ( #316, #314, #313 ) ;
#313 = APPROVAL_ROLE ( '' ) ;
#314 = APPROVAL ( #315, 'UNSPECIFIED' ) ;
#315 = APPROVAL_STATUS ( 'not_yet_approved' ) ;
#316 = PERSON_AND_ORGANIZATION ( #347, #346 ) ;
#317 = PRODUCT_DEFINITION_FORMATION_WITH_SPECIFIED_SOURCE ( 'ANY', '', #348, .NOT_KNOWN. ) ;
#318 = SHAPE_DEFINITION_REPRESENTATION ( #384, #382 ) ;
#319 = CC_DESIGN_DATE_AND_TIME_ASSIGNMENT ( #321, #320, ( #339 ) ) ;
#320 = DATE_TIME_ROLE ( 'creation_date' ) ;
#321 = DATE_AND_TIME ( #322, #323 ) ;
#322 = CALENDAR_DATE ( 2012, 5, 4 ) ;
#323 = LOCAL_TIME ( 8, 45, 37.00000000000000000, #324 ) ;
#324 = COORDINATED_UNIVERSAL_TIME_OFFSET ( 5, 0, .BEHIND. ) ;
#325 = CC_DESIGN_PERSON_AND_ORGANIZATION_ASSIGNMENT ( #327, #326, ( #339 ) ) ;
#326 = PERSON_AND_ORGANIZATION_ROLE ( 'creator' ) ;
#327 = PERSON_AND_ORGANIZATION ( #347, #346 ) ;
#328 = CC_DESIGN_APPROVAL ( #336, ( #339 ) ) ;
#329 = APPROVAL_DATE_TIME ( #330, #336 ) ;
#330 = DATE_AND_TIME ( #331, #332 ) ;
#331 = CALENDAR_DATE ( 2012, 5, 4 ) ;
#332 = LOCAL_TIME ( 8, 45, 37.00000000000000000, #333 ) ;
#333 = COORDINATED_UNIVERSAL_TIME_OFFSET ( 5, 0, .BEHIND. ) ;
#334 = APPROVAL_PERSON_ORGANIZATION ( #338, #336, #335 ) ;
#335 = APPROVAL_ROLE ( '' ) ;
#336 = APPROVAL ( #337, 'UNSPECIFIED' ) ;
#337 = APPROVAL_STATUS ( 'not_yet_approved' ) ;
#338 = PERSON_AND_ORGANIZATION ( #347, #346 ) ;
#339 = PRODUCT_DEFINITION ( 'UNKNOWN', '', #317, #340 ) ;
#340 = DESIGN_CONTEXT ( 'detailed design', #342, 'design' ) ;
#341 = APPLICATION_PROTOCOL_DEFINITION ( 'international standard', 'config_control_design', 1994, #342 ) ;
#342 = APPLICATION_CONTEXT ( 'configuration controlled 3d designs of mechanical parts and assemblies' ) ;
#343 = CC_DESIGN_PERSON_AND_ORGANIZATION_ASSIGNMENT ( #345, #344, ( #348 ) ) ;
#344 = PERSON_AND_ORGANIZATION_ROLE ( 'design_owner' ) ;
#345 = PERSON_AND_ORGANIZATION ( #347, #346 ) ;
#346 = ORGANIZATION ( 'UNSPECIFIED', 'UNSPECIFIED', '' ) ;
#347 = PERSON ( 'UNSPECIFIED', 'UNSPECIFIED', 'UNSPECIFIED', ('UNSPECIFIED'), ('UNSPECIFIED'), ('UNSPECIFIED') ) ;
#348 = PRODUCT ( 'WDS-402-2004', 'WDS-402-2004', '', ( #349 ) ) ;
#349 = MECHANICAL_CONTEXT ( 'NONE', #381, 'mechanical' ) ;
#350 = APPLICATION_PROTOCOL_DEFINITION ( 'international standard', 'config_control_design', 1994, #381 ) ;
#351 = AXIS2_PLACEMENT_3D ( 'NONE', #375, #374, #373 ) ;
#352 = CONICAL_SURFACE ( 'NONE', #351, 8.000000000000000000, 0.7853981633974491700 ) ;
#353 = FACE_OUTER_BOUND ( 'NONE', #158, .T. ) ;
#354 =( LENGTH_UNIT ( ) NAMED_UNIT ( * ) SI_UNIT ( .MILLI., .METRE. ) );
#355 = UNCERTAINTY_MEASURE_WITH_UNIT (LENGTH_MEASURE( 1.000000000000000100E-005 ), #354, 'distance_accuracy_value', 'NONE');
#356 =( NAMED_UNIT ( * ) SI_UNIT ( $, .STERADIAN. ) SOLID_ANGLE_UNIT ( ) );
#357 =( NAMED_UNIT ( * ) PLANE_ANGLE_UNIT ( ) SI_UNIT ( $, .RADIAN. ) );
#358 = CARTESIAN_POINT ( 'NONE',  ( 0.0000000000000000000, 2.500000000000002200, 0.0000000000000000000 ) ) ;
#359 = CARTESIAN_POINT ( 'NONE',  ( 6.411145864718848800, 2.500000000000002200, 0.0000000000000000000 ) ) ;
#360 = DIRECTION ( 'NONE',  ( -0.4507224202605976100, 0.8926641585021936100, 0.0000000000000000000 ) ) ;
#361 = VECTOR ( 'NONE', #360, 999.9999999999998900 ) ;
#362 = CARTESIAN_POINT ( 'NONE',  ( 4.102857718694062700, 2.071607718694037400, 0.0000000000000000000 ) ) ;
#363 = LINE ( 'NONE', #362, #361 ) ;
#364 = DIRECTION ( 'NONE',  ( 0.4507224202605958900, 0.8926641585021943800, -0.0000000000000000000 ) ) ;
#365 = VECTOR ( 'NONE', #364, 1000.000000000000000 ) ;
#366 = CARTESIAN_POINT ( 'NONE',  ( 4.102857718694072500, -2.071607718694033400, 0.0000000000000000000 ) ) ;
#367 = LINE ( 'NONE', #366, #365 ) ;
#368 = DIRECTION ( 'NONE',  ( 1.000000000000000000, 0.0000000000000000000, 0.0000000000000000000 ) ) ;
#369 = DIRECTION ( 'NONE',  ( 0.0000000000000000000, 0.0000000000000000000, 1.000000000000000000 ) ) ;
#370 = CARTESIAN_POINT ( 'NONE',  ( 0.0000000000000000000, 0.0000000000000000000, 0.0000000000000000000 ) ) ;
#371 = AXIS2_PLACEMENT_3D ( 'NONE', #370, #369, #368 ) ;
#372 = CARTESIAN_POINT ( 'NONE',  ( 6.411145864718852400, -2.500000000000000400, 0.0000000000000000000 ) ) ;
#373 = DIRECTION ( 'NONE',  ( 1.000000000000000000, 0.0000000000000000000, 0.0000000000000000000 ) ) ;
#374 = DIRECTION ( 'NONE',  ( -0.0000000000000000000, -0.0000000000000000000, 1.000000000000000000 ) ) ;
#375 = CARTESIAN_POINT ( 'NONE',  ( 0.0000000000000000000, 0.0000000000000000000, -2.499999999999998700 ) ) ;
#376 = CIRCLE ( 'NONE', #371, 7.500000000000000000 ) ;
#377 = DIRECTION ( 'NONE',  ( 0.0000000000000000000, 0.0000000000000000000, 1.000000000000000000 ) ) ;
#378 = CARTESIAN_POINT ( 'NONE',  ( 0.0000000000000000000, 0.0000000000000000000, 0.0000000000000000000 ) ) ;
#379 = DIRECTION ( 'NONE',  ( 1.000000000000000000, 0.0000000000000000000, 0.0000000000000000000 ) ) ;
#380 = AXIS2_PLACEMENT_3D ( 'NONE', #378, #377, #379 ) ;
#381 = APPLICATION_CONTEXT ( 'configuration controlled 3d designs of mechanical parts and assemblies' ) ;
#382 = ADVANCED_BREP_SHAPE_REPRESENTATION ( 'WDS-402-2004', ( #66, #380 ), #383 ) ;
#383 =( GEOMETRIC_REPRESENTATION_CONTEXT ( 3 ) GLOBAL_UNCERTAINTY_ASSIGNED_CONTEXT ( ( #355 ) ) GLOBAL_UNIT_ASSIGNED_CONTEXT ( ( #354, #357, #356 ) ) REPRESENTATION_CONTEXT ( 'NONE', 'WORKASPACE' ) );
#384 = PRODUCT_DEFINITION_SHAPE ( 'NONE', 'NONE',  #339 ) ;
#385 = PRODUCT_RELATED_PRODUCT_CATEGORY ( 'detail', '', ( #348 ) ) ;
#386 = CC_DESIGN_SECURITY_CLASSIFICATION ( #407, ( #317 ) ) ;
#387 = CC_DESIGN_APPROVAL ( #395, ( #407 ) ) ;
#388 = APPROVAL_DATE_TIME ( #389, #395 ) ;
#389 = DATE_AND_TIME ( #390, #391 ) ;
#390 = CALENDAR_DATE ( 2012, 5, 4 ) ;
#391 = LOCAL_TIME ( 8, 45, 37.00000000000000000, #392 ) ;
#392 = COORDINATED_UNIVERSAL_TIME_OFFSET ( 5, 0, .BEHIND. ) ;
#393 = APPROVAL_PERSON_ORGANIZATION ( #397, #395, #394 ) ;
#394 = APPROVAL_ROLE ( '' ) ;
#395 = APPROVAL ( #396, 'UNSPECIFIED' ) ;
#396 = APPROVAL_STATUS ( 'not_yet_approved' ) ;
#397 = PERSON_AND_ORGANIZATION ( #347, #346 ) ;
#398 = CC_DESIGN_DATE_AND_TIME_ASSIGNMENT ( #400, #399, ( #407 ) ) ;
#399 = DATE_TIME_ROLE ( 'classification_date' ) ;
#400 = DATE_AND_TIME ( #401, #402 ) ;
#401 = CALENDAR_DATE ( 2012, 5, 4 ) ;
#402 = LOCAL_TIME ( 8, 45, 37.00000000000000000, #403 ) ;
#403 = COORDINATED_UNIVERSAL_TIME_OFFSET ( 5, 0, .BEHIND. ) ;
#404 = CC_DESIGN_PERSON_AND_ORGANIZATION_ASSIGNMENT ( #406, #405, ( #407 ) ) ;
#405 = PERSON_AND_ORGANIZATION_ROLE ( 'classification_officer' ) ;
#406 = PERSON_AND_ORGANIZATION ( #347, #346 ) ;
#407 = SECURITY_CLASSIFICATION ( '', '', #408 ) ;
#408 = SECURITY_CLASSIFICATION_LEVEL ( 'unclassified' ) ;
#409 = CC_DESIGN_PERSON_AND_ORGANIZATION_ASSIGNMENT ( #411, #410, ( #317 ) ) ;
#410 = PERSON_AND_ORGANIZATION_ROLE ( 'design_supplier' ) ;
#411 = PERSON_AND_ORGANIZATION ( #347, #346 ) ;
#412 = CC_DESIGN_PERSON_AND_ORGANIZATION_ASSIGNMENT ( #414, #413, ( #317 ) ) ;
#413 = PERSON_AND_ORGANIZATION_ROLE ( 'creator' ) ;
#414 = PERSON_AND_ORGANIZATION ( #347, #346 ) ;
ENDSEC;
END-ISO-10303-21;
