ISO-10303-21;
HEADER;
FILE_DESCRIPTION (( 'STEP AP214' ),
    '1' );
FILE_NAME ('WDS-401-211F.step',
    '2012-04-05T10:05:27',
    ( 'sysAdmin' ),
    ( 'SolidWorks' ),
    'SwSTEP 2.0',
    'SolidWorks 2012',
    '' );
FILE_SCHEMA (( 'AUTOMOTIVE_DESIGN' ));
ENDSEC;

DATA;
#1 = ORIENTED_EDGE ( 'NONE', *, *, #166, .F. ) ;
#2 = EDGE_LOOP ( 'NONE', ( #1, #17 ) ) ;
#3 = VERTEX_POINT ( 'NONE', #86 ) ;
#4 = VERTEX_POINT ( 'NONE', #165 ) ;
#5 = EDGE_CURVE ( 'NONE', #3, #4, #77, .T. ) ;
#6 = EDGE_CURVE ( 'NONE', #12, #3, #73, .T. ) ;
#7 = ORIENTED_EDGE ( 'NONE', *, *, #55, .F. ) ;
#8 = ORIENTED_EDGE ( 'NONE', *, *, #10, .T. ) ;
#9 = VERTEX_POINT ( 'NONE', #142 ) ;
#10 = EDGE_CURVE ( 'NONE', #72, #12, #153, .T. ) ;
#11 = VERTEX_POINT ( 'NONE', #90 ) ;
#12 = VERTEX_POINT ( 'NONE', #137 ) ;
#13 = VERTEX_POINT ( 'NONE', #89 ) ;
#14 = EDGE_LOOP ( 'NONE', ( #68, #53, #61, #67, #62 ) ) ;
#15 = DIRECTION ( 'NONE',  ( -1.000000000000000000, 0.0000000000000000000, 0.0000000000000000000 ) ) ;
#16 = EDGE_LOOP ( 'NONE', ( #18, #20 ) ) ;
#17 = ORIENTED_EDGE ( 'NONE', *, *, #40, .F. ) ;
#18 = ORIENTED_EDGE ( 'NONE', *, *, #29, .T. ) ;
#19 = ADVANCED_FACE ( 'NONE', ( #141, #91 ), #145, .F. ) ;
#20 = ORIENTED_EDGE ( 'NONE', *, *, #148, .T. ) ;
#21 = ORIENTED_EDGE ( 'NONE', *, *, #25, .F. ) ;
#22 = ORIENTED_EDGE ( 'NONE', *, *, #5, .F. ) ;
#23 = EDGE_CURVE ( 'NONE', #4, #60, #138, .T. ) ;
#24 = ADVANCED_FACE ( 'NONE', ( #117 ), #92, .F. ) ;
#25 = EDGE_CURVE ( 'NONE', #13, #94, #125, .T. ) ;
#26 = EDGE_LOOP ( 'NONE', ( #51, #49, #35, #21 ) ) ;
#27 = ORIENTED_EDGE ( 'NONE', *, *, #58, .F. ) ;
#28 = ADVANCED_FACE ( 'NONE', ( #136 ), #128, .T. ) ;
#29 = EDGE_CURVE ( 'NONE', #143, #72, #162, .T. ) ;
#30 = EDGE_LOOP ( 'NONE', ( #27, #39, #22, #38, #37 ) ) ;
#31 = CLOSED_SHELL ( 'NONE', ( #146, #56, #65, #132, #28, #24, #41, #19 ) ) ;
#32 = ORIENTED_EDGE ( 'NONE', *, *, #47, .F. ) ;
#33 = ORIENTED_EDGE ( 'NONE', *, *, #25, .T. ) ;
#34 = DIRECTION ( 'NONE',  ( 0.0000000000000000000, 0.0000000000000000000, -1.000000000000000000 ) ) ;
#35 = ORIENTED_EDGE ( 'NONE', *, *, #133, .T. ) ;
#36 = ORIENTED_EDGE ( 'NONE', *, *, #29, .F. ) ;
#37 = ORIENTED_EDGE ( 'NONE', *, *, #47, .T. ) ;
#38 = ORIENTED_EDGE ( 'NONE', *, *, #167, .T. ) ;
#39 = ORIENTED_EDGE ( 'NONE', *, *, #23, .F. ) ;
#40 = EDGE_CURVE ( 'NONE', #64, #63, #157, .T. ) ;
#41 = ADVANCED_FACE ( 'NONE', ( #163 ), #127, .F. ) ;
#42 = EDGE_LOOP ( 'NONE', ( #44, #36, #45, #46, #43 ) ) ;
#43 = ORIENTED_EDGE ( 'NONE', *, *, #98, .T. ) ;
#44 = ORIENTED_EDGE ( 'NONE', *, *, #10, .F. ) ;
#45 = ORIENTED_EDGE ( 'NONE', *, *, #55, .T. ) ;
#46 = ORIENTED_EDGE ( 'NONE', *, *, #23, .T. ) ;
#47 = EDGE_CURVE ( 'NONE', #11, #9, #80, .T. ) ;
#48 = ORIENTED_EDGE ( 'NONE', *, *, #52, .F. ) ;
#49 = ORIENTED_EDGE ( 'NONE', *, *, #40, .T. ) ;
#50 = EDGE_LOOP ( 'NONE', ( #32, #48 ) ) ;
#51 = ORIENTED_EDGE ( 'NONE', *, *, #147, .F. ) ;
#52 = EDGE_CURVE ( 'NONE', #9, #11, #103, .T. ) ;
#53 = ORIENTED_EDGE ( 'NONE', *, *, #58, .T. ) ;
#54 = ORIENTED_EDGE ( 'NONE', *, *, #5, .T. ) ;
#55 = EDGE_CURVE ( 'NONE', #143, #4, #81, .T. ) ;
#56 = ADVANCED_FACE ( 'NONE', ( #209 ), #219, .F. ) ;
#57 = ORIENTED_EDGE ( 'NONE', *, *, #6, .T. ) ;
#58 = EDGE_CURVE ( 'NONE', #60, #9, #270, .T. ) ;
#59 = ORIENTED_EDGE ( 'NONE', *, *, #133, .F. ) ;
#60 = VERTEX_POINT ( 'NONE', #184 ) ;
#61 = ORIENTED_EDGE ( 'NONE', *, *, #52, .T. ) ;
#62 = ORIENTED_EDGE ( 'NONE', *, *, #6, .F. ) ;
#63 = VERTEX_POINT ( 'NONE', #218 ) ;
#64 = VERTEX_POINT ( 'NONE', #245 ) ;
#65 = ADVANCED_FACE ( 'NONE', ( #220 ), #185, .T. ) ;
#66 = EDGE_LOOP ( 'NONE', ( #95, #75, #109, #59 ) ) ;
#67 = ORIENTED_EDGE ( 'NONE', *, *, #167, .F. ) ;
#68 = ORIENTED_EDGE ( 'NONE', *, *, #98, .F. ) ;
#69 = CARTESIAN_POINT ( 'NONE',  ( 0.0000000000000000000, 5.134007113218157900, 0.0000000000000000000 ) ) ;
#70 = AXIS2_PLACEMENT_3D ( 'NONE', #69, #152, #151 ) ;
#71 = CARTESIAN_POINT ( 'NONE',  ( 0.0000000000000000000, 0.0000000000000000000, 0.0000000000000000000 ) ) ;
#72 = VERTEX_POINT ( 'NONE', #208 ) ;
#73 = CIRCLE ( 'NONE', #70, 17.75000000000000400 ) ;
#74 = MANIFOLD_SOLID_BREP ( 'Cut-Revolve1', #31 ) ;
#75 = ORIENTED_EDGE ( 'NONE', *, *, #147, .T. ) ;
#76 = EDGE_CURVE ( 'NONE', #94, #13, #261, .T. ) ;
#77 = CIRCLE ( 'NONE', #96, 17.75000000000000400 ) ;
#78 = CARTESIAN_POINT ( 'NONE',  ( 0.0000000000000000000, 83.14001649711114800, 0.0000000000000000000 ) ) ;
#79 = AXIS2_PLACEMENT_3D ( 'NONE', #106, #105, #104 ) ;
#80 = CIRCLE ( 'NONE', #79, 17.75000000000000000 ) ;
#81 = CIRCLE ( 'NONE', #108, 80.00000000000000000 ) ;
#82 = DIRECTION ( 'NONE',  ( 0.0000000000000000000, 0.0000000000000000000, -1.000000000000000000 ) ) ;
#83 = DIRECTION ( 'NONE',  ( -0.0000000000000000000, -1.000000000000000000, -0.0000000000000000000 ) ) ;
#84 = CARTESIAN_POINT ( 'NONE',  ( 0.0000000000000000000, 10.40000000000000200, 0.0000000000000000000 ) ) ;
#85 = AXIS2_PLACEMENT_3D ( 'NONE', #84, #83, #82 ) ;
#86 = CARTESIAN_POINT ( 'NONE',  ( 0.0000000000000000000, 5.134007113218157900, -17.75000000000000400 ) ) ;
#87 = CARTESIAN_POINT ( 'NONE',  ( 0.0000000000000000000, 83.14001649711114800, 0.0000000000000000000 ) ) ;
#88 = AXIS2_PLACEMENT_3D ( 'NONE', #87, #140, #139 ) ;
#89 = CARTESIAN_POINT ( 'NONE',  ( 4.102566777143633800E-015, 2.388061258337338900E-015, 33.50000000000000000 ) ) ;
#90 = CARTESIAN_POINT ( 'NONE',  ( 0.0000000000000000000, 4.592425496802568100E-016, -17.75000000000000000 ) ) ;
#91 = FACE_BOUND ( 'NONE', #16, .T. ) ;
#92 = CYLINDRICAL_SURFACE ( 'NONE', #116, 17.75000000000000000 ) ;
#93 = ORIENTED_EDGE ( 'NONE', *, *, #76, .T. ) ;
#94 = VERTEX_POINT ( 'NONE', #206 ) ;
#95 = ORIENTED_EDGE ( 'NONE', *, *, #166, .T. ) ;
#96 = AXIS2_PLACEMENT_3D ( 'NONE', #156, #155, #154 ) ;
#97 = EDGE_LOOP ( 'NONE', ( #93, #33 ) ) ;
#98 = EDGE_CURVE ( 'NONE', #60, #12, #253, .T. ) ;
#99 = DIRECTION ( 'NONE',  ( 0.0000000000000000000, 0.0000000000000000000, -1.000000000000000000 ) ) ;
#100 = DIRECTION ( 'NONE',  ( -0.0000000000000000000, -1.000000000000000000, -0.0000000000000000000 ) ) ;
#101 = CARTESIAN_POINT ( 'NONE',  ( 0.0000000000000000000, 4.592425496802568100E-016, 0.0000000000000000000 ) ) ;
#102 = AXIS2_PLACEMENT_3D ( 'NONE', #101, #100, #99 ) ;
#103 = CIRCLE ( 'NONE', #102, 17.75000000000000000 ) ;
#104 = DIRECTION ( 'NONE',  ( 0.0000000000000000000, 0.0000000000000000000, -1.000000000000000000 ) ) ;
#105 = DIRECTION ( 'NONE',  ( -0.0000000000000000000, -1.000000000000000000, -0.0000000000000000000 ) ) ;
#106 = CARTESIAN_POINT ( 'NONE',  ( 0.0000000000000000000, 4.592425496802568100E-016, 0.0000000000000000000 ) ) ;
#107 = CARTESIAN_POINT ( 'NONE',  ( 0.0000000000000000000, 83.14001649711114800, 0.0000000000000000000 ) ) ;
#108 = AXIS2_PLACEMENT_3D ( 'NONE', #107, #34, #15 ) ;
#109 = ORIENTED_EDGE ( 'NONE', *, *, #76, .F. ) ;
#110 = AXIS2_PLACEMENT_3D ( 'NONE', #121, #126, #150 ) ;
#111 = AXIS2_PLACEMENT_3D ( 'NONE', #124, #123, #122 ) ;
#112 = DIRECTION ( 'NONE',  ( 0.0000000000000000000, 0.0000000000000000000, -1.000000000000000000 ) ) ;
#113 = DIRECTION ( 'NONE',  ( -0.0000000000000000000, -1.000000000000000000, -0.0000000000000000000 ) ) ;
#114 = CARTESIAN_POINT ( 'NONE',  ( 0.0000000000000000000, 5.134007113218157900, 0.0000000000000000000 ) ) ;
#115 = AXIS2_PLACEMENT_3D ( 'NONE', #114, #113, #112 ) ;
#116 = AXIS2_PLACEMENT_3D ( 'NONE', #71, #130, #144 ) ;
#117 = FACE_OUTER_BOUND ( 'NONE', #30, .T. ) ;
#118 = DIRECTION ( 'NONE',  ( 0.0000000000000000000, 0.0000000000000000000, -1.000000000000000000 ) ) ;
#119 = DIRECTION ( 'NONE',  ( 0.0000000000000000000, -1.000000000000000000, -0.0000000000000000000 ) ) ;
#120 = DIRECTION ( 'NONE',  ( 1.000000000000000000, 0.0000000000000000000, 0.0000000000000000000 ) ) ;
#121 = CARTESIAN_POINT ( 'NONE',  ( 0.0000000000000000000, 0.0000000000000000000, 0.0000000000000000000 ) ) ;
#122 = DIRECTION ( 'NONE',  ( 0.0000000000000000000, 0.0000000000000000000, -1.000000000000000000 ) ) ;
#123 = DIRECTION ( 'NONE',  ( -0.0000000000000000000, -1.000000000000000000, -0.0000000000000000000 ) ) ;
#124 = CARTESIAN_POINT ( 'NONE',  ( 0.0000000000000000000, 2.388061258337338900E-015, 0.0000000000000000000 ) ) ;
#125 = CIRCLE ( 'NONE', #111, 33.50000000000000000 ) ;
#126 = DIRECTION ( 'NONE',  ( -0.0000000000000000000, -1.000000000000000000, -0.0000000000000000000 ) ) ;
#127 = SPHERICAL_SURFACE ( 'NONE', #158, 80.00000000000000000 ) ;
#128 = CYLINDRICAL_SURFACE ( 'NONE', #110, 33.50000000000000000 ) ;
#129 = AXIS2_PLACEMENT_3D ( 'NONE', #161, #160, #159 ) ;
#130 = DIRECTION ( 'NONE',  ( -0.0000000000000000000, -1.000000000000000000, -0.0000000000000000000 ) ) ;
#131 = ORIENTED_EDGE ( 'NONE', *, *, #148, .F. ) ;
#132 = ADVANCED_FACE ( 'NONE', ( #201, #262 ), #258, .T. ) ;
#133 = EDGE_CURVE ( 'NONE', #63, #94, #193, .T. ) ;
#134 = EDGE_LOOP ( 'NONE', ( #131, #8, #57, #54, #7 ) ) ;
#135 = CARTESIAN_POINT ( 'NONE',  ( 33.30000000000000400, 10.40000000000000200, 0.0000000000000000000 ) ) ;
#136 = FACE_OUTER_BOUND ( 'NONE', #26, .T. ) ;
#137 = CARTESIAN_POINT ( 'NONE',  ( -17.75000000000000400, 5.134007113218157900, 3.125910954823619500E-015 ) ) ;
#138 = CIRCLE ( 'NONE', #115, 17.75000000000000400 ) ;
#139 = DIRECTION ( 'NONE',  ( 1.000000000000000000, 0.0000000000000000000, -1.224646799147353200E-016 ) ) ;
#140 = DIRECTION ( 'NONE',  ( 1.224646799147353200E-016, -0.0000000000000000000, 1.000000000000000000 ) ) ;
#141 = FACE_OUTER_BOUND ( 'NONE', #2, .T. ) ;
#142 = CARTESIAN_POINT ( 'NONE',  ( 2.173748068486551600E-015, 4.592425496802568100E-016, 17.75000000000000000 ) ) ;
#143 = VERTEX_POINT ( 'NONE', #194 ) ;
#144 = DIRECTION ( 'NONE',  ( 0.0000000000000000000, 0.0000000000000000000, -1.000000000000000000 ) ) ;
#145 = PLANE ( 'NONE',  #149 ) ;
#146 = ADVANCED_FACE ( 'NONE', ( #202 ), #248, .F. ) ;
#147 = EDGE_CURVE ( 'NONE', #64, #13, #246, .T. ) ;
#148 = EDGE_CURVE ( 'NONE', #72, #143, #247, .T. ) ;
#149 = AXIS2_PLACEMENT_3D ( 'NONE', #135, #119, #118 ) ;
#150 = DIRECTION ( 'NONE',  ( 0.0000000000000000000, 0.0000000000000000000, -1.000000000000000000 ) ) ;
#151 = DIRECTION ( 'NONE',  ( 0.0000000000000000000, 0.0000000000000000000, -1.000000000000000000 ) ) ;
#152 = DIRECTION ( 'NONE',  ( -0.0000000000000000000, -1.000000000000000000, -0.0000000000000000000 ) ) ;
#153 = CIRCLE ( 'NONE', #88, 80.00000000000000000 ) ;
#154 = DIRECTION ( 'NONE',  ( 0.0000000000000000000, 0.0000000000000000000, -1.000000000000000000 ) ) ;
#155 = DIRECTION ( 'NONE',  ( -0.0000000000000000000, -1.000000000000000000, -0.0000000000000000000 ) ) ;
#156 = CARTESIAN_POINT ( 'NONE',  ( 0.0000000000000000000, 5.134007113218157900, 0.0000000000000000000 ) ) ;
#157 = CIRCLE ( 'NONE', #85, 33.50000000000000000 ) ;
#158 = AXIS2_PLACEMENT_3D ( 'NONE', #78, #164, #120 ) ;
#159 = DIRECTION ( 'NONE',  ( 0.0000000000000000000, 0.0000000000000000000, -1.000000000000000000 ) ) ;
#160 = DIRECTION ( 'NONE',  ( -0.0000000000000000000, -1.000000000000000000, -0.0000000000000000000 ) ) ;
#161 = CARTESIAN_POINT ( 'NONE',  ( 0.0000000000000000000, 10.40000000000000200, 0.0000000000000000000 ) ) ;
#162 = CIRCLE ( 'NONE', #129, 33.30000000000000400 ) ;
#163 = FACE_OUTER_BOUND ( 'NONE', #42, .T. ) ;
#164 = DIRECTION ( 'NONE',  ( 0.0000000000000000000, 0.0000000000000000000, 1.000000000000000000 ) ) ;
#165 = CARTESIAN_POINT ( 'NONE',  ( 17.75000000000000400, 5.134007113218157900, 0.0000000000000000000 ) ) ;
#166 = EDGE_CURVE ( 'NONE', #63, #64, #276, .T. ) ;
#167 = EDGE_CURVE ( 'NONE', #3, #11, #215, .T. ) ;
#168 = UNCERTAINTY_MEASURE_WITH_UNIT (LENGTH_MEASURE( 1.000000000000000100E-005 ), #171, 'distance_accuracy_value', 'NONE');
#169 =( NAMED_UNIT ( * ) SI_UNIT ( $, .STERADIAN. ) SOLID_ANGLE_UNIT ( ) );
#170 =( NAMED_UNIT ( * ) PLANE_ANGLE_UNIT ( ) SI_UNIT ( $, .RADIAN. ) );
#171 =( LENGTH_UNIT ( ) NAMED_UNIT ( * ) SI_UNIT ( .MILLI., .METRE. ) );
#172 = MECHANICAL_DESIGN_GEOMETRIC_PRESENTATION_REPRESENTATION (  '', ( #174 ), #266 ) ;
#173 = PRESENTATION_LAYER_ASSIGNMENT (  '', '', ( #174 ) ) ;
#174 = STYLED_ITEM ( 'NONE', ( #175 ), #255 ) ;
#175 = PRESENTATION_STYLE_ASSIGNMENT (( #176 ) ) ;
#176 = SURFACE_STYLE_USAGE ( .BOTH. , #177 ) ;
#177 = SURFACE_SIDE_STYLE ('',( #178 ) ) ;
#178 = SURFACE_STYLE_FILL_AREA ( #179 ) ;
#179 = FILL_AREA_STYLE ('',( #285 ) ) ;
#180 = CARTESIAN_POINT ( 'NONE',  ( 0.0000000000000000000, 0.0000000000000000000, 0.0000000000000000000 ) ) ;
#181 =( NAMED_UNIT ( * ) PLANE_ANGLE_UNIT ( ) SI_UNIT ( $, .RADIAN. ) );
#182 =( LENGTH_UNIT ( ) NAMED_UNIT ( * ) SI_UNIT ( .MILLI., .METRE. ) );
#183 = AXIS2_PLACEMENT_3D ( 'NONE', #243, #204, #244 ) ;
#184 = CARTESIAN_POINT ( 'NONE',  ( 2.173748068486552000E-015, 5.134007113218157900, 17.75000000000000400 ) ) ;
#185 = CYLINDRICAL_SURFACE ( 'NONE', #242, 33.50000000000000000 ) ;
#186 = DIRECTION ( 'NONE',  ( 0.0000000000000000000, 0.0000000000000000000, 1.000000000000000000 ) ) ;
#187 = CARTESIAN_POINT ( 'NONE',  ( 0.0000000000000000000, 83.14001649711114800, 0.0000000000000000000 ) ) ;
#188 = AXIS2_PLACEMENT_3D ( 'NONE', #187, #186, #286 ) ;
#189 = DIRECTION ( 'NONE',  ( -0.0000000000000000000, -1.000000000000000000, -0.0000000000000000000 ) ) ;
#190 = DIRECTION ( 'NONE',  ( -0.0000000000000000000, -1.000000000000000000, -0.0000000000000000000 ) ) ;
#191 = VECTOR ( 'NONE', #190, 1000.000000000000000 ) ;
#192 = CARTESIAN_POINT ( 'NONE',  ( 0.0000000000000000000, 0.0000000000000000000, -33.50000000000000000 ) ) ;
#193 = LINE ( 'NONE', #192, #191 ) ;
#194 = CARTESIAN_POINT ( 'NONE',  ( 33.30000000000000400, 10.40000000000000400, 0.0000000000000000000 ) ) ;
#195 = DIRECTION ( 'NONE',  ( 0.0000000000000000000, 0.0000000000000000000, -1.000000000000000000 ) ) ;
#196 = DIRECTION ( 'NONE',  ( 0.0000000000000000000, -1.000000000000000000, -0.0000000000000000000 ) ) ;
#197 = AXIS2_PLACEMENT_3D ( 'NONE', #279, #278, #277 ) ;
#198 = AXIS2_PLACEMENT_3D ( 'NONE', #265, #264, #263 ) ;
#199 = UNCERTAINTY_MEASURE_WITH_UNIT (LENGTH_MEASURE( 1.000000000000000100E-005 ), #182, 'distance_accuracy_value', 'NONE');
#200 =( NAMED_UNIT ( * ) SI_UNIT ( $, .STERADIAN. ) SOLID_ANGLE_UNIT ( ) );
#201 = FACE_OUTER_BOUND ( 'NONE', #97, .T. ) ;
#202 = FACE_OUTER_BOUND ( 'NONE', #134, .T. ) ;
#203 =( GEOMETRIC_REPRESENTATION_CONTEXT ( 3 ) GLOBAL_UNCERTAINTY_ASSIGNED_CONTEXT ( ( #199 ) ) GLOBAL_UNIT_ASSIGNED_CONTEXT ( ( #182, #181, #200 ) ) REPRESENTATION_CONTEXT ( 'NONE', 'WORKASPACE' ) );
#204 = DIRECTION ( 'NONE',  ( -0.0000000000000000000, -1.000000000000000000, -0.0000000000000000000 ) ) ;
#205 = AXIS2_PLACEMENT_3D ( 'NONE', #237, #260, #259 ) ;
#206 = CARTESIAN_POINT ( 'NONE',  ( 0.0000000000000000000, 2.388061258337338900E-015, -33.50000000000000000 ) ) ;
#207 = AXIS2_PLACEMENT_3D ( 'NONE', #257, #196, #195 ) ;
#208 = CARTESIAN_POINT ( 'NONE',  ( -33.30000000000000400, 10.40000000000000400, 4.078073841160686300E-015 ) ) ;
#209 = FACE_OUTER_BOUND ( 'NONE', #14, .T. ) ;
#210 = FILL_AREA_STYLE ('',( #211 ) ) ;
#211 = FILL_AREA_STYLE_COLOUR ( '', #223 ) ;
#212 = DIRECTION ( 'NONE',  ( -0.0000000000000000000, -1.000000000000000000, -0.0000000000000000000 ) ) ;
#213 = VECTOR ( 'NONE', #212, 1000.000000000000000 ) ;
#214 = CARTESIAN_POINT ( 'NONE',  ( 0.0000000000000000000, 0.0000000000000000000, -17.75000000000000000 ) ) ;
#215 = LINE ( 'NONE', #214, #213 ) ;
#216 = DIRECTION ( 'NONE',  ( 0.0000000000000000000, 0.0000000000000000000, -1.000000000000000000 ) ) ;
#217 = COLOUR_RGB ( '',0.7529411764705882200, 0.7529411764705882200, 0.7529411764705882200 ) ;
#218 = CARTESIAN_POINT ( 'NONE',  ( 0.0000000000000000000, 10.40000000000000200, -33.50000000000000000 ) ) ;
#219 = CYLINDRICAL_SURFACE ( 'NONE', #183, 17.75000000000000000 ) ;
#220 = FACE_OUTER_BOUND ( 'NONE', #66, .T. ) ;
#221 = SURFACE_SIDE_STYLE ('',( #222 ) ) ;
#222 = SURFACE_STYLE_FILL_AREA ( #210 ) ;
#223 = COLOUR_RGB ( '',0.7529411764705882200, 0.7529411764705882200, 0.7529411764705882200 ) ;
#224 = DIRECTION ( 'NONE',  ( 0.0000000000000000000, 0.0000000000000000000, -1.000000000000000000 ) ) ;
#225 = PRODUCT_DEFINITION_SHAPE ( 'NONE', 'NONE',  #229 ) ;
#226 = PRODUCT_RELATED_PRODUCT_CATEGORY ( 'part', '', ( #233 ) ) ;
#227 = PRODUCT_DEFINITION_FORMATION_WITH_SPECIFIED_SOURCE ( 'ANY', '', #233, .NOT_KNOWN. ) ;
#228 = SHAPE_DEFINITION_REPRESENTATION ( #225, #255 ) ;
#229 = PRODUCT_DEFINITION ( 'UNKNOWN', '', #227, #230 ) ;
#230 = PRODUCT_DEFINITION_CONTEXT ( 'detailed design', #232, 'design' ) ;
#231 = APPLICATION_PROTOCOL_DEFINITION ( 'draft international standard', 'automotive_design', 1998, #232 ) ;
#232 = APPLICATION_CONTEXT ( 'automotive_design' ) ;
#233 = PRODUCT ( 'WDS-401-211F', 'WDS-401-211F', '', ( #234 ) ) ;
#234 = PRODUCT_CONTEXT ( 'NONE', #254, 'mechanical' ) ;
#235 = APPLICATION_PROTOCOL_DEFINITION ( 'draft international standard', 'automotive_design', 1998, #254 ) ;
#236 = DIRECTION ( 'NONE',  ( -0.0000000000000000000, -1.000000000000000000, -0.0000000000000000000 ) ) ;
#237 = CARTESIAN_POINT ( 'NONE',  ( 0.0000000000000000000, 2.388061258337338900E-015, 0.0000000000000000000 ) ) ;
#238 = UNCERTAINTY_MEASURE_WITH_UNIT (LENGTH_MEASURE( 1.000000000000000100E-005 ), #241, 'distance_accuracy_value', 'NONE');
#239 =( NAMED_UNIT ( * ) SI_UNIT ( $, .STERADIAN. ) SOLID_ANGLE_UNIT ( ) );
#240 =( NAMED_UNIT ( * ) PLANE_ANGLE_UNIT ( ) SI_UNIT ( $, .RADIAN. ) );
#241 =( LENGTH_UNIT ( ) NAMED_UNIT ( * ) SI_UNIT ( .MILLI., .METRE. ) );
#242 = AXIS2_PLACEMENT_3D ( 'NONE', #180, #236, #224 ) ;
#243 = CARTESIAN_POINT ( 'NONE',  ( 0.0000000000000000000, 0.0000000000000000000, 0.0000000000000000000 ) ) ;
#244 = DIRECTION ( 'NONE',  ( 0.0000000000000000000, 0.0000000000000000000, -1.000000000000000000 ) ) ;
#245 = CARTESIAN_POINT ( 'NONE',  ( 4.102566777143633800E-015, 10.40000000000000200, 33.50000000000000000 ) ) ;
#246 = LINE ( 'NONE', #284, #283 ) ;
#247 = CIRCLE ( 'NONE', #197, 33.30000000000000400 ) ;
#248 = SPHERICAL_SURFACE ( 'NONE', #188, 80.00000000000000000 ) ;
#249 = DIRECTION ( 'NONE',  ( 0.0000000000000000000, 0.0000000000000000000, -1.000000000000000000 ) ) ;
#250 = DIRECTION ( 'NONE',  ( -0.0000000000000000000, -1.000000000000000000, -0.0000000000000000000 ) ) ;
#251 = CARTESIAN_POINT ( 'NONE',  ( 0.0000000000000000000, 5.134007113218157900, 0.0000000000000000000 ) ) ;
#252 = AXIS2_PLACEMENT_3D ( 'NONE', #251, #250, #249 ) ;
#253 = CIRCLE ( 'NONE', #252, 17.75000000000000400 ) ;
#254 = APPLICATION_CONTEXT ( 'automotive_design' ) ;
#255 = ADVANCED_BREP_SHAPE_REPRESENTATION ( 'WDS-401-211F', ( #74, #198 ), #256 ) ;
#256 =( GEOMETRIC_REPRESENTATION_CONTEXT ( 3 ) GLOBAL_UNCERTAINTY_ASSIGNED_CONTEXT ( ( #238 ) ) GLOBAL_UNIT_ASSIGNED_CONTEXT ( ( #241, #240, #239 ) ) REPRESENTATION_CONTEXT ( 'NONE', 'WORKASPACE' ) );
#257 = CARTESIAN_POINT ( 'NONE',  ( 33.50000000000000000, 1.423651904008797900E-015, 0.0000000000000000000 ) ) ;
#258 = PLANE ( 'NONE',  #207 ) ;
#259 = DIRECTION ( 'NONE',  ( 0.0000000000000000000, 0.0000000000000000000, -1.000000000000000000 ) ) ;
#260 = DIRECTION ( 'NONE',  ( -0.0000000000000000000, -1.000000000000000000, -0.0000000000000000000 ) ) ;
#261 = CIRCLE ( 'NONE', #205, 33.50000000000000000 ) ;
#262 = FACE_BOUND ( 'NONE', #50, .T. ) ;
#263 = DIRECTION ( 'NONE',  ( 1.000000000000000000, 0.0000000000000000000, 0.0000000000000000000 ) ) ;
#264 = DIRECTION ( 'NONE',  ( 0.0000000000000000000, 0.0000000000000000000, 1.000000000000000000 ) ) ;
#265 = CARTESIAN_POINT ( 'NONE',  ( 0.0000000000000000000, 0.0000000000000000000, 0.0000000000000000000 ) ) ;
#266 =( GEOMETRIC_REPRESENTATION_CONTEXT ( 3 ) GLOBAL_UNCERTAINTY_ASSIGNED_CONTEXT ( ( #168 ) ) GLOBAL_UNIT_ASSIGNED_CONTEXT ( ( #171, #170, #169 ) ) REPRESENTATION_CONTEXT ( 'NONE', 'WORKASPACE' ) );
#267 = DIRECTION ( 'NONE',  ( -0.0000000000000000000, -1.000000000000000000, -0.0000000000000000000 ) ) ;
#268 = VECTOR ( 'NONE', #267, 1000.000000000000000 ) ;
#269 = CARTESIAN_POINT ( 'NONE',  ( 2.173748068486551600E-015, 0.0000000000000000000, 17.75000000000000000 ) ) ;
#270 = LINE ( 'NONE', #269, #268 ) ;
#271 = MECHANICAL_DESIGN_GEOMETRIC_PRESENTATION_REPRESENTATION (  '', ( #273 ), #203 ) ;
#272 = PRESENTATION_LAYER_ASSIGNMENT (  '', '', ( #273 ) ) ;
#273 = STYLED_ITEM ( 'NONE', ( #274 ), #74 ) ;
#274 = PRESENTATION_STYLE_ASSIGNMENT (( #275 ) ) ;
#275 = SURFACE_STYLE_USAGE ( .BOTH. , #221 ) ;
#276 = CIRCLE ( 'NONE', #281, 33.50000000000000000 ) ;
#277 = DIRECTION ( 'NONE',  ( 0.0000000000000000000, 0.0000000000000000000, -1.000000000000000000 ) ) ;
#278 = DIRECTION ( 'NONE',  ( -0.0000000000000000000, -1.000000000000000000, -0.0000000000000000000 ) ) ;
#279 = CARTESIAN_POINT ( 'NONE',  ( 0.0000000000000000000, 10.40000000000000200, 0.0000000000000000000 ) ) ;
#280 = CARTESIAN_POINT ( 'NONE',  ( 0.0000000000000000000, 10.40000000000000200, 0.0000000000000000000 ) ) ;
#281 = AXIS2_PLACEMENT_3D ( 'NONE', #280, #189, #216 ) ;
#282 = DIRECTION ( 'NONE',  ( -0.0000000000000000000, -1.000000000000000000, -0.0000000000000000000 ) ) ;
#283 = VECTOR ( 'NONE', #282, 1000.000000000000000 ) ;
#284 = CARTESIAN_POINT ( 'NONE',  ( 4.102566777143633800E-015, 0.0000000000000000000, 33.50000000000000000 ) ) ;
#285 = FILL_AREA_STYLE_COLOUR ( '', #217 ) ;
#286 = DIRECTION ( 'NONE',  ( 1.000000000000000000, 0.0000000000000000000, 0.0000000000000000000 ) ) ;
ENDSEC;
END-ISO-10303-21;
