ISO-10303-21;
HEADER;
FILE_DESCRIPTION (( 'STEP AP214' ),
    '1' );
FILE_NAME ('WDS-401-2105F.step',
    '2012-04-05T10:05:14',
    ( 'SysAdmin' ),
    ( 'SolidWorks' ),
    'SwSTEP 2.0',
    'SolidWorks 2012',
    '' );
FILE_SCHEMA (( 'AUTOMOTIVE_DESIGN' ));
ENDSEC;

DATA;
#1 = ADVANCED_FACE ( 'NONE', ( #93 ), #119, .F. ) ;
#2 = ORIENTED_EDGE ( 'NONE', *, *, #15, .T. ) ;
#3 = VERTEX_POINT ( 'NONE', #84 ) ;
#4 = VERTEX_POINT ( 'NONE', #131 ) ;
#5 = VERTEX_POINT ( 'NONE', #130 ) ;
#6 = CARTESIAN_POINT ( 'NONE',  ( 0.0000000000000000000, 73.01237896774088700, 0.0000000000000000000 ) ) ;
#7 = VERTEX_POINT ( 'NONE', #83 ) ;
#8 = DIRECTION ( 'NONE',  ( 0.0000000000000000000, 0.0000000000000000000, 1.000000000000000000 ) ) ;
#9 = VERTEX_POINT ( 'NONE', #82 ) ;
#10 = ORIENTED_EDGE ( 'NONE', *, *, #75, .T. ) ;
#11 = ORIENTED_EDGE ( 'NONE', *, *, #73, .F. ) ;
#12 = DIRECTION ( 'NONE',  ( 1.000000000000000000, 0.0000000000000000000, 0.0000000000000000000 ) ) ;
#13 = CARTESIAN_POINT ( 'NONE',  ( 0.0000000000000000000, 10.40000000000000200, 0.0000000000000000000 ) ) ;
#14 = ORIENTED_EDGE ( 'NONE', *, *, #16, .T. ) ;
#15 = EDGE_CURVE ( 'NONE', #20, #5, #85, .T. ) ;
#16 = EDGE_CURVE ( 'NONE', #9, #20, #113, .T. ) ;
#17 = VERTEX_POINT ( 'NONE', #90 ) ;
#18 = ADVANCED_FACE ( 'NONE', ( #107 ), #88, .F. ) ;
#19 = EDGE_LOOP ( 'NONE', ( #76, #28, #27, #11, #69 ) ) ;
#20 = VERTEX_POINT ( 'NONE', #127 ) ;
#21 = ORIENTED_EDGE ( 'NONE', *, *, #22, .F. ) ;
#22 = EDGE_CURVE ( 'NONE', #9, #30, #29, .T. ) ;
#23 = MANIFOLD_SOLID_BREP ( 'Cut-Revolve1', #65 ) ;
#24 = VERTEX_POINT ( 'NONE', #149 ) ;
#25 = ORIENTED_EDGE ( 'NONE', *, *, #120, .F. ) ;
#26 = AXIS2_PLACEMENT_3D ( 'NONE', #13, #112, #106 ) ;
#27 = ORIENTED_EDGE ( 'NONE', *, *, #72, .T. ) ;
#28 = ORIENTED_EDGE ( 'NONE', *, *, #129, .T. ) ;
#29 = CIRCLE ( 'NONE', #26, 31.30000000000000100 ) ;
#30 = VERTEX_POINT ( 'NONE', #147 ) ;
#31 = ADVANCED_FACE ( 'NONE', ( #152, #150 ), #139, .F. ) ;
#32 = EDGE_LOOP ( 'NONE', ( #58, #86 ) ) ;
#33 = ORIENTED_EDGE ( 'NONE', *, *, #129, .F. ) ;
#34 = ORIENTED_EDGE ( 'NONE', *, *, #68, .F. ) ;
#35 = ORIENTED_EDGE ( 'NONE', *, *, #77, .F. ) ;
#36 = ADVANCED_FACE ( 'NONE', ( #151 ), #135, .T. ) ;
#37 = EDGE_LOOP ( 'NONE', ( #53, #40, #56, #52, #66 ) ) ;
#38 = EDGE_LOOP ( 'NONE', ( #41, #67 ) ) ;
#39 = ADVANCED_FACE ( 'NONE', ( #134 ), #140, .F. ) ;
#40 = ORIENTED_EDGE ( 'NONE', *, *, #42, .F. ) ;
#41 = ORIENTED_EDGE ( 'NONE', *, *, #42, .T. ) ;
#42 = EDGE_CURVE ( 'NONE', #30, #9, #176, .T. ) ;
#43 = ORIENTED_EDGE ( 'NONE', *, *, #73, .T. ) ;
#44 = ORIENTED_EDGE ( 'NONE', *, *, #57, .T. ) ;
#45 = EDGE_LOOP ( 'NONE', ( #21, #14, #2, #10, #25 ) ) ;
#46 = EDGE_LOOP ( 'NONE', ( #62, #63 ) ) ;
#47 = ADVANCED_FACE ( 'NONE', ( #175, #179 ), #87, .T. ) ;
#48 = EDGE_CURVE ( 'NONE', #79, #80, #61, .T. ) ;
#49 = EDGE_LOOP ( 'NONE', ( #33, #34, #64, #43, #44 ) ) ;
#50 = ORIENTED_EDGE ( 'NONE', *, *, #125, .F. ) ;
#51 = ADVANCED_FACE ( 'NONE', ( #177 ), #171, .F. ) ;
#52 = ORIENTED_EDGE ( 'NONE', *, *, #68, .T. ) ;
#53 = ORIENTED_EDGE ( 'NONE', *, *, #16, .F. ) ;
#54 = ORIENTED_EDGE ( 'NONE', *, *, #122, .F. ) ;
#55 = ORIENTED_EDGE ( 'NONE', *, *, #48, .F. ) ;
#56 = ORIENTED_EDGE ( 'NONE', *, *, #120, .T. ) ;
#57 = EDGE_CURVE ( 'NONE', #71, #24, #284, .T. ) ;
#58 = ORIENTED_EDGE ( 'NONE', *, *, #95, .T. ) ;
#59 = ORIENTED_EDGE ( 'NONE', *, *, #132, .T. ) ;
#60 = EDGE_LOOP ( 'NONE', ( #54, #55 ) ) ;
#61 = CIRCLE ( 'NONE', #102, 31.50000000000000000 ) ;
#62 = ORIENTED_EDGE ( 'NONE', *, *, #57, .F. ) ;
#63 = ORIENTED_EDGE ( 'NONE', *, *, #72, .F. ) ;
#64 = ORIENTED_EDGE ( 'NONE', *, *, #75, .F. ) ;
#65 = CLOSED_SHELL ( 'NONE', ( #18, #1, #133, #47, #36, #51, #39, #31 ) ) ;
#66 = ORIENTED_EDGE ( 'NONE', *, *, #70, .T. ) ;
#67 = ORIENTED_EDGE ( 'NONE', *, *, #22, .T. ) ;
#68 = EDGE_CURVE ( 'NONE', #7, #17, #214, .T. ) ;
#69 = ORIENTED_EDGE ( 'NONE', *, *, #15, .F. ) ;
#70 = EDGE_CURVE ( 'NONE', #17, #20, #206, .T. ) ;
#71 = VERTEX_POINT ( 'NONE', #286 ) ;
#72 = EDGE_CURVE ( 'NONE', #24, #71, #209, .T. ) ;
#73 = EDGE_CURVE ( 'NONE', #5, #71, #202, .T. ) ;
#74 = ORIENTED_EDGE ( 'NONE', *, *, #48, .T. ) ;
#75 = EDGE_CURVE ( 'NONE', #5, #7, #195, .T. ) ;
#76 = ORIENTED_EDGE ( 'NONE', *, *, #70, .F. ) ;
#77 = EDGE_CURVE ( 'NONE', #79, #3, #194, .T. ) ;
#78 = EDGE_LOOP ( 'NONE', ( #35, #74, #59, #50 ) ) ;
#79 = VERTEX_POINT ( 'NONE', #188 ) ;
#80 = VERTEX_POINT ( 'NONE', #193 ) ;
#81 = DIRECTION ( 'NONE',  ( -0.0000000000000000000, -1.000000000000000000, -0.0000000000000000000 ) ) ;
#82 = CARTESIAN_POINT ( 'NONE',  ( -31.30000000000000800, 10.39999999999999900, 3.833144481331216000E-015 ) ) ;
#83 = CARTESIAN_POINT ( 'NONE',  ( 16.50000000000000000, 4.984811026501062300, 0.0000000000000000000 ) ) ;
#84 = CARTESIAN_POINT ( 'NONE',  ( 3.857637417314162700E-015, 2.143131898507867500E-015, 31.50000000000000000 ) ) ;
#85 = CIRCLE ( 'NONE', #117, 16.50000000000000000 ) ;
#86 = ORIENTED_EDGE ( 'NONE', *, *, #125, .T. ) ;
#87 = PLANE ( 'NONE',  #126 ) ;
#88 = SPHERICAL_SURFACE ( 'NONE', #91, 70.00000000000000000 ) ;
#89 = DIRECTION ( 'NONE',  ( 0.0000000000000000000, 0.0000000000000000000, -1.000000000000000000 ) ) ;
#90 = CARTESIAN_POINT ( 'NONE',  ( 2.020667218593133100E-015, 4.984811026501062300, 16.50000000000000000 ) ) ;
#91 = AXIS2_PLACEMENT_3D ( 'NONE', #105, #100, #99 ) ;
#92 = ORIENTED_EDGE ( 'NONE', *, *, #132, .F. ) ;
#93 = FACE_OUTER_BOUND ( 'NONE', #19, .T. ) ;
#94 = AXIS2_PLACEMENT_3D ( 'NONE', #118, #81, #89 ) ;
#95 = EDGE_CURVE ( 'NONE', #4, #3, #282, .T. ) ;
#96 = ORIENTED_EDGE ( 'NONE', *, *, #122, .T. ) ;
#97 = DIRECTION ( 'NONE',  ( 0.0000000000000000000, 0.0000000000000000000, -1.000000000000000000 ) ) ;
#98 = DIRECTION ( 'NONE',  ( -0.0000000000000000000, -1.000000000000000000, -0.0000000000000000000 ) ) ;
#99 = DIRECTION ( 'NONE',  ( 1.000000000000000000, 0.0000000000000000000, 0.0000000000000000000 ) ) ;
#100 = DIRECTION ( 'NONE',  ( 0.0000000000000000000, 0.0000000000000000000, 1.000000000000000000 ) ) ;
#101 = CARTESIAN_POINT ( 'NONE',  ( 0.0000000000000000000, 10.40000000000000200, 0.0000000000000000000 ) ) ;
#102 = AXIS2_PLACEMENT_3D ( 'NONE', #101, #98, #97 ) ;
#103 = DIRECTION ( 'NONE',  ( 0.0000000000000000000, 0.0000000000000000000, -1.000000000000000000 ) ) ;
#104 = CARTESIAN_POINT ( 'NONE',  ( 31.50000000000000000, 1.224646799147352900E-015, 0.0000000000000000000 ) ) ;
#105 = CARTESIAN_POINT ( 'NONE',  ( 0.0000000000000000000, 73.01237896774088700, 0.0000000000000000000 ) ) ;
#106 = DIRECTION ( 'NONE',  ( 0.0000000000000000000, 0.0000000000000000000, -1.000000000000000000 ) ) ;
#107 = FACE_OUTER_BOUND ( 'NONE', #45, .T. ) ;
#108 = DIRECTION ( 'NONE',  ( 0.0000000000000000000, -1.000000000000000000, -0.0000000000000000000 ) ) ;
#109 = DIRECTION ( 'NONE',  ( 1.000000000000000000, 0.0000000000000000000, -1.224646799147353200E-016 ) ) ;
#110 = DIRECTION ( 'NONE',  ( 1.224646799147353200E-016, -0.0000000000000000000, 1.000000000000000000 ) ) ;
#111 = CARTESIAN_POINT ( 'NONE',  ( 0.0000000000000000000, 73.01237896774088700, 0.0000000000000000000 ) ) ;
#112 = DIRECTION ( 'NONE',  ( -0.0000000000000000000, -1.000000000000000000, -0.0000000000000000000 ) ) ;
#113 = CIRCLE ( 'NONE', #128, 70.00000000000000000 ) ;
#114 = DIRECTION ( 'NONE',  ( 0.0000000000000000000, 0.0000000000000000000, -1.000000000000000000 ) ) ;
#115 = DIRECTION ( 'NONE',  ( -0.0000000000000000000, -1.000000000000000000, -0.0000000000000000000 ) ) ;
#116 = CARTESIAN_POINT ( 'NONE',  ( 0.0000000000000000000, 4.984811026501062300, 0.0000000000000000000 ) ) ;
#117 = AXIS2_PLACEMENT_3D ( 'NONE', #116, #115, #114 ) ;
#118 = CARTESIAN_POINT ( 'NONE',  ( 0.0000000000000000000, 0.0000000000000000000, 0.0000000000000000000 ) ) ;
#119 = CYLINDRICAL_SURFACE ( 'NONE', #94, 16.50000000000000000 ) ;
#120 = EDGE_CURVE ( 'NONE', #30, #7, #275, .T. ) ;
#121 = EDGE_LOOP ( 'NONE', ( #96, #123, #124, #92 ) ) ;
#122 = EDGE_CURVE ( 'NONE', #80, #79, #269, .T. ) ;
#123 = ORIENTED_EDGE ( 'NONE', *, *, #77, .T. ) ;
#124 = ORIENTED_EDGE ( 'NONE', *, *, #95, .F. ) ;
#125 = EDGE_CURVE ( 'NONE', #3, #4, #265, .T. ) ;
#126 = AXIS2_PLACEMENT_3D ( 'NONE', #104, #108, #103 ) ;
#127 = CARTESIAN_POINT ( 'NONE',  ( -16.50000000000000000, 4.984811026501062300, 2.926905849962174100E-015 ) ) ;
#128 = AXIS2_PLACEMENT_3D ( 'NONE', #111, #110, #109 ) ;
#129 = EDGE_CURVE ( 'NONE', #17, #24, #285, .T. ) ;
#130 = CARTESIAN_POINT ( 'NONE',  ( 0.0000000000000000000, 4.984811026501062300, -16.50000000000000000 ) ) ;
#131 = CARTESIAN_POINT ( 'NONE',  ( 0.0000000000000000000, 2.143131898507867500E-015, -31.50000000000000000 ) ) ;
#132 = EDGE_CURVE ( 'NONE', #80, #4, #242, .T. ) ;
#133 = ADVANCED_FACE ( 'NONE', ( #243 ), #280, .T. ) ;
#134 = FACE_OUTER_BOUND ( 'NONE', #37, .T. ) ;
#135 = CYLINDRICAL_SURFACE ( 'NONE', #165, 31.50000000000000000 ) ;
#136 = DIRECTION ( 'NONE',  ( 0.0000000000000000000, 0.0000000000000000000, -1.000000000000000000 ) ) ;
#137 = DIRECTION ( 'NONE',  ( 0.0000000000000000000, -1.000000000000000000, -0.0000000000000000000 ) ) ;
#138 = CARTESIAN_POINT ( 'NONE',  ( 31.30000000000000100, 10.40000000000000200, 0.0000000000000000000 ) ) ;
#139 = PLANE ( 'NONE',  #148 ) ;
#140 = SPHERICAL_SURFACE ( 'NONE', #166, 70.00000000000000000 ) ;
#141 =( LENGTH_UNIT ( ) NAMED_UNIT ( * ) SI_UNIT ( .MILLI., .METRE. ) );
#142 = MECHANICAL_DESIGN_GEOMETRIC_PRESENTATION_REPRESENTATION (  '', ( #144 ), #153 ) ;
#143 = PRESENTATION_LAYER_ASSIGNMENT (  '', '', ( #144 ) ) ;
#144 = STYLED_ITEM ( 'NONE', ( #145 ), #23 ) ;
#145 = PRESENTATION_STYLE_ASSIGNMENT (( #157 ) ) ;
#146 = FILL_AREA_STYLE ('',( #161 ) ) ;
#147 = CARTESIAN_POINT ( 'NONE',  ( 31.30000000000000800, 10.39999999999999900, 0.0000000000000000000 ) ) ;
#148 = AXIS2_PLACEMENT_3D ( 'NONE', #138, #137, #136 ) ;
#149 = CARTESIAN_POINT ( 'NONE',  ( 2.020667218593133100E-015, 3.061616997868380200E-016, 16.50000000000000000 ) ) ;
#150 = FACE_BOUND ( 'NONE', #38, .T. ) ;
#151 = FACE_OUTER_BOUND ( 'NONE', #78, .T. ) ;
#152 = FACE_OUTER_BOUND ( 'NONE', #60, .T. ) ;
#153 =( GEOMETRIC_REPRESENTATION_CONTEXT ( 3 ) GLOBAL_UNCERTAINTY_ASSIGNED_CONTEXT ( ( #154 ) ) GLOBAL_UNIT_ASSIGNED_CONTEXT ( ( #141, #156, #155 ) ) REPRESENTATION_CONTEXT ( 'NONE', 'WORKASPACE' ) );
#154 = UNCERTAINTY_MEASURE_WITH_UNIT (LENGTH_MEASURE( 1.000000000000000100E-005 ), #141, 'distance_accuracy_value', 'NONE');
#155 =( NAMED_UNIT ( * ) SI_UNIT ( $, .STERADIAN. ) SOLID_ANGLE_UNIT ( ) );
#156 =( NAMED_UNIT ( * ) PLANE_ANGLE_UNIT ( ) SI_UNIT ( $, .RADIAN. ) );
#157 = SURFACE_STYLE_USAGE ( .BOTH. , #158 ) ;
#158 = SURFACE_SIDE_STYLE ('',( #159 ) ) ;
#159 = SURFACE_STYLE_FILL_AREA ( #146 ) ;
#160 = COLOUR_RGB ( '',0.7529411764705882200, 0.7529411764705882200, 0.7529411764705882200 ) ;
#161 = FILL_AREA_STYLE_COLOUR ( '', #160 ) ;
#162 = DIRECTION ( 'NONE',  ( 0.0000000000000000000, 0.0000000000000000000, -1.000000000000000000 ) ) ;
#163 = DIRECTION ( 'NONE',  ( -0.0000000000000000000, -1.000000000000000000, -0.0000000000000000000 ) ) ;
#164 = CARTESIAN_POINT ( 'NONE',  ( 0.0000000000000000000, 0.0000000000000000000, 0.0000000000000000000 ) ) ;
#165 = AXIS2_PLACEMENT_3D ( 'NONE', #164, #163, #162 ) ;
#166 = AXIS2_PLACEMENT_3D ( 'NONE', #6, #8, #12 ) ;
#167 = DIRECTION ( 'NONE',  ( 0.0000000000000000000, 0.0000000000000000000, -1.000000000000000000 ) ) ;
#168 = DIRECTION ( 'NONE',  ( -0.0000000000000000000, -1.000000000000000000, -0.0000000000000000000 ) ) ;
#169 = AXIS2_PLACEMENT_3D ( 'NONE', #178, #168, #167 ) ;
#170 = AXIS2_PLACEMENT_3D ( 'NONE', #173, #174, #172 ) ;
#171 = CYLINDRICAL_SURFACE ( 'NONE', #169, 16.50000000000000000 ) ;
#172 = DIRECTION ( 'NONE',  ( 0.0000000000000000000, 0.0000000000000000000, -1.000000000000000000 ) ) ;
#173 = CARTESIAN_POINT ( 'NONE',  ( 0.0000000000000000000, 10.40000000000000200, 0.0000000000000000000 ) ) ;
#174 = DIRECTION ( 'NONE',  ( -0.0000000000000000000, -1.000000000000000000, -0.0000000000000000000 ) ) ;
#175 = FACE_OUTER_BOUND ( 'NONE', #32, .T. ) ;
#176 = CIRCLE ( 'NONE', #170, 31.30000000000000100 ) ;
#177 = FACE_OUTER_BOUND ( 'NONE', #49, .T. ) ;
#178 = CARTESIAN_POINT ( 'NONE',  ( 0.0000000000000000000, 0.0000000000000000000, 0.0000000000000000000 ) ) ;
#179 = FACE_BOUND ( 'NONE', #46, .T. ) ;
#180 = AXIS2_PLACEMENT_3D ( 'NONE', #205, #204, #203 ) ;
#181 = DIRECTION ( 'NONE',  ( 0.0000000000000000000, 0.0000000000000000000, -1.000000000000000000 ) ) ;
#182 = DIRECTION ( 'NONE',  ( -0.0000000000000000000, -1.000000000000000000, -0.0000000000000000000 ) ) ;
#183 = CARTESIAN_POINT ( 'NONE',  ( 0.0000000000000000000, 3.061616997868380200E-016, 0.0000000000000000000 ) ) ;
#184 = AXIS2_PLACEMENT_3D ( 'NONE', #183, #182, #181 ) ;
#185 = DIRECTION ( 'NONE',  ( -0.0000000000000000000, -1.000000000000000000, -0.0000000000000000000 ) ) ;
#186 = VECTOR ( 'NONE', #185, 1000.000000000000000 ) ;
#187 = CARTESIAN_POINT ( 'NONE',  ( 3.857637417314162700E-015, 0.0000000000000000000, 31.50000000000000000 ) ) ;
#188 = CARTESIAN_POINT ( 'NONE',  ( 3.857637417314162700E-015, 10.40000000000000200, 31.50000000000000000 ) ) ;
#189 = AXIS2_PLACEMENT_3D ( 'NONE', #281, #268, #267 ) ;
#190 = DIRECTION ( 'NONE',  ( 0.0000000000000000000, 0.0000000000000000000, -1.000000000000000000 ) ) ;
#191 = DIRECTION ( 'NONE',  ( -0.0000000000000000000, -1.000000000000000000, -0.0000000000000000000 ) ) ;
#192 = AXIS2_PLACEMENT_3D ( 'NONE', #279, #278, #277 ) ;
#193 = CARTESIAN_POINT ( 'NONE',  ( 0.0000000000000000000, 10.40000000000000200, -31.50000000000000000 ) ) ;
#194 = LINE ( 'NONE', #187, #186 ) ;
#195 = CIRCLE ( 'NONE', #199, 16.50000000000000000 ) ;
#196 = DIRECTION ( 'NONE',  ( -0.0000000000000000000, -1.000000000000000000, -0.0000000000000000000 ) ) ;
#197 = VECTOR ( 'NONE', #196, 1000.000000000000000 ) ;
#198 = CARTESIAN_POINT ( 'NONE',  ( 0.0000000000000000000, 0.0000000000000000000, -16.50000000000000000 ) ) ;
#199 = AXIS2_PLACEMENT_3D ( 'NONE', #208, #191, #190 ) ;
#200 = DIRECTION ( 'NONE',  ( 0.0000000000000000000, 0.0000000000000000000, -1.000000000000000000 ) ) ;
#201 = DIRECTION ( 'NONE',  ( -0.0000000000000000000, -1.000000000000000000, -0.0000000000000000000 ) ) ;
#202 = LINE ( 'NONE', #198, #197 ) ;
#203 = DIRECTION ( 'NONE',  ( 0.0000000000000000000, 0.0000000000000000000, -1.000000000000000000 ) ) ;
#204 = DIRECTION ( 'NONE',  ( -0.0000000000000000000, -1.000000000000000000, -0.0000000000000000000 ) ) ;
#205 = CARTESIAN_POINT ( 'NONE',  ( 0.0000000000000000000, 4.984811026501062300, 0.0000000000000000000 ) ) ;
#206 = CIRCLE ( 'NONE', #180, 16.50000000000000000 ) ;
#207 = CARTESIAN_POINT ( 'NONE',  ( 0.0000000000000000000, 3.061616997868380200E-016, 0.0000000000000000000 ) ) ;
#208 = CARTESIAN_POINT ( 'NONE',  ( 0.0000000000000000000, 4.984811026501062300, 0.0000000000000000000 ) ) ;
#209 = CIRCLE ( 'NONE', #264, 16.50000000000000000 ) ;
#210 = DIRECTION ( 'NONE',  ( 0.0000000000000000000, 0.0000000000000000000, -1.000000000000000000 ) ) ;
#211 = DIRECTION ( 'NONE',  ( -0.0000000000000000000, -1.000000000000000000, -0.0000000000000000000 ) ) ;
#212 = CARTESIAN_POINT ( 'NONE',  ( 0.0000000000000000000, 4.984811026501062300, 0.0000000000000000000 ) ) ;
#213 = AXIS2_PLACEMENT_3D ( 'NONE', #212, #211, #210 ) ;
#214 = CIRCLE ( 'NONE', #213, 16.50000000000000000 ) ;
#215 = UNCERTAINTY_MEASURE_WITH_UNIT (LENGTH_MEASURE( 1.000000000000000100E-005 ), #218, 'distance_accuracy_value', 'NONE');
#216 =( NAMED_UNIT ( * ) SI_UNIT ( $, .STERADIAN. ) SOLID_ANGLE_UNIT ( ) );
#217 =( NAMED_UNIT ( * ) PLANE_ANGLE_UNIT ( ) SI_UNIT ( $, .RADIAN. ) );
#218 =( LENGTH_UNIT ( ) NAMED_UNIT ( * ) SI_UNIT ( .MILLI., .METRE. ) );
#219 = MECHANICAL_DESIGN_GEOMETRIC_PRESENTATION_REPRESENTATION (  '', ( #221 ), #263 ) ;
#220 = PRESENTATION_LAYER_ASSIGNMENT (  '', '', ( #221 ) ) ;
#221 = STYLED_ITEM ( 'NONE', ( #222 ), #229 ) ;
#222 = PRESENTATION_STYLE_ASSIGNMENT (( #223 ) ) ;
#223 = SURFACE_STYLE_USAGE ( .BOTH. , #224 ) ;
#224 = SURFACE_SIDE_STYLE ('',( #225 ) ) ;
#225 = SURFACE_STYLE_FILL_AREA ( #270 ) ;
#226 = COLOUR_RGB ( '',0.7529411764705882200, 0.7529411764705882200, 0.7529411764705882200 ) ;
#227 = APPLICATION_CONTEXT ( 'automotive_design' ) ;
#228 = SHAPE_DEFINITION_REPRESENTATION ( #249, #229 ) ;
#229 = ADVANCED_BREP_SHAPE_REPRESENTATION ( 'WDS-401-2105F', ( #23, #262 ), #230 ) ;
#230 =( GEOMETRIC_REPRESENTATION_CONTEXT ( 3 ) GLOBAL_UNCERTAINTY_ASSIGNED_CONTEXT ( ( #231 ) ) GLOBAL_UNIT_ASSIGNED_CONTEXT ( ( #234, #233, #232 ) ) REPRESENTATION_CONTEXT ( 'NONE', 'WORKASPACE' ) );
#231 = UNCERTAINTY_MEASURE_WITH_UNIT (LENGTH_MEASURE( 1.000000000000000100E-005 ), #234, 'distance_accuracy_value', 'NONE');
#232 =( NAMED_UNIT ( * ) SI_UNIT ( $, .STERADIAN. ) SOLID_ANGLE_UNIT ( ) );
#233 =( NAMED_UNIT ( * ) PLANE_ANGLE_UNIT ( ) SI_UNIT ( $, .RADIAN. ) );
#234 =( LENGTH_UNIT ( ) NAMED_UNIT ( * ) SI_UNIT ( .MILLI., .METRE. ) );
#235 = FILL_AREA_STYLE_COLOUR ( '', #226 ) ;
#236 = DIRECTION ( 'NONE',  ( 0.0000000000000000000, 0.0000000000000000000, -1.000000000000000000 ) ) ;
#237 = DIRECTION ( 'NONE',  ( -0.0000000000000000000, -1.000000000000000000, -0.0000000000000000000 ) ) ;
#238 = DIRECTION ( 'NONE',  ( -0.0000000000000000000, -1.000000000000000000, -0.0000000000000000000 ) ) ;
#239 = VECTOR ( 'NONE', #238, 1000.000000000000000 ) ;
#240 = CARTESIAN_POINT ( 'NONE',  ( 0.0000000000000000000, 0.0000000000000000000, -31.50000000000000000 ) ) ;
#241 = AXIS2_PLACEMENT_3D ( 'NONE', #266, #237, #236 ) ;
#242 = LINE ( 'NONE', #240, #239 ) ;
#243 = FACE_OUTER_BOUND ( 'NONE', #121, .T. ) ;
#244 = DIRECTION ( 'NONE',  ( -0.0000000000000000000, -1.000000000000000000, -0.0000000000000000000 ) ) ;
#245 = VECTOR ( 'NONE', #244, 1000.000000000000000 ) ;
#246 = CARTESIAN_POINT ( 'NONE',  ( 2.020667218593133100E-015, 0.0000000000000000000, 16.50000000000000000 ) ) ;
#247 = DIRECTION ( 'NONE',  ( 0.0000000000000000000, 0.0000000000000000000, -1.000000000000000000 ) ) ;
#248 = DIRECTION ( 'NONE',  ( -0.0000000000000000000, -1.000000000000000000, -0.0000000000000000000 ) ) ;
#249 = PRODUCT_DEFINITION_SHAPE ( 'NONE', 'NONE',  #252 ) ;
#250 = PRODUCT_RELATED_PRODUCT_CATEGORY ( 'part', '', ( #256 ) ) ;
#251 = PRODUCT_DEFINITION_FORMATION_WITH_SPECIFIED_SOURCE ( 'ANY', '', #256, .NOT_KNOWN. ) ;
#252 = PRODUCT_DEFINITION ( 'UNKNOWN', '', #251, #253 ) ;
#253 = PRODUCT_DEFINITION_CONTEXT ( 'detailed design', #255, 'design' ) ;
#254 = APPLICATION_PROTOCOL_DEFINITION ( 'draft international standard', 'automotive_design', 1998, #255 ) ;
#255 = APPLICATION_CONTEXT ( 'automotive_design' ) ;
#256 = PRODUCT ( 'WDS-401-2105F', 'WDS-401-2105F', '', ( #257 ) ) ;
#257 = PRODUCT_CONTEXT ( 'NONE', #227, 'mechanical' ) ;
#258 = APPLICATION_PROTOCOL_DEFINITION ( 'draft international standard', 'automotive_design', 1998, #227 ) ;
#259 = DIRECTION ( 'NONE',  ( 1.000000000000000000, 0.0000000000000000000, 0.0000000000000000000 ) ) ;
#260 = DIRECTION ( 'NONE',  ( 0.0000000000000000000, 0.0000000000000000000, 1.000000000000000000 ) ) ;
#261 = CARTESIAN_POINT ( 'NONE',  ( 0.0000000000000000000, 0.0000000000000000000, 0.0000000000000000000 ) ) ;
#262 = AXIS2_PLACEMENT_3D ( 'NONE', #261, #260, #259 ) ;
#263 =( GEOMETRIC_REPRESENTATION_CONTEXT ( 3 ) GLOBAL_UNCERTAINTY_ASSIGNED_CONTEXT ( ( #215 ) ) GLOBAL_UNIT_ASSIGNED_CONTEXT ( ( #218, #217, #216 ) ) REPRESENTATION_CONTEXT ( 'NONE', 'WORKASPACE' ) );
#264 = AXIS2_PLACEMENT_3D ( 'NONE', #207, #201, #200 ) ;
#265 = CIRCLE ( 'NONE', #283, 31.50000000000000000 ) ;
#266 = CARTESIAN_POINT ( 'NONE',  ( 0.0000000000000000000, 0.0000000000000000000, 0.0000000000000000000 ) ) ;
#267 = DIRECTION ( 'NONE',  ( 0.0000000000000000000, 0.0000000000000000000, -1.000000000000000000 ) ) ;
#268 = DIRECTION ( 'NONE',  ( -0.0000000000000000000, -1.000000000000000000, -0.0000000000000000000 ) ) ;
#269 = CIRCLE ( 'NONE', #189, 31.50000000000000000 ) ;
#270 = FILL_AREA_STYLE ('',( #235 ) ) ;
#271 = DIRECTION ( 'NONE',  ( -1.000000000000000000, 0.0000000000000000000, 0.0000000000000000000 ) ) ;
#272 = DIRECTION ( 'NONE',  ( 0.0000000000000000000, 0.0000000000000000000, -1.000000000000000000 ) ) ;
#273 = CARTESIAN_POINT ( 'NONE',  ( 0.0000000000000000000, 73.01237896774088700, 0.0000000000000000000 ) ) ;
#274 = AXIS2_PLACEMENT_3D ( 'NONE', #273, #272, #271 ) ;
#275 = CIRCLE ( 'NONE', #274, 70.00000000000000000 ) ;
#276 = CARTESIAN_POINT ( 'NONE',  ( 0.0000000000000000000, 2.143131898507867500E-015, 0.0000000000000000000 ) ) ;
#277 = DIRECTION ( 'NONE',  ( 0.0000000000000000000, 0.0000000000000000000, -1.000000000000000000 ) ) ;
#278 = DIRECTION ( 'NONE',  ( -0.0000000000000000000, -1.000000000000000000, -0.0000000000000000000 ) ) ;
#279 = CARTESIAN_POINT ( 'NONE',  ( 0.0000000000000000000, 2.143131898507867500E-015, 0.0000000000000000000 ) ) ;
#280 = CYLINDRICAL_SURFACE ( 'NONE', #241, 31.50000000000000000 ) ;
#281 = CARTESIAN_POINT ( 'NONE',  ( 0.0000000000000000000, 10.40000000000000200, 0.0000000000000000000 ) ) ;
#282 = CIRCLE ( 'NONE', #192, 31.50000000000000000 ) ;
#283 = AXIS2_PLACEMENT_3D ( 'NONE', #276, #248, #247 ) ;
#284 = CIRCLE ( 'NONE', #184, 16.50000000000000000 ) ;
#285 = LINE ( 'NONE', #246, #245 ) ;
#286 = CARTESIAN_POINT ( 'NONE',  ( 0.0000000000000000000, 3.061616997868380200E-016, -16.50000000000000000 ) ) ;
ENDSEC;
END-ISO-10303-21;
