ISO-10303-21;
HEADER;
FILE_DESCRIPTION (( 'STEP AP203' ),
    '1' );
FILE_NAME ('WDS-401-209F.step',
    '2012-02-06T13:11:46',
    ( 'sysAdmin' ),
    ( 'SolidWorks' ),
    'SwSTEP 2.0',
    'SolidWorks 2012',
    '' );
FILE_SCHEMA (( 'CONFIG_CONTROL_DESIGN' ));
ENDSEC;

DATA;
#1 = DIRECTION ( 'NONE',  ( 0.0000000000000000000, -1.000000000000000000, -0.0000000000000000000 ) ) ;
#2 = CARTESIAN_POINT ( 'NONE',  ( 26.50000000000000000, 7.807123344564372600E-016, 0.0000000000000000000 ) ) ;
#3 = PLANE ( 'NONE',  #306 ) ;
#4 = DIRECTION ( 'NONE',  ( 1.000000000000000000, 0.0000000000000000000, 0.0000000000000000000 ) ) ;
#5 = DIRECTION ( 'NONE',  ( 0.0000000000000000000, 0.0000000000000000000, 1.000000000000000000 ) ) ;
#6 = CARTESIAN_POINT ( 'NONE',  ( 0.0000000000000000000, 67.94646518856133400, 0.0000000000000000000 ) ) ;
#7 = DIRECTION ( 'NONE',  ( 0.0000000000000000000, 0.0000000000000000000, -1.000000000000000000 ) ) ;
#8 = DIRECTION ( 'NONE',  ( -0.0000000000000000000, -1.000000000000000000, -0.0000000000000000000 ) ) ;
#9 = CARTESIAN_POINT ( 'NONE',  ( 0.0000000000000000000, 9.600000000000001400, 0.0000000000000000000 ) ) ;
#10 = DIRECTION ( 'NONE',  ( 0.0000000000000000000, 0.0000000000000000000, -1.000000000000000000 ) ) ;
#11 = DIRECTION ( 'NONE',  ( -0.0000000000000000000, -1.000000000000000000, -0.0000000000000000000 ) ) ;
#12 = CARTESIAN_POINT ( 'NONE',  ( 0.0000000000000000000, 9.600000000000001400, 0.0000000000000000000 ) ) ;
#13 = DIRECTION ( 'NONE',  ( 0.0000000000000000000, 0.0000000000000000000, -1.000000000000000000 ) ) ;
#14 = DIRECTION ( 'NONE',  ( -0.0000000000000000000, -1.000000000000000000, -0.0000000000000000000 ) ) ;
#15 = CARTESIAN_POINT ( 'NONE',  ( 0.0000000000000000000, 1.530808498934191100E-015, 0.0000000000000000000 ) ) ;
#16 = DIRECTION ( 'NONE',  ( 0.0000000000000000000, 0.0000000000000000000, -1.000000000000000000 ) ) ;
#17 = DIRECTION ( 'NONE',  ( -0.0000000000000000000, -1.000000000000000000, -0.0000000000000000000 ) ) ;
#18 = DIRECTION ( 'NONE',  ( -0.0000000000000000000, -1.000000000000000000, -0.0000000000000000000 ) ) ;
#19 = CARTESIAN_POINT ( 'NONE',  ( 1.745121688784978600E-015, 0.0000000000000000000, 14.25000000000000200 ) ) ;
#20 = LINE ( 'NONE', #19, #304 ) ;
#21 = CARTESIAN_POINT ( 'NONE',  ( 0.0000000000000000000, 0.0000000000000000000, 0.0000000000000000000 ) ) ;
#22 = DIRECTION ( 'NONE',  ( 0.0000000000000000000, 0.0000000000000000000, -1.000000000000000000 ) ) ;
#23 = DIRECTION ( 'NONE',  ( -0.0000000000000000000, -1.000000000000000000, -0.0000000000000000000 ) ) ;
#24 = CARTESIAN_POINT ( 'NONE',  ( 0.0000000000000000000, 0.0000000000000000000, 0.0000000000000000000 ) ) ;
#25 = CARTESIAN_POINT ( 'NONE',  ( 0.0000000000000000000, 5.553056081509003800, 0.0000000000000000000 ) ) ;
#26 = DIRECTION ( 'NONE',  ( 0.0000000000000000000, 0.0000000000000000000, -1.000000000000000000 ) ) ;
#27 = CARTESIAN_POINT ( 'NONE',  ( 26.30000000000000400, 9.599999999999996100, 0.0000000000000000000 ) ) ;
#28 = ORIENTED_EDGE ( 'NONE', *, *, #158, .F. ) ;
#29 = DIRECTION ( 'NONE',  ( 0.0000000000000000000, 0.0000000000000000000, -1.000000000000000000 ) ) ;
#30 = ORIENTED_EDGE ( 'NONE', *, *, #146, .F. ) ;
#31 = VERTEX_POINT ( 'NONE', #73 ) ;
#32 = VERTEX_POINT ( 'NONE', #74 ) ;
#33 = ORIENTED_EDGE ( 'NONE', *, *, #141, .T. ) ;
#34 = ORIENTED_EDGE ( 'NONE', *, *, #175, .T. ) ;
#35 = ORIENTED_EDGE ( 'NONE', *, *, #144, .T. ) ;
#36 = VERTEX_POINT ( 'NONE', #75 ) ;
#37 = VERTEX_POINT ( 'NONE', #76 ) ;
#38 = ORIENTED_EDGE ( 'NONE', *, *, #142, .F. ) ;
#39 = ORIENTED_EDGE ( 'NONE', *, *, #176, .T. ) ;
#40 = ORIENTED_EDGE ( 'NONE', *, *, #142, .T. ) ;
#41 = VERTEX_POINT ( 'NONE', #77 ) ;
#42 = VERTEX_POINT ( 'NONE', #78 ) ;
#43 = ORIENTED_EDGE ( 'NONE', *, *, #144, .F. ) ;
#44 = ORIENTED_EDGE ( 'NONE', *, *, #163, .T. ) ;
#45 = ORIENTED_EDGE ( 'NONE', *, *, #146, .T. ) ;
#46 = ORIENTED_EDGE ( 'NONE', *, *, #176, .F. ) ;
#47 = ORIENTED_EDGE ( 'NONE', *, *, #173, .F. ) ;
#48 = ORIENTED_EDGE ( 'NONE', *, *, #152, .F. ) ;
#49 = ORIENTED_EDGE ( 'NONE', *, *, #156, .F. ) ;
#50 = ORIENTED_EDGE ( 'NONE', *, *, #133, .F. ) ;
#51 = ORIENTED_EDGE ( 'NONE', *, *, #158, .T. ) ;
#52 = ORIENTED_EDGE ( 'NONE', *, *, #141, .F. ) ;
#53 = ORIENTED_EDGE ( 'NONE', *, *, #145, .T. ) ;
#54 = ORIENTED_EDGE ( 'NONE', *, *, #163, .F. ) ;
#55 = ORIENTED_EDGE ( 'NONE', *, *, #174, .F. ) ;
#56 = ORIENTED_EDGE ( 'NONE', *, *, #135, .T. ) ;
#57 = ORIENTED_EDGE ( 'NONE', *, *, #174, .T. ) ;
#58 = ORIENTED_EDGE ( 'NONE', *, *, #152, .T. ) ;
#59 = ORIENTED_EDGE ( 'NONE', *, *, #156, .T. ) ;
#60 = ORIENTED_EDGE ( 'NONE', *, *, #147, .T. ) ;
#61 = ORIENTED_EDGE ( 'NONE', *, *, #133, .T. ) ;
#62 = ORIENTED_EDGE ( 'NONE', *, *, #162, .T. ) ;
#63 = ORIENTED_EDGE ( 'NONE', *, *, #147, .F. ) ;
#64 = ORIENTED_EDGE ( 'NONE', *, *, #161, .T. ) ;
#65 = ORIENTED_EDGE ( 'NONE', *, *, #145, .F. ) ;
#66 = ORIENTED_EDGE ( 'NONE', *, *, #161, .F. ) ;
#67 = ORIENTED_EDGE ( 'NONE', *, *, #173, .T. ) ;
#68 = CARTESIAN_POINT ( 'NONE',  ( 3.245314017740485800E-015, 1.530808498934191100E-015, 26.50000000000000000 ) ) ;
#69 = VERTEX_POINT ( 'NONE', #79 ) ;
#70 = VERTEX_POINT ( 'NONE', #80 ) ;
#71 = ORIENTED_EDGE ( 'NONE', *, *, #135, .F. ) ;
#72 = ORIENTED_EDGE ( 'NONE', *, *, #175, .F. ) ;
#73 = CARTESIAN_POINT ( 'NONE',  ( -14.25000000000000200, 5.553056081509003800, 2.482971385271258800E-015 ) ) ;
#74 = CARTESIAN_POINT ( 'NONE',  ( 1.745121688784978200E-015, 3.061616997868338000E-017, 14.25000000000000000 ) ) ;
#75 = CARTESIAN_POINT ( 'NONE',  ( 0.0000000000000000000, 3.061616997868338000E-017, -14.25000000000000000 ) ) ;
#76 = CARTESIAN_POINT ( 'NONE',  ( 3.245314017740486600E-015, 9.600000000000001400, 26.50000000000000700 ) ) ;
#77 = CARTESIAN_POINT ( 'NONE',  ( 1.745121688784978600E-015, 5.553056081509003800, 14.25000000000000200 ) ) ;
#78 = CARTESIAN_POINT ( 'NONE',  ( 0.0000000000000000000, 1.530808498934191100E-015, -26.50000000000000000 ) ) ;
#79 = CARTESIAN_POINT ( 'NONE',  ( 14.25000000000000200, 5.553056081509003800, 0.0000000000000000000 ) ) ;
#80 = CARTESIAN_POINT ( 'NONE',  ( 0.0000000000000000000, 5.553056081509003800, -14.25000000000000200 ) ) ;
#81 = CARTESIAN_POINT ( 'NONE',  ( -26.30000000000000400, 9.599999999999996100, 3.220821081757539400E-015 ) ) ;
#82 = CARTESIAN_POINT ( 'NONE',  ( 0.0000000000000000000, 9.600000000000001400, -26.50000000000000400 ) ) ;
#83 = VERTEX_POINT ( 'NONE', #68 ) ;
#84 = DIRECTION ( 'NONE',  ( -0.0000000000000000000, -1.000000000000000000, -0.0000000000000000000 ) ) ;
#85 = CARTESIAN_POINT ( 'NONE',  ( 0.0000000000000000000, 1.530808498934191100E-015, 0.0000000000000000000 ) ) ;
#86 = DIRECTION ( 'NONE',  ( -0.0000000000000000000, -1.000000000000000000, -0.0000000000000000000 ) ) ;
#87 = CARTESIAN_POINT ( 'NONE',  ( 0.0000000000000000000, 0.0000000000000000000, 0.0000000000000000000 ) ) ;
#88 = DIRECTION ( 'NONE',  ( 0.0000000000000000000, 0.0000000000000000000, -1.000000000000000000 ) ) ;
#89 = CARTESIAN_POINT ( 'NONE',  ( 0.0000000000000000000, 67.94646518856133400, 0.0000000000000000000 ) ) ;
#90 = DIRECTION ( 'NONE',  ( 0.0000000000000000000, 0.0000000000000000000, -1.000000000000000000 ) ) ;
#91 = CARTESIAN_POINT ( 'NONE',  ( 0.0000000000000000000, 3.061616997868338000E-017, 0.0000000000000000000 ) ) ;
#92 = DIRECTION ( 'NONE',  ( -0.0000000000000000000, -1.000000000000000000, -0.0000000000000000000 ) ) ;
#93 = PLANE ( 'NONE',  #272 ) ;
#94 = DIRECTION ( 'NONE',  ( 0.0000000000000000000, 0.0000000000000000000, -1.000000000000000000 ) ) ;
#95 = DIRECTION ( 'NONE',  ( 0.0000000000000000000, 0.0000000000000000000, -1.000000000000000000 ) ) ;
#96 = CARTESIAN_POINT ( 'NONE',  ( 26.30000000000000400, 9.600000000000001400, 0.0000000000000000000 ) ) ;
#97 = DIRECTION ( 'NONE',  ( 0.0000000000000000000, -1.000000000000000000, -0.0000000000000000000 ) ) ;
#98 = DIRECTION ( 'NONE',  ( 0.0000000000000000000, 0.0000000000000000000, 1.000000000000000000 ) ) ;
#99 = CARTESIAN_POINT ( 'NONE',  ( 0.0000000000000000000, 9.600000000000001400, 0.0000000000000000000 ) ) ;
#100 = DIRECTION ( 'NONE',  ( 1.000000000000000000, 0.0000000000000000000, 0.0000000000000000000 ) ) ;
#101 = DIRECTION ( 'NONE',  ( -0.0000000000000000000, -1.000000000000000000, -0.0000000000000000000 ) ) ;
#102 = DIRECTION ( 'NONE',  ( 0.0000000000000000000, 0.0000000000000000000, -1.000000000000000000 ) ) ;
#103 = DIRECTION ( 'NONE',  ( 0.0000000000000000000, 0.0000000000000000000, -1.000000000000000000 ) ) ;
#104 = CARTESIAN_POINT ( 'NONE',  ( 0.0000000000000000000, 67.94646518856133400, 0.0000000000000000000 ) ) ;
#105 = CARTESIAN_POINT ( 'NONE',  ( 0.0000000000000000000, 0.0000000000000000000, 0.0000000000000000000 ) ) ;
#106 = DIRECTION ( 'NONE',  ( -1.000000000000000000, 0.0000000000000000000, 0.0000000000000000000 ) ) ;
#107 = DIRECTION ( 'NONE',  ( 0.0000000000000000000, 0.0000000000000000000, -1.000000000000000000 ) ) ;
#108 = DIRECTION ( 'NONE',  ( -0.0000000000000000000, -1.000000000000000000, -0.0000000000000000000 ) ) ;
#109 = DIRECTION ( 'NONE',  ( -0.0000000000000000000, -1.000000000000000000, -0.0000000000000000000 ) ) ;
#110 = CARTESIAN_POINT ( 'NONE',  ( 0.0000000000000000000, 5.553056081509003800, 0.0000000000000000000 ) ) ;
#111 = DIRECTION ( 'NONE',  ( 0.0000000000000000000, 0.0000000000000000000, -1.000000000000000000 ) ) ;
#112 = DIRECTION ( 'NONE',  ( -0.0000000000000000000, -1.000000000000000000, -0.0000000000000000000 ) ) ;
#113 = CARTESIAN_POINT ( 'NONE',  ( 0.0000000000000000000, 5.553056081509003800, 0.0000000000000000000 ) ) ;
#114 = DIRECTION ( 'NONE',  ( -0.0000000000000000000, -1.000000000000000000, -0.0000000000000000000 ) ) ;
#115 = ORIENTED_EDGE ( 'NONE', *, *, #162, .F. ) ;
#116 = VERTEX_POINT ( 'NONE', #82 ) ;
#117 = VERTEX_POINT ( 'NONE', #81 ) ;
#118 = EDGE_LOOP ( 'NONE', ( #66, #46, #40, #45, #53 ) ) ;
#119 = EDGE_LOOP ( 'NONE', ( #39, #33 ) ) ;
#120 = VERTEX_POINT ( 'NONE', #27 ) ;
#121 = EDGE_LOOP ( 'NONE', ( #28, #49 ) ) ;
#122 = EDGE_LOOP ( 'NONE', ( #47, #59, #62, #50 ) ) ;
#123 = EDGE_LOOP ( 'NONE', ( #52, #64, #35, #57, #38 ) ) ;
#124 = EDGE_LOOP ( 'NONE', ( #65, #60, #56, #54, #43 ) ) ;
#125 = EDGE_LOOP ( 'NONE', ( #51, #67, #48, #115 ) ) ;
#126 = EDGE_LOOP ( 'NONE', ( #72, #71 ) ) ;
#127 = EDGE_LOOP ( 'NONE', ( #58, #61 ) ) ;
#128 = EDGE_LOOP ( 'NONE', ( #63, #30, #55, #44, #34 ) ) ;
#129 = ADVANCED_BREP_SHAPE_REPRESENTATION ( 'WDS-401-209F', ( #195, #289 ), #260 ) ;
#130 = UNCERTAINTY_MEASURE_WITH_UNIT (LENGTH_MEASURE( 1.000000000000000100E-005 ), #209, 'distance_accuracy_value', 'NONE');
#131 = PERSON ( 'UNSPECIFIED', 'UNSPECIFIED', 'UNSPECIFIED', ('UNSPECIFIED'), ('UNSPECIFIED'), ('UNSPECIFIED') ) ;
#132 = ADVANCED_FACE ( 'NONE', ( #269 ), #264, .T. ) ;
#133 = EDGE_CURVE ( 'NONE', #83, #42, #153, .T. ) ;
#134 = ADVANCED_FACE ( 'NONE', ( #271 ), #261, .T. ) ;
#135 = EDGE_CURVE ( 'NONE', #32, #36, #137, .T. ) ;
#136 = ADVANCED_FACE ( 'NONE', ( #266, #267 ), #93, .F. ) ;
#137 = CIRCLE ( 'NONE', #265, 14.25000000000000000 ) ;
#138 = CIRCLE ( 'NONE', #279, 14.25000000000000200 ) ;
#139 = ADVANCED_FACE ( 'NONE', ( #270 ), #278, .F. ) ;
#140 = CIRCLE ( 'NONE', #282, 14.25000000000000200 ) ;
#141 = EDGE_CURVE ( 'NONE', #117, #120, #154, .T. ) ;
#142 = EDGE_CURVE ( 'NONE', #120, #69, #151, .T. ) ;
#143 = ADVANCED_FACE ( 'NONE', ( #274 ), #309, .F. ) ;
#144 = EDGE_CURVE ( 'NONE', #31, #70, #140, .T. ) ;
#145 = EDGE_CURVE ( 'NONE', #41, #31, #138, .T. ) ;
#146 = EDGE_CURVE ( 'NONE', #69, #41, #157, .T. ) ;
#147 = EDGE_CURVE ( 'NONE', #41, #32, #20, .T. ) ;
#148 = APPROVAL ( #222, 'UNSPECIFIED' ) ;
#149 = ADVANCED_FACE ( 'NONE', ( #307 ), #303, .F. ) ;
#150 = LOCAL_TIME ( 8, 11, 46.00000000000000000, #312 ) ;
#151 = CIRCLE ( 'NONE', #268, 64.00000000000000000 ) ;
#152 = EDGE_CURVE ( 'NONE', #42, #83, #164, .T. ) ;
#153 = CIRCLE ( 'NONE', #276, 26.50000000000000000 ) ;
#154 = CIRCLE ( 'NONE', #262, 26.30000000000000400 ) ;
#155 = CIRCLE ( 'NONE', #300, 26.50000000000000400 ) ;
#156 = EDGE_CURVE ( 'NONE', #37, #116, #155, .T. ) ;
#157 = CIRCLE ( 'NONE', #285, 14.25000000000000200 ) ;
#158 = EDGE_CURVE ( 'NONE', #116, #37, #186, .T. ) ;
#159 = ADVANCED_FACE ( 'NONE', ( #283 ), #288, .F. ) ;
#160 = ADVANCED_FACE ( 'NONE', ( #313, #280 ), #3, .T. ) ;
#161 = EDGE_CURVE ( 'NONE', #117, #31, #169, .T. ) ;
#162 = EDGE_CURVE ( 'NONE', #116, #42, #210, .T. ) ;
#163 = EDGE_CURVE ( 'NONE', #70, #36, #206, .T. ) ;
#164 = CIRCLE ( 'NONE', #302, 26.50000000000000000 ) ;
#165 = CIRCLE ( 'NONE', #308, 14.25000000000000200 ) ;
#166 = CIRCLE ( 'NONE', #315, 14.25000000000000000 ) ;
#167 = CIRCLE ( 'NONE', #296, 26.30000000000000400 ) ;
#168 = APPROVAL ( #251, 'UNSPECIFIED' ) ;
#169 = CIRCLE ( 'NONE', #286, 64.00000000000000000 ) ;
#170 = LOCAL_TIME ( 8, 11, 46.00000000000000000, #320 ) ;
#171 = CC_DESIGN_PERSON_AND_ORGANIZATION_ASSIGNMENT ( #217, #218, ( #187 ) ) ;
#172 = LOCAL_TIME ( 8, 11, 46.00000000000000000, #311 ) ;
#173 = EDGE_CURVE ( 'NONE', #37, #83, #203, .T. ) ;
#174 = EDGE_CURVE ( 'NONE', #70, #69, #165, .T. ) ;
#175 = EDGE_CURVE ( 'NONE', #36, #32, #166, .T. ) ;
#176 = EDGE_CURVE ( 'NONE', #120, #117, #167, .T. ) ;
#177 = PRODUCT_RELATED_PRODUCT_CATEGORY ( 'detail', '', ( #192 ) ) ;
#178 = LOCAL_TIME ( 8, 11, 46.00000000000000000, #319 ) ;
#179 = APPROVAL ( #236, 'UNSPECIFIED' ) ;
#180 = CC_DESIGN_DATE_AND_TIME_ASSIGNMENT ( #233, #234, ( #298 ) ) ;
#181 = LOCAL_TIME ( 8, 11, 46.00000000000000000, #290 ) ;
#182 = CC_DESIGN_PERSON_AND_ORGANIZATION_ASSIGNMENT ( #230, #232, ( #298 ) ) ;
#183 = CC_DESIGN_PERSON_AND_ORGANIZATION_ASSIGNMENT ( #226, #231, ( #301 ) ) ;
#184 = CC_DESIGN_PERSON_AND_ORGANIZATION_ASSIGNMENT ( #225, #229, ( #301 ) ) ;
#185 = CC_DESIGN_DATE_AND_TIME_ASSIGNMENT ( #219, #220, ( #187 ) ) ;
#186 = CIRCLE ( 'NONE', #292, 26.50000000000000400 ) ;
#187 = PRODUCT_DEFINITION ( 'UNKNOWN', '', #301, #194 ) ;
#188 = CC_DESIGN_PERSON_AND_ORGANIZATION_ASSIGNMENT ( #255, #256, ( #192 ) ) ;
#189 = CC_DESIGN_SECURITY_CLASSIFICATION ( #298, ( #301 ) ) ;
#190 = CALENDAR_DATE ( 2012, 6, 2 ) ;
#191 = CC_DESIGN_APPROVAL ( #179, ( #298 ) ) ;
#192 = PRODUCT ( 'WDS-401-209F', 'WDS-401-209F', '', ( #254 ) ) ;
#193 = PRODUCT_DEFINITION_SHAPE ( 'NONE', 'NONE',  #187 ) ;
#194 = DESIGN_CONTEXT ( 'detailed design', #258, 'design' ) ;
#195 = MANIFOLD_SOLID_BREP ( 'Cut-Revolve1', #263 ) ;
#196 = DIRECTION ( 'NONE',  ( -0.0000000000000000000, -1.000000000000000000, -0.0000000000000000000 ) ) ;
#197 = CARTESIAN_POINT ( 'NONE',  ( 0.0000000000000000000, 9.600000000000001400, 0.0000000000000000000 ) ) ;
#198 = DIRECTION ( 'NONE',  ( 0.0000000000000000000, 0.0000000000000000000, -1.000000000000000000 ) ) ;
#199 = DIRECTION ( 'NONE',  ( -0.0000000000000000000, -1.000000000000000000, -0.0000000000000000000 ) ) ;
#200 = CARTESIAN_POINT ( 'NONE',  ( 0.0000000000000000000, 0.0000000000000000000, -26.50000000000000000 ) ) ;
#201 = DIRECTION ( 'NONE',  ( 0.0000000000000000000, 0.0000000000000000000, -1.000000000000000000 ) ) ;
#202 = DIRECTION ( 'NONE',  ( -0.0000000000000000000, -1.000000000000000000, -0.0000000000000000000 ) ) ;
#203 = LINE ( 'NONE', #211, #295 ) ;
#204 = DIRECTION ( 'NONE',  ( -0.0000000000000000000, -1.000000000000000000, -0.0000000000000000000 ) ) ;
#205 = CARTESIAN_POINT ( 'NONE',  ( 0.0000000000000000000, 5.553056081509003800, 0.0000000000000000000 ) ) ;
#206 = LINE ( 'NONE', #244, #316 ) ;
#207 = DIRECTION ( 'NONE',  ( 1.000000000000000000, 0.0000000000000000000, -1.224646799147353200E-016 ) ) ;
#208 =( NAMED_UNIT ( * ) PLANE_ANGLE_UNIT ( ) SI_UNIT ( $, .RADIAN. ) );
#209 =( LENGTH_UNIT ( ) NAMED_UNIT ( * ) SI_UNIT ( .MILLI., .METRE. ) );
#210 = LINE ( 'NONE', #200, #284 ) ;
#211 = CARTESIAN_POINT ( 'NONE',  ( 3.245314017740485800E-015, 0.0000000000000000000, 26.50000000000000000 ) ) ;
#212 =( NAMED_UNIT ( * ) SI_UNIT ( $, .STERADIAN. ) SOLID_ANGLE_UNIT ( ) );
#213 = DIRECTION ( 'NONE',  ( 0.0000000000000000000, 0.0000000000000000000, -1.000000000000000000 ) ) ;
#214 = APPROVAL_DATE_TIME ( #216, #168 ) ;
#215 = APPROVAL_ROLE ( '' ) ;
#216 = DATE_AND_TIME ( #317, #170 ) ;
#217 = PERSON_AND_ORGANIZATION ( #131, #281 ) ;
#218 = PERSON_AND_ORGANIZATION_ROLE ( 'creator' ) ;
#219 = DATE_AND_TIME ( #294, #172 ) ;
#220 = DATE_TIME_ROLE ( 'creation_date' ) ;
#221 = PERSON_AND_ORGANIZATION ( #131, #281 ) ;
#222 = APPROVAL_STATUS ( 'not_yet_approved' ) ;
#223 = APPROVAL_ROLE ( '' ) ;
#224 = DATE_AND_TIME ( #293, #150 ) ;
#225 = PERSON_AND_ORGANIZATION ( #131, #281 ) ;
#226 = PERSON_AND_ORGANIZATION ( #131, #281 ) ;
#227 = APPROVAL_DATE_TIME ( #224, #148 ) ;
#228 = SECURITY_CLASSIFICATION_LEVEL ( 'unclassified' ) ;
#229 = PERSON_AND_ORGANIZATION_ROLE ( 'creator' ) ;
#230 = PERSON_AND_ORGANIZATION ( #131, #281 ) ;
#231 = PERSON_AND_ORGANIZATION_ROLE ( 'design_supplier' ) ;
#232 = PERSON_AND_ORGANIZATION_ROLE ( 'classification_officer' ) ;
#233 = DATE_AND_TIME ( #287, #181 ) ;
#234 = DATE_TIME_ROLE ( 'classification_date' ) ;
#235 = PERSON_AND_ORGANIZATION ( #131, #281 ) ;
#236 = APPROVAL_STATUS ( 'not_yet_approved' ) ;
#237 = APPROVAL_ROLE ( '' ) ;
#238 = DATE_AND_TIME ( #190, #178 ) ;
#239 = APPROVAL_DATE_TIME ( #238, #179 ) ;
#240 = DIRECTION ( 'NONE',  ( -0.0000000000000000000, -1.000000000000000000, -0.0000000000000000000 ) ) ;
#241 = DIRECTION ( 'NONE',  ( 1.000000000000000000, 0.0000000000000000000, 0.0000000000000000000 ) ) ;
#242 = CARTESIAN_POINT ( 'NONE',  ( 0.0000000000000000000, 3.061616997868338000E-017, 0.0000000000000000000 ) ) ;
#243 = DIRECTION ( 'NONE',  ( -0.0000000000000000000, -1.000000000000000000, -0.0000000000000000000 ) ) ;
#244 = CARTESIAN_POINT ( 'NONE',  ( 0.0000000000000000000, 0.0000000000000000000, -14.25000000000000200 ) ) ;
#245 = DIRECTION ( 'NONE',  ( 0.0000000000000000000, 0.0000000000000000000, -1.000000000000000000 ) ) ;
#246 = CARTESIAN_POINT ( 'NONE',  ( 0.0000000000000000000, 67.94646518856133400, 0.0000000000000000000 ) ) ;
#247 = DIRECTION ( 'NONE',  ( 1.224646799147353200E-016, -0.0000000000000000000, 1.000000000000000000 ) ) ;
#248 = SHAPE_DEFINITION_REPRESENTATION ( #193, #129 ) ;
#249 = CARTESIAN_POINT ( 'NONE',  ( 0.0000000000000000000, 0.0000000000000000000, 0.0000000000000000000 ) ) ;
#250 = DIRECTION ( 'NONE',  ( 0.0000000000000000000, 0.0000000000000000000, 1.000000000000000000 ) ) ;
#251 = APPROVAL_STATUS ( 'not_yet_approved' ) ;
#252 = APPLICATION_PROTOCOL_DEFINITION ( 'international standard', 'config_control_design', 1994, #259 ) ;
#253 = PERSON_AND_ORGANIZATION ( #131, #281 ) ;
#254 = MECHANICAL_CONTEXT ( 'NONE', #259, 'mechanical' ) ;
#255 = PERSON_AND_ORGANIZATION ( #131, #281 ) ;
#256 = PERSON_AND_ORGANIZATION_ROLE ( 'design_owner' ) ;
#257 = APPLICATION_PROTOCOL_DEFINITION ( 'international standard', 'config_control_design', 1994, #258 ) ;
#258 = APPLICATION_CONTEXT ( 'configuration controlled 3d designs of mechanical parts and assemblies' ) ;
#259 = APPLICATION_CONTEXT ( 'configuration controlled 3d designs of mechanical parts and assemblies' ) ;
#260 =( GEOMETRIC_REPRESENTATION_CONTEXT ( 3 ) GLOBAL_UNCERTAINTY_ASSIGNED_CONTEXT ( ( #130 ) ) GLOBAL_UNIT_ASSIGNED_CONTEXT ( ( #209, #208, #212 ) ) REPRESENTATION_CONTEXT ( 'NONE', 'WORKASPACE' ) );
#261 = CYLINDRICAL_SURFACE ( 'NONE', #277, 26.50000000000000000 ) ;
#262 = AXIS2_PLACEMENT_3D ( 'NONE', #99, #101, #102 ) ;
#263 = CLOSED_SHELL ( 'NONE', ( #139, #149, #134, #160, #132, #143, #159, #136 ) ) ;
#264 = CYLINDRICAL_SURFACE ( 'NONE', #275, 26.50000000000000000 ) ;
#265 = AXIS2_PLACEMENT_3D ( 'NONE', #91, #92, #94 ) ;
#266 = FACE_OUTER_BOUND ( 'NONE', #121, .T. ) ;
#267 = FACE_BOUND ( 'NONE', #119, .T. ) ;
#268 = AXIS2_PLACEMENT_3D ( 'NONE', #104, #103, #106 ) ;
#269 = FACE_OUTER_BOUND ( 'NONE', #122, .T. ) ;
#270 = FACE_OUTER_BOUND ( 'NONE', #123, .T. ) ;
#271 = FACE_OUTER_BOUND ( 'NONE', #125, .T. ) ;
#272 = AXIS2_PLACEMENT_3D ( 'NONE', #96, #97, #95 ) ;
#273 = AXIS2_PLACEMENT_3D ( 'NONE', #89, #98, #100 ) ;
#274 = FACE_OUTER_BOUND ( 'NONE', #128, .T. ) ;
#275 = AXIS2_PLACEMENT_3D ( 'NONE', #24, #112, #29 ) ;
#276 = AXIS2_PLACEMENT_3D ( 'NONE', #85, #86, #88 ) ;
#277 = AXIS2_PLACEMENT_3D ( 'NONE', #87, #84, #90 ) ;
#278 = SPHERICAL_SURFACE ( 'NONE', #273, 64.00000000000000000 ) ;
#279 = AXIS2_PLACEMENT_3D ( 'NONE', #113, #114, #26 ) ;
#280 = FACE_BOUND ( 'NONE', #126, .T. ) ;
#281 = ORGANIZATION ( 'UNSPECIFIED', 'UNSPECIFIED', '' ) ;
#282 = AXIS2_PLACEMENT_3D ( 'NONE', #110, #109, #111 ) ;
#283 = FACE_OUTER_BOUND ( 'NONE', #118, .T. ) ;
#284 = VECTOR ( 'NONE', #204, 1000.000000000000000 ) ;
#285 = AXIS2_PLACEMENT_3D ( 'NONE', #25, #23, #22 ) ;
#286 = AXIS2_PLACEMENT_3D ( 'NONE', #246, #247, #207 ) ;
#287 = CALENDAR_DATE ( 2012, 6, 2 ) ;
#288 = SPHERICAL_SURFACE ( 'NONE', #318, 64.00000000000000000 ) ;
#289 = AXIS2_PLACEMENT_3D ( 'NONE', #249, #250, #241 ) ;
#290 = COORDINATED_UNIVERSAL_TIME_OFFSET ( 5, 0, .BEHIND. ) ;
#291 = AXIS2_PLACEMENT_3D ( 'NONE', #105, #108, #107 ) ;
#292 = AXIS2_PLACEMENT_3D ( 'NONE', #9, #8, #7 ) ;
#293 = CALENDAR_DATE ( 2012, 6, 2 ) ;
#294 = CALENDAR_DATE ( 2012, 6, 2 ) ;
#295 = VECTOR ( 'NONE', #243, 1000.000000000000000 ) ;
#296 = AXIS2_PLACEMENT_3D ( 'NONE', #197, #199, #201 ) ;
#297 = AXIS2_PLACEMENT_3D ( 'NONE', #21, #17, #16 ) ;
#298 = SECURITY_CLASSIFICATION ( '', '', #228 ) ;
#299 = APPROVAL_PERSON_ORGANIZATION ( #235, #179, #237 ) ;
#300 = AXIS2_PLACEMENT_3D ( 'NONE', #12, #11, #10 ) ;
#301 = PRODUCT_DEFINITION_FORMATION_WITH_SPECIFIED_SOURCE ( 'ANY', '', #192, .NOT_KNOWN. ) ;
#302 = AXIS2_PLACEMENT_3D ( 'NONE', #15, #14, #13 ) ;
#303 = CYLINDRICAL_SURFACE ( 'NONE', #297, 14.25000000000000200 ) ;
#304 = VECTOR ( 'NONE', #18, 1000.000000000000000 ) ;
#305 = CC_DESIGN_APPROVAL ( #148, ( #301 ) ) ;
#306 = AXIS2_PLACEMENT_3D ( 'NONE', #2, #1, #213 ) ;
#307 = FACE_OUTER_BOUND ( 'NONE', #124, .T. ) ;
#308 = AXIS2_PLACEMENT_3D ( 'NONE', #205, #202, #245 ) ;
#309 = CYLINDRICAL_SURFACE ( 'NONE', #291, 14.25000000000000200 ) ;
#310 = APPROVAL_PERSON_ORGANIZATION ( #221, #148, #223 ) ;
#311 = COORDINATED_UNIVERSAL_TIME_OFFSET ( 5, 0, .BEHIND. ) ;
#312 = COORDINATED_UNIVERSAL_TIME_OFFSET ( 5, 0, .BEHIND. ) ;
#313 = FACE_OUTER_BOUND ( 'NONE', #127, .T. ) ;
#314 = APPROVAL_PERSON_ORGANIZATION ( #253, #168, #215 ) ;
#315 = AXIS2_PLACEMENT_3D ( 'NONE', #242, #196, #198 ) ;
#316 = VECTOR ( 'NONE', #240, 1000.000000000000000 ) ;
#317 = CALENDAR_DATE ( 2012, 6, 2 ) ;
#318 = AXIS2_PLACEMENT_3D ( 'NONE', #6, #5, #4 ) ;
#319 = COORDINATED_UNIVERSAL_TIME_OFFSET ( 5, 0, .BEHIND. ) ;
#320 = COORDINATED_UNIVERSAL_TIME_OFFSET ( 5, 0, .BEHIND. ) ;
#321 = CC_DESIGN_APPROVAL ( #168, ( #187 ) ) ;
ENDSEC;
END-ISO-10303-21;
