ISO-10303-21;
HEADER;
FILE_DESCRIPTION (( 'STEP AP203' ),
    '1' );
FILE_NAME ('WDS-401-2065F.step',
    '2012-04-05T10:03:30',
    ( 'sysAdmin' ),
    ( 'SolidWorks' ),
    'SwSTEP 2.0',
    'SolidWorks 2012',
    '' );
FILE_SCHEMA (( 'CONFIG_CONTROL_DESIGN' ));
ENDSEC;

DATA;
#1 = ADVANCED_FACE ( 'NONE', ( #72, #81 ), #250, .T. ) ;
#2 = EDGE_CURVE ( 'NONE', #102, #106, #225, .T. ) ;
#3 = EDGE_CURVE ( 'NONE', #23, #16, #71, .T. ) ;
#4 = EDGE_LOOP ( 'NONE', ( #10, #35, #49, #18, #45 ) ) ;
#5 = EDGE_LOOP ( 'NONE', ( #6, #7 ) ) ;
#6 = ORIENTED_EDGE ( 'NONE', *, *, #3, .F. ) ;
#7 = ORIENTED_EDGE ( 'NONE', *, *, #13, .F. ) ;
#8 = ORIENTED_EDGE ( 'NONE', *, *, #27, .F. ) ;
#9 = ORIENTED_EDGE ( 'NONE', *, *, #34, .F. ) ;
#10 = ORIENTED_EDGE ( 'NONE', *, *, #76, .F. ) ;
#11 = ORIENTED_EDGE ( 'NONE', *, *, #12, .T. ) ;
#12 = EDGE_CURVE ( 'NONE', #100, #15, #220, .T. ) ;
#13 = EDGE_CURVE ( 'NONE', #16, #23, #185, .T. ) ;
#14 = ORIENTED_EDGE ( 'NONE', *, *, #50, .T. ) ;
#15 = VERTEX_POINT ( 'NONE', #175 ) ;
#16 = VERTEX_POINT ( 'NONE', #179 ) ;
#17 = ORIENTED_EDGE ( 'NONE', *, *, #27, .T. ) ;
#18 = ORIENTED_EDGE ( 'NONE', *, *, #34, .T. ) ;
#19 = ADVANCED_FACE ( 'NONE', ( #245, #221 ), #243, .F. ) ;
#20 = EDGE_LOOP ( 'NONE', ( #24, #25 ) ) ;
#21 = ORIENTED_EDGE ( 'NONE', *, *, #12, .F. ) ;
#22 = ORIENTED_EDGE ( 'NONE', *, *, #206, .F. ) ;
#23 = VERTEX_POINT ( 'NONE', #240 ) ;
#24 = ORIENTED_EDGE ( 'NONE', *, *, #31, .T. ) ;
#25 = ORIENTED_EDGE ( 'NONE', *, *, #143, .T. ) ;
#26 = ORIENTED_EDGE ( 'NONE', *, *, #13, .T. ) ;
#27 = EDGE_CURVE ( 'NONE', #83, #16, #236, .T. ) ;
#28 = ADVANCED_FACE ( 'NONE', ( #241 ), #242, .T. ) ;
#29 = ORIENTED_EDGE ( 'NONE', *, *, #3, .T. ) ;
#30 = EDGE_LOOP ( 'NONE', ( #8, #9, #38, #47, #29 ) ) ;
#31 = EDGE_CURVE ( 'NONE', #75, #144, #232, .T. ) ;
#32 = ORIENTED_EDGE ( 'NONE', *, *, #2, .F. ) ;
#33 = ADVANCED_FACE ( 'NONE', ( #233 ), #235, .F. ) ;
#34 = EDGE_CURVE ( 'NONE', #86, #83, #192, .T. ) ;
#35 = ORIENTED_EDGE ( 'NONE', *, *, #31, .F. ) ;
#36 = LOCAL_TIME ( 6, 3, 30.00000000000000000, #56 ) ;
#37 = CC_DESIGN_PERSON_AND_ORGANIZATION_ASSIGNMENT ( #288, #287, ( #289 ) ) ;
#38 = ORIENTED_EDGE ( 'NONE', *, *, #87, .F. ) ;
#39 = ADVANCED_FACE ( 'NONE', ( #193 ), #230, .T. ) ;
#40 = EDGE_CURVE ( 'NONE', #15, #106, #65, .T. ) ;
#41 = ORIENTED_EDGE ( 'NONE', *, *, #43, .T. ) ;
#42 = ORIENTED_EDGE ( 'NONE', *, *, #206, .T. ) ;
#43 = EDGE_CURVE ( 'NONE', #100, #102, #231, .T. ) ;
#44 = ORIENTED_EDGE ( 'NONE', *, *, #2, .T. ) ;
#45 = ORIENTED_EDGE ( 'NONE', *, *, #69, .T. ) ;
#46 = EDGE_LOOP ( 'NONE', ( #22, #21 ) ) ;
#47 = ORIENTED_EDGE ( 'NONE', *, *, #205, .T. ) ;
#48 = ADVANCED_FACE ( 'NONE', ( #66 ), #194, .F. ) ;
#49 = ORIENTED_EDGE ( 'NONE', *, *, #209, .T. ) ;
#50 = EDGE_CURVE ( 'NONE', #106, #102, #212, .T. ) ;
#51 = EDGE_LOOP ( 'NONE', ( #52, #11, #54, #32 ) ) ;
#52 = ORIENTED_EDGE ( 'NONE', *, *, #43, .F. ) ;
#53 = ORIENTED_EDGE ( 'NONE', *, *, #40, .F. ) ;
#54 = ORIENTED_EDGE ( 'NONE', *, *, #40, .T. ) ;
#55 = CLOSED_SHELL ( 'NONE', ( #141, #84, #39, #1, #28, #33, #48, #19 ) ) ;
#56 = COORDINATED_UNIVERSAL_TIME_OFFSET ( 5, 0, .BEHIND. ) ;
#57 = DIRECTION ( 'NONE',  ( -0.0000000000000000000, -1.000000000000000000, -0.0000000000000000000 ) ) ;
#58 = VECTOR ( 'NONE', #57, 1000.000000000000000 ) ;
#59 = CARTESIAN_POINT ( 'NONE',  ( 0.0000000000000000000, 6.123233995736760400E-016, 0.0000000000000000000 ) ) ;
#60 = AXIS2_PLACEMENT_3D ( 'NONE', #59, #99, #98 ) ;
#61 = AXIS2_PLACEMENT_3D ( 'NONE', #186, #215, #214 ) ;
#62 = DIRECTION ( 'NONE',  ( -0.0000000000000000000, -1.000000000000000000, -0.0000000000000000000 ) ) ;
#63 = VECTOR ( 'NONE', #62, 1000.000000000000000 ) ;
#64 = CARTESIAN_POINT ( 'NONE',  ( 0.0000000000000000000, 0.0000000000000000000, -19.00000000000000000 ) ) ;
#65 = LINE ( 'NONE', #64, #63 ) ;
#66 = FACE_OUTER_BOUND ( 'NONE', #4, .T. ) ;
#67 = DIRECTION ( 'NONE',  ( 0.0000000000000000000, 0.0000000000000000000, -1.000000000000000000 ) ) ;
#68 = DIRECTION ( 'NONE',  ( -0.0000000000000000000, -1.000000000000000000, -0.0000000000000000000 ) ) ;
#69 = EDGE_CURVE ( 'NONE', #83, #145, #95, .T. ) ;
#70 = MANIFOLD_SOLID_BREP ( 'Cut-Revolve1', #55 ) ;
#71 = CIRCLE ( 'NONE', #80, 10.25000000000000000 ) ;
#72 = FACE_OUTER_BOUND ( 'NONE', #140, .T. ) ;
#73 = CC_DESIGN_DATE_AND_TIME_ASSIGNMENT ( #159, #74, ( #289 ) ) ;
#74 = DATE_TIME_ROLE ( 'classification_date' ) ;
#75 = VERTEX_POINT ( 'NONE', #97 ) ;
#76 = EDGE_CURVE ( 'NONE', #144, #145, #127, .T. ) ;
#77 = AXIS2_PLACEMENT_3D ( 'NONE', #184, #238, #237 ) ;
#78 = AXIS2_PLACEMENT_3D ( 'NONE', #203, #202, #201 ) ;
#79 = AXIS2_PLACEMENT_3D ( 'NONE', #224, #223, #222 ) ;
#80 = AXIS2_PLACEMENT_3D ( 'NONE', #219, #218, #217 ) ;
#81 = FACE_BOUND ( 'NONE', #5, .T. ) ;
#82 = EDGE_LOOP ( 'NONE', ( #204, #142, #85, #147, #210 ) ) ;
#83 = VERTEX_POINT ( 'NONE', #96 ) ;
#84 = ADVANCED_FACE ( 'NONE', ( #89 ), #200, .F. ) ;
#85 = ORIENTED_EDGE ( 'NONE', *, *, #207, .T. ) ;
#86 = VERTEX_POINT ( 'NONE', #122 ) ;
#87 = EDGE_CURVE ( 'NONE', #208, #86, #115, .T. ) ;
#88 = AXIS2_PLACEMENT_3D ( 'NONE', #126, #125, #124 ) ;
#89 = FACE_OUTER_BOUND ( 'NONE', #211, .T. ) ;
#90 = CARTESIAN_POINT ( 'NONE',  ( 0.0000000000000000000, 6.123233995736760400E-016, -19.00000000000000000 ) ) ;
#91 = DIRECTION ( 'NONE',  ( 0.0000000000000000000, 0.0000000000000000000, -1.000000000000000000 ) ) ;
#92 = DIRECTION ( 'NONE',  ( -0.0000000000000000000, -1.000000000000000000, -0.0000000000000000000 ) ) ;
#93 = CARTESIAN_POINT ( 'NONE',  ( 0.0000000000000000000, 3.772314685535364600, 0.0000000000000000000 ) ) ;
#94 = AXIS2_PLACEMENT_3D ( 'NONE', #93, #92, #91 ) ;
#95 = CIRCLE ( 'NONE', #94, 10.24999999999999800 ) ;
#96 = CARTESIAN_POINT ( 'NONE',  ( 1.255262969126037000E-015, 3.772314685535364600, 10.24999999999999800 ) ) ;
#97 = CARTESIAN_POINT ( 'NONE',  ( 18.79999999999999700, 6.500000000000000000, 0.0000000000000000000 ) ) ;
#98 = DIRECTION ( 'NONE',  ( 0.0000000000000000000, 0.0000000000000000000, -1.000000000000000000 ) ) ;
#99 = DIRECTION ( 'NONE',  ( -0.0000000000000000000, -1.000000000000000000, -0.0000000000000000000 ) ) ;
#100 = VERTEX_POINT ( 'NONE', #118 ) ;
#101 = ORIENTED_EDGE ( 'NONE', *, *, #205, .F. ) ;
#102 = VERTEX_POINT ( 'NONE', #187 ) ;
#103 = ORIENTED_EDGE ( 'NONE', *, *, #207, .F. ) ;
#104 = ORIENTED_EDGE ( 'NONE', *, *, #50, .F. ) ;
#105 = EDGE_LOOP ( 'NONE', ( #42, #41, #104, #53 ) ) ;
#106 = VERTEX_POINT ( 'NONE', #90 ) ;
#107 = LINE ( 'NONE', #149, #150 ) ;
#108 = AXIS2_PLACEMENT_3D ( 'NONE', #153, #152, #151 ) ;
#109 = SPHERICAL_SURFACE ( 'NONE', #116, 48.00000000000000000 ) ;
#110 = CARTESIAN_POINT ( 'NONE',  ( -18.79999999999999700, 6.500000000000000000, 2.302335982397023900E-015 ) ) ;
#111 = DIRECTION ( 'NONE',  ( 0.0000000000000000000, 0.0000000000000000000, -1.000000000000000000 ) ) ;
#112 = DIRECTION ( 'NONE',  ( -0.0000000000000000000, -1.000000000000000000, -0.0000000000000000000 ) ) ;
#113 = CARTESIAN_POINT ( 'NONE',  ( 0.0000000000000000000, 3.772314685535364600, 0.0000000000000000000 ) ) ;
#114 = AXIS2_PLACEMENT_3D ( 'NONE', #113, #112, #111 ) ;
#115 = CIRCLE ( 'NONE', #114, 10.24999999999999800 ) ;
#116 = AXIS2_PLACEMENT_3D ( 'NONE', #117, #157, #156 ) ;
#117 = CARTESIAN_POINT ( 'NONE',  ( 0.0000000000000000000, 50.66514462786236800, 0.0000000000000000000 ) ) ;
#118 = CARTESIAN_POINT ( 'NONE',  ( 2.326828918379971400E-015, 6.500000000000000900, 19.00000000000000400 ) ) ;
#119 = DIRECTION ( 'NONE',  ( 0.0000000000000000000, 0.0000000000000000000, -1.000000000000000000 ) ) ;
#120 = FACE_OUTER_BOUND ( 'NONE', #82, .T. ) ;
#121 = CARTESIAN_POINT ( 'NONE',  ( 0.0000000000000000000, 0.0000000000000000000, 0.0000000000000000000 ) ) ;
#122 = CARTESIAN_POINT ( 'NONE',  ( 10.24999999999999800, 3.772314685535364600, 0.0000000000000000000 ) ) ;
#123 = CIRCLE ( 'NONE', #108, 18.80000000000000400 ) ;
#124 = DIRECTION ( 'NONE',  ( 1.000000000000000000, 0.0000000000000000000, -1.224646799147353200E-016 ) ) ;
#125 = DIRECTION ( 'NONE',  ( 1.224646799147353200E-016, -0.0000000000000000000, 1.000000000000000000 ) ) ;
#126 = CARTESIAN_POINT ( 'NONE',  ( 0.0000000000000000000, 50.66514462786236800, 0.0000000000000000000 ) ) ;
#127 = CIRCLE ( 'NONE', #88, 48.00000000000000000 ) ;
#128 = APPROVAL ( #129, 'UNSPECIFIED' ) ;
#129 = APPROVAL_STATUS ( 'not_yet_approved' ) ;
#130 = PERSON_AND_ORGANIZATION ( #263, #321 ) ;
#131 = ADVANCED_BREP_SHAPE_REPRESENTATION ( 'WDS-401-2065F', ( #70, #285 ), #132 ) ;
#132 =( GEOMETRIC_REPRESENTATION_CONTEXT ( 3 ) GLOBAL_UNCERTAINTY_ASSIGNED_CONTEXT ( ( #133 ) ) GLOBAL_UNIT_ASSIGNED_CONTEXT ( ( #136, #135, #134 ) ) REPRESENTATION_CONTEXT ( 'NONE', 'WORKASPACE' ) );
#133 = UNCERTAINTY_MEASURE_WITH_UNIT (LENGTH_MEASURE( 1.000000000000000100E-005 ), #136, 'distance_accuracy_value', 'NONE');
#134 =( NAMED_UNIT ( * ) SI_UNIT ( $, .STERADIAN. ) SOLID_ANGLE_UNIT ( ) );
#135 =( NAMED_UNIT ( * ) PLANE_ANGLE_UNIT ( ) SI_UNIT ( $, .RADIAN. ) );
#136 =( LENGTH_UNIT ( ) NAMED_UNIT ( * ) SI_UNIT ( .MILLI., .METRE. ) );
#137 = DIRECTION ( 'NONE',  ( -1.000000000000000000, 0.0000000000000000000, 0.0000000000000000000 ) ) ;
#138 = DIRECTION ( 'NONE',  ( 0.0000000000000000000, 0.0000000000000000000, -1.000000000000000000 ) ) ;
#139 = CARTESIAN_POINT ( 'NONE',  ( 0.0000000000000000000, 50.66514462786236800, 0.0000000000000000000 ) ) ;
#140 = EDGE_LOOP ( 'NONE', ( #14, #44 ) ) ;
#141 = ADVANCED_FACE ( 'NONE', ( #120 ), #109, .F. ) ;
#142 = ORIENTED_EDGE ( 'NONE', *, *, #76, .T. ) ;
#143 = EDGE_CURVE ( 'NONE', #144, #75, #123, .T. ) ;
#144 = VERTEX_POINT ( 'NONE', #110 ) ;
#145 = VERTEX_POINT ( 'NONE', #158 ) ;
#146 = ORIENTED_EDGE ( 'NONE', *, *, #69, .F. ) ;
#147 = ORIENTED_EDGE ( 'NONE', *, *, #87, .T. ) ;
#148 = AXIS2_PLACEMENT_3D ( 'NONE', #166, #165, #164 ) ;
#149 = CARTESIAN_POINT ( 'NONE',  ( 0.0000000000000000000, 0.0000000000000000000, -10.24999999999999800 ) ) ;
#150 = VECTOR ( 'NONE', #170, 1000.000000000000000 ) ;
#151 = DIRECTION ( 'NONE',  ( 0.0000000000000000000, 0.0000000000000000000, -1.000000000000000000 ) ) ;
#152 = DIRECTION ( 'NONE',  ( -0.0000000000000000000, -1.000000000000000000, -0.0000000000000000000 ) ) ;
#153 = CARTESIAN_POINT ( 'NONE',  ( 0.0000000000000000000, 6.500000000000000900, 0.0000000000000000000 ) ) ;
#154 = CARTESIAN_POINT ( 'NONE',  ( 0.0000000000000000000, 3.772314685535364600, -10.24999999999999800 ) ) ;
#155 = AXIS2_PLACEMENT_3D ( 'NONE', #139, #138, #137 ) ;
#156 = DIRECTION ( 'NONE',  ( 1.000000000000000000, 0.0000000000000000000, 0.0000000000000000000 ) ) ;
#157 = DIRECTION ( 'NONE',  ( 0.0000000000000000000, 0.0000000000000000000, 1.000000000000000000 ) ) ;
#158 = CARTESIAN_POINT ( 'NONE',  ( -10.24999999999999800, 3.772314685535364600, 1.778799475761530200E-015 ) ) ;
#159 = DATE_AND_TIME ( #169, #36 ) ;
#160 = DIRECTION ( 'NONE',  ( 0.0000000000000000000, 0.0000000000000000000, -1.000000000000000000 ) ) ;
#161 = DIRECTION ( 'NONE',  ( -0.0000000000000000000, -1.000000000000000000, -0.0000000000000000000 ) ) ;
#162 = CARTESIAN_POINT ( 'NONE',  ( 0.0000000000000000000, 3.772314685535364600, 0.0000000000000000000 ) ) ;
#163 = CIRCLE ( 'NONE', #155, 48.00000000000000000 ) ;
#164 = DIRECTION ( 'NONE',  ( 0.0000000000000000000, 0.0000000000000000000, -1.000000000000000000 ) ) ;
#165 = DIRECTION ( 'NONE',  ( -0.0000000000000000000, -1.000000000000000000, -0.0000000000000000000 ) ) ;
#166 = CARTESIAN_POINT ( 'NONE',  ( 0.0000000000000000000, 6.500000000000000900, 0.0000000000000000000 ) ) ;
#167 = CIRCLE ( 'NONE', #148, 19.00000000000000400 ) ;
#168 = CIRCLE ( 'NONE', #171, 10.24999999999999800 ) ;
#169 = CALENDAR_DATE ( 2012, 5, 4 ) ;
#170 = DIRECTION ( 'NONE',  ( -0.0000000000000000000, -1.000000000000000000, -0.0000000000000000000 ) ) ;
#171 = AXIS2_PLACEMENT_3D ( 'NONE', #162, #161, #160 ) ;
#172 = DIRECTION ( 'NONE',  ( -0.0000000000000000000, -1.000000000000000000, -0.0000000000000000000 ) ) ;
#173 = CARTESIAN_POINT ( 'NONE',  ( 0.0000000000000000000, -4.592425496802579900E-016, 0.0000000000000000000 ) ) ;
#174 = AXIS2_PLACEMENT_3D ( 'NONE', #173, #172, #244 ) ;
#175 = CARTESIAN_POINT ( 'NONE',  ( 0.0000000000000000000, 6.500000000000000900, -19.00000000000000400 ) ) ;
#176 = DIRECTION ( 'NONE',  ( -0.0000000000000000000, -1.000000000000000000, -0.0000000000000000000 ) ) ;
#177 = VECTOR ( 'NONE', #176, 1000.000000000000000 ) ;
#178 = CARTESIAN_POINT ( 'NONE',  ( 1.255262969126037000E-015, 0.0000000000000000000, 10.24999999999999800 ) ) ;
#179 = CARTESIAN_POINT ( 'NONE',  ( 1.255262969126037200E-015, -4.592425496802579900E-016, 10.25000000000000000 ) ) ;
#180 = DIRECTION ( 'NONE',  ( 0.0000000000000000000, 0.0000000000000000000, -1.000000000000000000 ) ) ;
#181 = DIRECTION ( 'NONE',  ( -0.0000000000000000000, -1.000000000000000000, -0.0000000000000000000 ) ) ;
#182 = CARTESIAN_POINT ( 'NONE',  ( 0.0000000000000000000, 6.500000000000000900, 0.0000000000000000000 ) ) ;
#183 = AXIS2_PLACEMENT_3D ( 'NONE', #182, #181, #180 ) ;
#184 = CARTESIAN_POINT ( 'NONE',  ( 18.80000000000000400, 6.500000000000000900, 0.0000000000000000000 ) ) ;
#185 = CIRCLE ( 'NONE', #174, 10.25000000000000000 ) ;
#186 = CARTESIAN_POINT ( 'NONE',  ( 0.0000000000000000000, 50.66514462786236800, 0.0000000000000000000 ) ) ;
#187 = CARTESIAN_POINT ( 'NONE',  ( 2.326828918379971000E-015, 6.123233995736760400E-016, 19.00000000000000000 ) ) ;
#188 = AXIS2_PLACEMENT_3D ( 'NONE', #195, #68, #67 ) ;
#189 = DIRECTION ( 'NONE',  ( 0.0000000000000000000, 0.0000000000000000000, -1.000000000000000000 ) ) ;
#190 = DIRECTION ( 'NONE',  ( -0.0000000000000000000, -1.000000000000000000, -0.0000000000000000000 ) ) ;
#191 = CARTESIAN_POINT ( 'NONE',  ( 0.0000000000000000000, 3.772314685535364600, 0.0000000000000000000 ) ) ;
#192 = CIRCLE ( 'NONE', #199, 10.24999999999999800 ) ;
#193 = FACE_OUTER_BOUND ( 'NONE', #105, .T. ) ;
#194 = SPHERICAL_SURFACE ( 'NONE', #61, 48.00000000000000000 ) ;
#195 = CARTESIAN_POINT ( 'NONE',  ( 0.0000000000000000000, 0.0000000000000000000, 0.0000000000000000000 ) ) ;
#196 = DIRECTION ( 'NONE',  ( 0.0000000000000000000, 0.0000000000000000000, -1.000000000000000000 ) ) ;
#197 = DIRECTION ( 'NONE',  ( -0.0000000000000000000, -1.000000000000000000, -0.0000000000000000000 ) ) ;
#198 = CARTESIAN_POINT ( 'NONE',  ( 2.326828918379971000E-015, 0.0000000000000000000, 19.00000000000000000 ) ) ;
#199 = AXIS2_PLACEMENT_3D ( 'NONE', #191, #190, #189 ) ;
#200 = CYLINDRICAL_SURFACE ( 'NONE', #213, 10.24999999999999800 ) ;
#201 = DIRECTION ( 'NONE',  ( 0.0000000000000000000, 0.0000000000000000000, -1.000000000000000000 ) ) ;
#202 = DIRECTION ( 'NONE',  ( -0.0000000000000000000, -1.000000000000000000, -0.0000000000000000000 ) ) ;
#203 = CARTESIAN_POINT ( 'NONE',  ( 0.0000000000000000000, 6.500000000000000900, 0.0000000000000000000 ) ) ;
#204 = ORIENTED_EDGE ( 'NONE', *, *, #143, .F. ) ;
#205 = EDGE_CURVE ( 'NONE', #208, #23, #107, .T. ) ;
#206 = EDGE_CURVE ( 'NONE', #15, #100, #167, .T. ) ;
#207 = EDGE_CURVE ( 'NONE', #145, #208, #168, .T. ) ;
#208 = VERTEX_POINT ( 'NONE', #154 ) ;
#209 = EDGE_CURVE ( 'NONE', #75, #86, #163, .T. ) ;
#210 = ORIENTED_EDGE ( 'NONE', *, *, #209, .F. ) ;
#211 = EDGE_LOOP ( 'NONE', ( #146, #17, #26, #101, #103 ) ) ;
#212 = CIRCLE ( 'NONE', #60, 19.00000000000000000 ) ;
#213 = AXIS2_PLACEMENT_3D ( 'NONE', #121, #216, #119 ) ;
#214 = DIRECTION ( 'NONE',  ( 1.000000000000000000, 0.0000000000000000000, 0.0000000000000000000 ) ) ;
#215 = DIRECTION ( 'NONE',  ( 0.0000000000000000000, 0.0000000000000000000, 1.000000000000000000 ) ) ;
#216 = DIRECTION ( 'NONE',  ( -0.0000000000000000000, -1.000000000000000000, -0.0000000000000000000 ) ) ;
#217 = DIRECTION ( 'NONE',  ( 0.0000000000000000000, 0.0000000000000000000, -1.000000000000000000 ) ) ;
#218 = DIRECTION ( 'NONE',  ( -0.0000000000000000000, -1.000000000000000000, -0.0000000000000000000 ) ) ;
#219 = CARTESIAN_POINT ( 'NONE',  ( 0.0000000000000000000, -4.592425496802579900E-016, 0.0000000000000000000 ) ) ;
#220 = CIRCLE ( 'NONE', #183, 19.00000000000000400 ) ;
#221 = FACE_BOUND ( 'NONE', #20, .T. ) ;
#222 = DIRECTION ( 'NONE',  ( 0.0000000000000000000, 0.0000000000000000000, -1.000000000000000000 ) ) ;
#223 = DIRECTION ( 'NONE',  ( -0.0000000000000000000, -1.000000000000000000, -0.0000000000000000000 ) ) ;
#224 = CARTESIAN_POINT ( 'NONE',  ( 0.0000000000000000000, 6.123233995736760400E-016, 0.0000000000000000000 ) ) ;
#225 = CIRCLE ( 'NONE', #79, 19.00000000000000000 ) ;
#226 = AXIS2_PLACEMENT_3D ( 'NONE', #229, #197, #196 ) ;
#227 = DIRECTION ( 'NONE',  ( 0.0000000000000000000, 0.0000000000000000000, -1.000000000000000000 ) ) ;
#228 = DIRECTION ( 'NONE',  ( -0.0000000000000000000, -1.000000000000000000, -0.0000000000000000000 ) ) ;
#229 = CARTESIAN_POINT ( 'NONE',  ( 0.0000000000000000000, 0.0000000000000000000, 0.0000000000000000000 ) ) ;
#230 = CYLINDRICAL_SURFACE ( 'NONE', #188, 19.00000000000000000 ) ;
#231 = LINE ( 'NONE', #198, #58 ) ;
#232 = CIRCLE ( 'NONE', #78, 18.80000000000000400 ) ;
#233 = FACE_OUTER_BOUND ( 'NONE', #30, .T. ) ;
#234 = AXIS2_PLACEMENT_3D ( 'NONE', #239, #228, #227 ) ;
#235 = CYLINDRICAL_SURFACE ( 'NONE', #226, 10.24999999999999800 ) ;
#236 = LINE ( 'NONE', #178, #177 ) ;
#237 = DIRECTION ( 'NONE',  ( 0.0000000000000000000, 0.0000000000000000000, -1.000000000000000000 ) ) ;
#238 = DIRECTION ( 'NONE',  ( 0.0000000000000000000, -1.000000000000000000, -0.0000000000000000000 ) ) ;
#239 = CARTESIAN_POINT ( 'NONE',  ( 0.0000000000000000000, 0.0000000000000000000, 0.0000000000000000000 ) ) ;
#240 = CARTESIAN_POINT ( 'NONE',  ( 0.0000000000000000000, -4.592425496802579900E-016, -10.25000000000000000 ) ) ;
#241 = FACE_OUTER_BOUND ( 'NONE', #51, .T. ) ;
#242 = CYLINDRICAL_SURFACE ( 'NONE', #234, 19.00000000000000000 ) ;
#243 = PLANE ( 'NONE',  #77 ) ;
#244 = DIRECTION ( 'NONE',  ( 0.0000000000000000000, 0.0000000000000000000, -1.000000000000000000 ) ) ;
#245 = FACE_OUTER_BOUND ( 'NONE', #46, .T. ) ;
#246 = DIRECTION ( 'NONE',  ( 0.0000000000000000000, 0.0000000000000000000, -1.000000000000000000 ) ) ;
#247 = DIRECTION ( 'NONE',  ( 0.0000000000000000000, -1.000000000000000000, -0.0000000000000000000 ) ) ;
#248 = CARTESIAN_POINT ( 'NONE',  ( 19.00000000000000000, 7.654042494670902400E-017, 0.0000000000000000000 ) ) ;
#249 = AXIS2_PLACEMENT_3D ( 'NONE', #248, #247, #246 ) ;
#250 = PLANE ( 'NONE',  #249 ) ;
#251 = CC_DESIGN_APPROVAL ( #128, ( #289 ) ) ;
#252 = PRODUCT_RELATED_PRODUCT_CATEGORY ( 'detail', '', ( #264 ) ) ;
#253 = CALENDAR_DATE ( 2012, 5, 4 ) ;
#254 = CC_DESIGN_SECURITY_CLASSIFICATION ( #289, ( #308 ) ) ;
#255 = DATE_AND_TIME ( #253, #259 ) ;
#256 = APPROVAL_DATE_TIME ( #255, #128 ) ;
#257 = PRODUCT_DEFINITION_SHAPE ( 'NONE', 'NONE',  #279 ) ;
#258 = APPROVAL_PERSON_ORGANIZATION ( #130, #128, #262 ) ;
#259 = LOCAL_TIME ( 6, 3, 30.00000000000000000, #260 ) ;
#260 = COORDINATED_UNIVERSAL_TIME_OFFSET ( 5, 0, .BEHIND. ) ;
#261 = SHAPE_DEFINITION_REPRESENTATION ( #257, #131 ) ;
#262 = APPROVAL_ROLE ( '' ) ;
#263 = PERSON ( 'UNSPECIFIED', 'UNSPECIFIED', 'UNSPECIFIED', ('UNSPECIFIED'), ('UNSPECIFIED'), ('UNSPECIFIED') ) ;
#264 = PRODUCT ( 'WDS-401-2065F', 'WDS-401-2065F', '', ( #265 ) ) ;
#265 = MECHANICAL_CONTEXT ( 'NONE', #267, 'mechanical' ) ;
#266 = APPLICATION_PROTOCOL_DEFINITION ( 'international standard', 'config_control_design', 1994, #267 ) ;
#267 = APPLICATION_CONTEXT ( 'configuration controlled 3d designs of mechanical parts and assemblies' ) ;
#268 = CC_DESIGN_APPROVAL ( #276, ( #279 ) ) ;
#269 = APPROVAL_DATE_TIME ( #270, #276 ) ;
#270 = DATE_AND_TIME ( #271, #272 ) ;
#271 = CALENDAR_DATE ( 2012, 5, 4 ) ;
#272 = LOCAL_TIME ( 6, 3, 30.00000000000000000, #273 ) ;
#273 = COORDINATED_UNIVERSAL_TIME_OFFSET ( 5, 0, .BEHIND. ) ;
#274 = APPROVAL_PERSON_ORGANIZATION ( #278, #276, #275 ) ;
#275 = APPROVAL_ROLE ( '' ) ;
#276 = APPROVAL ( #277, 'UNSPECIFIED' ) ;
#277 = APPROVAL_STATUS ( 'not_yet_approved' ) ;
#278 = PERSON_AND_ORGANIZATION ( #263, #321 ) ;
#279 = PRODUCT_DEFINITION ( 'UNKNOWN', '', #308, #280 ) ;
#280 = DESIGN_CONTEXT ( 'detailed design', #282, 'design' ) ;
#281 = APPLICATION_PROTOCOL_DEFINITION ( 'international standard', 'config_control_design', 1994, #282 ) ;
#282 = APPLICATION_CONTEXT ( 'configuration controlled 3d designs of mechanical parts and assemblies' ) ;
#283 = CC_DESIGN_PERSON_AND_ORGANIZATION_ASSIGNMENT ( #320, #319, ( #264 ) ) ;
#284 = DIRECTION ( 'NONE',  ( 0.0000000000000000000, 0.0000000000000000000, 1.000000000000000000 ) ) ;
#285 = AXIS2_PLACEMENT_3D ( 'NONE', #286, #284, #318 ) ;
#286 = CARTESIAN_POINT ( 'NONE',  ( 0.0000000000000000000, 0.0000000000000000000, 0.0000000000000000000 ) ) ;
#287 = PERSON_AND_ORGANIZATION_ROLE ( 'classification_officer' ) ;
#288 = PERSON_AND_ORGANIZATION ( #263, #321 ) ;
#289 = SECURITY_CLASSIFICATION ( '', '', #290 ) ;
#290 = SECURITY_CLASSIFICATION_LEVEL ( 'unclassified' ) ;
#291 = CC_DESIGN_PERSON_AND_ORGANIZATION_ASSIGNMENT ( #293, #292, ( #308 ) ) ;
#292 = PERSON_AND_ORGANIZATION_ROLE ( 'design_supplier' ) ;
#293 = PERSON_AND_ORGANIZATION ( #263, #321 ) ;
#294 = CC_DESIGN_PERSON_AND_ORGANIZATION_ASSIGNMENT ( #296, #295, ( #308 ) ) ;
#295 = PERSON_AND_ORGANIZATION_ROLE ( 'creator' ) ;
#296 = PERSON_AND_ORGANIZATION ( #263, #321 ) ;
#297 = CC_DESIGN_APPROVAL ( #305, ( #308 ) ) ;
#298 = APPROVAL_DATE_TIME ( #299, #305 ) ;
#299 = DATE_AND_TIME ( #300, #301 ) ;
#300 = CALENDAR_DATE ( 2012, 5, 4 ) ;
#301 = LOCAL_TIME ( 6, 3, 30.00000000000000000, #302 ) ;
#302 = COORDINATED_UNIVERSAL_TIME_OFFSET ( 5, 0, .BEHIND. ) ;
#303 = APPROVAL_PERSON_ORGANIZATION ( #307, #305, #304 ) ;
#304 = APPROVAL_ROLE ( '' ) ;
#305 = APPROVAL ( #306, 'UNSPECIFIED' ) ;
#306 = APPROVAL_STATUS ( 'not_yet_approved' ) ;
#307 = PERSON_AND_ORGANIZATION ( #263, #321 ) ;
#308 = PRODUCT_DEFINITION_FORMATION_WITH_SPECIFIED_SOURCE ( 'ANY', '', #264, .NOT_KNOWN. ) ;
#309 = CC_DESIGN_DATE_AND_TIME_ASSIGNMENT ( #311, #310, ( #279 ) ) ;
#310 = DATE_TIME_ROLE ( 'creation_date' ) ;
#311 = DATE_AND_TIME ( #312, #313 ) ;
#312 = CALENDAR_DATE ( 2012, 5, 4 ) ;
#313 = LOCAL_TIME ( 6, 3, 30.00000000000000000, #314 ) ;
#314 = COORDINATED_UNIVERSAL_TIME_OFFSET ( 5, 0, .BEHIND. ) ;
#315 = CC_DESIGN_PERSON_AND_ORGANIZATION_ASSIGNMENT ( #317, #316, ( #279 ) ) ;
#316 = PERSON_AND_ORGANIZATION_ROLE ( 'creator' ) ;
#317 = PERSON_AND_ORGANIZATION ( #263, #321 ) ;
#318 = DIRECTION ( 'NONE',  ( 1.000000000000000000, 0.0000000000000000000, 0.0000000000000000000 ) ) ;
#319 = PERSON_AND_ORGANIZATION_ROLE ( 'design_owner' ) ;
#320 = PERSON_AND_ORGANIZATION ( #263, #321 ) ;
#321 = ORGANIZATION ( 'UNSPECIFIED', 'UNSPECIFIED', '' ) ;
ENDSEC;
END-ISO-10303-21;
