ISO-10303-21;
HEADER;
FILE_DESCRIPTION (( 'STEP AP203' ),
    '1' );
FILE_NAME ('WDS-401-206F.step',
    '2012-03-30T18:07:00',
    ( 'sysAdmin' ),
    ( 'SolidWorks' ),
    'SwSTEP 2.0',
    'SolidWorks 2012',
    '' );
FILE_SCHEMA (( 'CONFIG_CONTROL_DESIGN' ));
ENDSEC;

DATA;
#1 = ADVANCED_FACE ( 'NONE', ( #174 ), #172, .F. ) ;
#2 = ORIENTED_EDGE ( 'NONE', *, *, #36, .T. ) ;
#3 = ORIENTED_EDGE ( 'NONE', *, *, #23, .F. ) ;
#4 = ORIENTED_EDGE ( 'NONE', *, *, #110, .F. ) ;
#5 = ORIENTED_EDGE ( 'NONE', *, *, #27, .F. ) ;
#6 = ORIENTED_EDGE ( 'NONE', *, *, #16, .F. ) ;
#7 = ORIENTED_EDGE ( 'NONE', *, *, #70, .T. ) ;
#8 = ORIENTED_EDGE ( 'NONE', *, *, #90, .T. ) ;
#9 = ORIENTED_EDGE ( 'NONE', *, *, #49, .T. ) ;
#10 = ORIENTED_EDGE ( 'NONE', *, *, #49, .F. ) ;
#11 = EDGE_CURVE ( 'NONE', #96, #94, #104, .T. ) ;
#12 = ORIENTED_EDGE ( 'NONE', *, *, #74, .T. ) ;
#13 = ORIENTED_EDGE ( 'NONE', *, *, #70, .F. ) ;
#14 = EDGE_CURVE ( 'NONE', #21, #37, #170, .T. ) ;
#15 = CARTESIAN_POINT ( 'NONE',  ( -17.30000000000000400, 5.999999999999998200, 2.118638962524921100E-015 ) ) ;
#16 = EDGE_CURVE ( 'NONE', #44, #48, #161, .T. ) ;
#17 = VERTEX_POINT ( 'NONE', #163 ) ;
#18 = CLOSED_SHELL ( 'NONE', ( #42, #54, #175, #43, #111, #1, #34, #28 ) ) ;
#19 = ORIENTED_EDGE ( 'NONE', *, *, #27, .T. ) ;
#20 = ORIENTED_EDGE ( 'NONE', *, *, #23, .T. ) ;
#21 = VERTEX_POINT ( 'NONE', #106 ) ;
#22 = FACE_OUTER_BOUND ( 'NONE', #107, .T. ) ;
#23 = EDGE_CURVE ( 'NONE', #50, #134, #165, .T. ) ;
#24 = EDGE_LOOP ( 'NONE', ( #31, #3, #35, #19, #33 ) ) ;
#25 = ORIENTED_EDGE ( 'NONE', *, *, #93, .F. ) ;
#26 = EDGE_LOOP ( 'NONE', ( #25, #4 ) ) ;
#27 = EDGE_CURVE ( 'NONE', #48, #21, #164, .T. ) ;
#28 = ADVANCED_FACE ( 'NONE', ( #143, #141 ), #136, .F. ) ;
#29 = EDGE_LOOP ( 'NONE', ( #20, #8 ) ) ;
#30 = ORIENTED_EDGE ( 'NONE', *, *, #57, .F. ) ;
#31 = ORIENTED_EDGE ( 'NONE', *, *, #89, .F. ) ;
#32 = EDGE_LOOP ( 'NONE', ( #30, #5, #6, #7, #2 ) ) ;
#33 = ORIENTED_EDGE ( 'NONE', *, *, #14, .T. ) ;
#34 = ADVANCED_FACE ( 'NONE', ( #153 ), #152, .F. ) ;
#35 = ORIENTED_EDGE ( 'NONE', *, *, #38, .T. ) ;
#36 = EDGE_CURVE ( 'NONE', #94, #96, #116, .T. ) ;
#37 = VERTEX_POINT ( 'NONE', #114 ) ;
#38 = EDGE_CURVE ( 'NONE', #50, #48, #154, .T. ) ;
#39 = ORIENTED_EDGE ( 'NONE', *, *, #78, .F. ) ;
#40 = ORIENTED_EDGE ( 'NONE', *, *, #77, .T. ) ;
#41 = ORIENTED_EDGE ( 'NONE', *, *, #16, .T. ) ;
#42 = ADVANCED_FACE ( 'NONE', ( #119 ), #126, .F. ) ;
#43 = ADVANCED_FACE ( 'NONE', ( #115, #147 ), #127, .T. ) ;
#44 = VERTEX_POINT ( 'NONE', #66 ) ;
#45 = MANIFOLD_SOLID_BREP ( 'Cut-Revolve1', #18 ) ;
#46 = ORIENTED_EDGE ( 'NONE', *, *, #77, .F. ) ;
#47 = ORIENTED_EDGE ( 'NONE', *, *, #93, .T. ) ;
#48 = VERTEX_POINT ( 'NONE', #125 ) ;
#49 = EDGE_CURVE ( 'NONE', #37, #44, #65, .T. ) ;
#50 = VERTEX_POINT ( 'NONE', #69 ) ;
#51 = FACE_OUTER_BOUND ( 'NONE', #97, .T. ) ;
#52 = EDGE_LOOP ( 'NONE', ( #56, #55, #92, #13, #10 ) ) ;
#53 = ORIENTED_EDGE ( 'NONE', *, *, #89, .T. ) ;
#54 = ADVANCED_FACE ( 'NONE', ( #64 ), #63, .F. ) ;
#55 = ORIENTED_EDGE ( 'NONE', *, *, #57, .T. ) ;
#56 = ORIENTED_EDGE ( 'NONE', *, *, #14, .F. ) ;
#57 = EDGE_CURVE ( 'NONE', #21, #96, #85, .T. ) ;
#58 = EDGE_LOOP ( 'NONE', ( #112, #53, #9, #41, #91 ) ) ;
#59 = ORIENTED_EDGE ( 'NONE', *, *, #78, .T. ) ;
#60 = EDGE_LOOP ( 'NONE', ( #108, #109 ) ) ;
#61 = ORIENTED_EDGE ( 'NONE', *, *, #110, .T. ) ;
#62 = AXIS2_PLACEMENT_3D ( 'NONE', #88, #87, #86 ) ;
#63 = CYLINDRICAL_SURFACE ( 'NONE', #120, 9.250000000000001800 ) ;
#64 = FACE_OUTER_BOUND ( 'NONE', #52, .T. ) ;
#65 = CIRCLE ( 'NONE', #83, 9.250000000000003600 ) ;
#66 = CARTESIAN_POINT ( 'NONE',  ( 0.0000000000000000000, 3.149582902546189400, -9.250000000000003600 ) ) ;
#67 = DIRECTION ( 'NONE',  ( 1.000000000000000000, 0.0000000000000000000, 0.0000000000000000000 ) ) ;
#68 = DIRECTION ( 'NONE',  ( 0.0000000000000000000, 0.0000000000000000000, 1.000000000000000000 ) ) ;
#69 = CARTESIAN_POINT ( 'NONE',  ( 17.30000000000000400, 5.999999999999998200, 0.0000000000000000000 ) ) ;
#70 = EDGE_CURVE ( 'NONE', #44, #94, #204, .T. ) ;
#71 = VERTEX_POINT ( 'NONE', #211 ) ;
#72 = VERTEX_POINT ( 'NONE', #205 ) ;
#73 = ORIENTED_EDGE ( 'NONE', *, *, #177, .T. ) ;
#74 = EDGE_CURVE ( 'NONE', #72, #17, #206, .T. ) ;
#75 = EDGE_LOOP ( 'NONE', ( #12, #59 ) ) ;
#76 = ORIENTED_EDGE ( 'NONE', *, *, #74, .F. ) ;
#77 = EDGE_CURVE ( 'NONE', #71, #72, #193, .T. ) ;
#78 = EDGE_CURVE ( 'NONE', #17, #72, #199, .T. ) ;
#79 = CARTESIAN_POINT ( 'NONE',  ( 0.0000000000000000000, 0.0000000000000000000, 0.0000000000000000000 ) ) ;
#80 = DIRECTION ( 'NONE',  ( 0.0000000000000000000, 0.0000000000000000000, -1.000000000000000000 ) ) ;
#81 = DIRECTION ( 'NONE',  ( -0.0000000000000000000, -1.000000000000000000, -0.0000000000000000000 ) ) ;
#82 = CARTESIAN_POINT ( 'NONE',  ( 0.0000000000000000000, 3.149582902546189400, 0.0000000000000000000 ) ) ;
#83 = AXIS2_PLACEMENT_3D ( 'NONE', #82, #81, #80 ) ;
#84 = CARTESIAN_POINT ( 'NONE',  ( 1.132798289211301900E-015, 0.0000000000000000000, 9.250000000000001800 ) ) ;
#85 = LINE ( 'NONE', #84, #133 ) ;
#86 = DIRECTION ( 'NONE',  ( 0.0000000000000000000, 0.0000000000000000000, -1.000000000000000000 ) ) ;
#87 = DIRECTION ( 'NONE',  ( 0.0000000000000000000, -1.000000000000000000, -0.0000000000000000000 ) ) ;
#88 = CARTESIAN_POINT ( 'NONE',  ( 17.50000000000000000, -7.654042494670998500E-017, 0.0000000000000000000 ) ) ;
#89 = EDGE_CURVE ( 'NONE', #134, #37, #198, .T. ) ;
#90 = EDGE_CURVE ( 'NONE', #134, #50, #217, .T. ) ;
#91 = ORIENTED_EDGE ( 'NONE', *, *, #38, .F. ) ;
#92 = ORIENTED_EDGE ( 'NONE', *, *, #11, .T. ) ;
#93 = EDGE_CURVE ( 'NONE', #71, #176, #219, .T. ) ;
#94 = VERTEX_POINT ( 'NONE', #224 ) ;
#95 = ORIENTED_EDGE ( 'NONE', *, *, #177, .F. ) ;
#96 = VERTEX_POINT ( 'NONE', #188 ) ;
#97 = EDGE_LOOP ( 'NONE', ( #47, #73, #76, #46 ) ) ;
#98 = AXIS2_PLACEMENT_3D ( 'NONE', #160, #146, #145 ) ;
#99 = DIRECTION ( 'NONE',  ( 0.0000000000000000000, 0.0000000000000000000, -1.000000000000000000 ) ) ;
#100 = DIRECTION ( 'NONE',  ( -0.0000000000000000000, -1.000000000000000000, -0.0000000000000000000 ) ) ;
#101 = DIRECTION ( 'NONE',  ( 0.0000000000000000000, 0.0000000000000000000, -1.000000000000000000 ) ) ;
#102 = DIRECTION ( 'NONE',  ( -0.0000000000000000000, -1.000000000000000000, -0.0000000000000000000 ) ) ;
#103 = CARTESIAN_POINT ( 'NONE',  ( 0.0000000000000000000, 0.0000000000000000000, 0.0000000000000000000 ) ) ;
#104 = CIRCLE ( 'NONE', #173, 9.250000000000000000 ) ;
#105 = CARTESIAN_POINT ( 'NONE',  ( 0.0000000000000000000, -5.817072295949934300E-016, 0.0000000000000000000 ) ) ;
#106 = CARTESIAN_POINT ( 'NONE',  ( 1.132798289211302100E-015, 3.149582902546189400, 9.250000000000003600 ) ) ;
#107 = EDGE_LOOP ( 'NONE', ( #95, #61, #40, #39 ) ) ;
#108 = ORIENTED_EDGE ( 'NONE', *, *, #36, .F. ) ;
#109 = ORIENTED_EDGE ( 'NONE', *, *, #11, .F. ) ;
#110 = EDGE_CURVE ( 'NONE', #176, #71, #179, .T. ) ;
#111 = ADVANCED_FACE ( 'NONE', ( #22 ), #207, .T. ) ;
#112 = ORIENTED_EDGE ( 'NONE', *, *, #90, .F. ) ;
#113 = CARTESIAN_POINT ( 'NONE',  ( 0.0000000000000000000, -5.817072295949934300E-016, 0.0000000000000000000 ) ) ;
#114 = CARTESIAN_POINT ( 'NONE',  ( -9.250000000000003600, 3.149582902546189400, 1.625718625868111400E-015 ) ) ;
#115 = FACE_OUTER_BOUND ( 'NONE', #75, .T. ) ;
#116 = CIRCLE ( 'NONE', #135, 9.250000000000000000 ) ;
#117 = DIRECTION ( 'NONE',  ( 1.000000000000000000, 0.0000000000000000000, 0.0000000000000000000 ) ) ;
#118 = AXIS2_PLACEMENT_3D ( 'NONE', #121, #68, #67 ) ;
#119 = FACE_OUTER_BOUND ( 'NONE', #58, .T. ) ;
#120 = AXIS2_PLACEMENT_3D ( 'NONE', #79, #131, #130 ) ;
#121 = CARTESIAN_POINT ( 'NONE',  ( 0.0000000000000000000, 42.06535733914194700, 0.0000000000000000000 ) ) ;
#122 = DIRECTION ( 'NONE',  ( -1.000000000000000000, 0.0000000000000000000, 0.0000000000000000000 ) ) ;
#123 = DIRECTION ( 'NONE',  ( 0.0000000000000000000, 0.0000000000000000000, -1.000000000000000000 ) ) ;
#124 = CARTESIAN_POINT ( 'NONE',  ( 0.0000000000000000000, 42.06535733914194700, 0.0000000000000000000 ) ) ;
#125 = CARTESIAN_POINT ( 'NONE',  ( 9.250000000000003600, 3.149582902546189400, 0.0000000000000000000 ) ) ;
#126 = SPHERICAL_SURFACE ( 'NONE', #118, 40.00000000000000000 ) ;
#127 = PLANE ( 'NONE',  #62 ) ;
#128 = DIRECTION ( 'NONE',  ( 0.0000000000000000000, 0.0000000000000000000, -1.000000000000000000 ) ) ;
#129 = DIRECTION ( 'NONE',  ( -0.0000000000000000000, -1.000000000000000000, -0.0000000000000000000 ) ) ;
#130 = DIRECTION ( 'NONE',  ( 0.0000000000000000000, 0.0000000000000000000, -1.000000000000000000 ) ) ;
#131 = DIRECTION ( 'NONE',  ( -0.0000000000000000000, -1.000000000000000000, -0.0000000000000000000 ) ) ;
#132 = DIRECTION ( 'NONE',  ( -0.0000000000000000000, -1.000000000000000000, -0.0000000000000000000 ) ) ;
#133 = VECTOR ( 'NONE', #132, 1000.000000000000000 ) ;
#134 = VERTEX_POINT ( 'NONE', #15 ) ;
#135 = AXIS2_PLACEMENT_3D ( 'NONE', #113, #129, #128 ) ;
#136 = PLANE ( 'NONE',  #142 ) ;
#137 = DIRECTION ( 'NONE',  ( 0.0000000000000000000, 0.0000000000000000000, -1.000000000000000000 ) ) ;
#138 = DIRECTION ( 'NONE',  ( -0.0000000000000000000, -1.000000000000000000, -0.0000000000000000000 ) ) ;
#139 = CARTESIAN_POINT ( 'NONE',  ( 0.0000000000000000000, 5.999999999999998200, 0.0000000000000000000 ) ) ;
#140 = AXIS2_PLACEMENT_3D ( 'NONE', #139, #138, #137 ) ;
#141 = FACE_BOUND ( 'NONE', #29, .T. ) ;
#142 = AXIS2_PLACEMENT_3D ( 'NONE', #159, #149, #148 ) ;
#143 = FACE_OUTER_BOUND ( 'NONE', #26, .T. ) ;
#144 = AXIS2_PLACEMENT_3D ( 'NONE', #151, #150, #117 ) ;
#145 = DIRECTION ( 'NONE',  ( 0.0000000000000000000, 0.0000000000000000000, -1.000000000000000000 ) ) ;
#146 = DIRECTION ( 'NONE',  ( -0.0000000000000000000, -1.000000000000000000, -0.0000000000000000000 ) ) ;
#147 = FACE_BOUND ( 'NONE', #60, .T. ) ;
#148 = DIRECTION ( 'NONE',  ( 0.0000000000000000000, 0.0000000000000000000, -1.000000000000000000 ) ) ;
#149 = DIRECTION ( 'NONE',  ( 0.0000000000000000000, -1.000000000000000000, -0.0000000000000000000 ) ) ;
#150 = DIRECTION ( 'NONE',  ( 0.0000000000000000000, 0.0000000000000000000, 1.000000000000000000 ) ) ;
#151 = CARTESIAN_POINT ( 'NONE',  ( 0.0000000000000000000, 42.06535733914194700, 0.0000000000000000000 ) ) ;
#152 = SPHERICAL_SURFACE ( 'NONE', #144, 40.00000000000000000 ) ;
#153 = FACE_OUTER_BOUND ( 'NONE', #24, .T. ) ;
#154 = CIRCLE ( 'NONE', #162, 40.00000000000000000 ) ;
#155 = DIRECTION ( 'NONE',  ( 0.0000000000000000000, 0.0000000000000000000, -1.000000000000000000 ) ) ;
#156 = DIRECTION ( 'NONE',  ( -0.0000000000000000000, -1.000000000000000000, -0.0000000000000000000 ) ) ;
#157 = CARTESIAN_POINT ( 'NONE',  ( 0.0000000000000000000, 3.149582902546189400, 0.0000000000000000000 ) ) ;
#158 = AXIS2_PLACEMENT_3D ( 'NONE', #157, #156, #155 ) ;
#159 = CARTESIAN_POINT ( 'NONE',  ( 17.30000000000000400, 5.999999999999998200, 0.0000000000000000000 ) ) ;
#160 = CARTESIAN_POINT ( 'NONE',  ( 0.0000000000000000000, 3.149582902546189400, 0.0000000000000000000 ) ) ;
#161 = CIRCLE ( 'NONE', #98, 9.250000000000003600 ) ;
#162 = AXIS2_PLACEMENT_3D ( 'NONE', #124, #123, #122 ) ;
#163 = CARTESIAN_POINT ( 'NONE',  ( 2.143131898507868200E-015, 4.286263797015734600E-016, 17.50000000000000000 ) ) ;
#164 = CIRCLE ( 'NONE', #158, 9.250000000000003600 ) ;
#165 = CIRCLE ( 'NONE', #140, 17.30000000000000400 ) ;
#166 = DIRECTION ( 'NONE',  ( 0.0000000000000000000, 0.0000000000000000000, -1.000000000000000000 ) ) ;
#167 = DIRECTION ( 'NONE',  ( -0.0000000000000000000, -1.000000000000000000, -0.0000000000000000000 ) ) ;
#168 = CARTESIAN_POINT ( 'NONE',  ( 0.0000000000000000000, 3.149582902546189400, 0.0000000000000000000 ) ) ;
#169 = AXIS2_PLACEMENT_3D ( 'NONE', #168, #167, #166 ) ;
#170 = CIRCLE ( 'NONE', #169, 9.250000000000003600 ) ;
#171 = AXIS2_PLACEMENT_3D ( 'NONE', #103, #102, #101 ) ;
#172 = CYLINDRICAL_SURFACE ( 'NONE', #171, 9.250000000000001800 ) ;
#173 = AXIS2_PLACEMENT_3D ( 'NONE', #105, #100, #99 ) ;
#174 = FACE_OUTER_BOUND ( 'NONE', #32, .T. ) ;
#175 = ADVANCED_FACE ( 'NONE', ( #51 ), #242, .T. ) ;
#176 = VERTEX_POINT ( 'NONE', #282 ) ;
#177 = EDGE_CURVE ( 'NONE', #176, #17, #280, .T. ) ;
#178 = DIRECTION ( 'NONE',  ( 0.0000000000000000000, 0.0000000000000000000, -1.000000000000000000 ) ) ;
#179 = CIRCLE ( 'NONE', #181, 17.50000000000000000 ) ;
#180 = DIRECTION ( 'NONE',  ( -0.0000000000000000000, -1.000000000000000000, -0.0000000000000000000 ) ) ;
#181 = AXIS2_PLACEMENT_3D ( 'NONE', #182, #180, #178 ) ;
#182 = CARTESIAN_POINT ( 'NONE',  ( 0.0000000000000000000, 5.999999999999999100, 0.0000000000000000000 ) ) ;
#183 = DIRECTION ( 'NONE',  ( 0.0000000000000000000, 0.0000000000000000000, -1.000000000000000000 ) ) ;
#184 = DIRECTION ( 'NONE',  ( -0.0000000000000000000, -1.000000000000000000, -0.0000000000000000000 ) ) ;
#185 = CARTESIAN_POINT ( 'NONE',  ( 0.0000000000000000000, 4.286263797015734600E-016, 0.0000000000000000000 ) ) ;
#186 = AXIS2_PLACEMENT_3D ( 'NONE', #216, #215, #214 ) ;
#187 = DIRECTION ( 'NONE',  ( -0.0000000000000000000, -1.000000000000000000, -0.0000000000000000000 ) ) ;
#188 = CARTESIAN_POINT ( 'NONE',  ( 1.132798289211301700E-015, -5.817072295949934300E-016, 9.250000000000000000 ) ) ;
#189 = AXIS2_PLACEMENT_3D ( 'NONE', #223, #222, #221 ) ;
#190 = DIRECTION ( 'NONE',  ( -0.0000000000000000000, -1.000000000000000000, -0.0000000000000000000 ) ) ;
#191 = VECTOR ( 'NONE', #190, 1000.000000000000000 ) ;
#192 = CARTESIAN_POINT ( 'NONE',  ( 0.0000000000000000000, 0.0000000000000000000, -17.50000000000000000 ) ) ;
#193 = LINE ( 'NONE', #192, #191 ) ;
#194 = AXIS2_PLACEMENT_3D ( 'NONE', #185, #184, #183 ) ;
#195 = DIRECTION ( 'NONE',  ( 0.0000000000000000000, 0.0000000000000000000, -1.000000000000000000 ) ) ;
#196 = DIRECTION ( 'NONE',  ( -0.0000000000000000000, -1.000000000000000000, -0.0000000000000000000 ) ) ;
#197 = CARTESIAN_POINT ( 'NONE',  ( 0.0000000000000000000, 4.286263797015734600E-016, 0.0000000000000000000 ) ) ;
#198 = CIRCLE ( 'NONE', #189, 40.00000000000000000 ) ;
#199 = CIRCLE ( 'NONE', #194, 17.50000000000000000 ) ;
#200 = AXIS2_PLACEMENT_3D ( 'NONE', #197, #196, #195 ) ;
#201 = DIRECTION ( 'NONE',  ( -0.0000000000000000000, -1.000000000000000000, -0.0000000000000000000 ) ) ;
#202 = VECTOR ( 'NONE', #201, 1000.000000000000000 ) ;
#203 = CARTESIAN_POINT ( 'NONE',  ( 0.0000000000000000000, 0.0000000000000000000, -9.250000000000001800 ) ) ;
#204 = LINE ( 'NONE', #203, #202 ) ;
#205 = CARTESIAN_POINT ( 'NONE',  ( 0.0000000000000000000, 4.286263797015734600E-016, -17.50000000000000000 ) ) ;
#206 = CIRCLE ( 'NONE', #200, 17.50000000000000000 ) ;
#207 = CYLINDRICAL_SURFACE ( 'NONE', #212, 17.50000000000000000 ) ;
#208 = DIRECTION ( 'NONE',  ( 0.0000000000000000000, 0.0000000000000000000, -1.000000000000000000 ) ) ;
#209 = DIRECTION ( 'NONE',  ( -0.0000000000000000000, -1.000000000000000000, -0.0000000000000000000 ) ) ;
#210 = CARTESIAN_POINT ( 'NONE',  ( 0.0000000000000000000, 5.999999999999999100, 0.0000000000000000000 ) ) ;
#211 = CARTESIAN_POINT ( 'NONE',  ( 0.0000000000000000000, 5.999999999999999100, -17.50000000000000000 ) ) ;
#212 = AXIS2_PLACEMENT_3D ( 'NONE', #220, #187, #213 ) ;
#213 = DIRECTION ( 'NONE',  ( 0.0000000000000000000, 0.0000000000000000000, -1.000000000000000000 ) ) ;
#214 = DIRECTION ( 'NONE',  ( 0.0000000000000000000, 0.0000000000000000000, -1.000000000000000000 ) ) ;
#215 = DIRECTION ( 'NONE',  ( -0.0000000000000000000, -1.000000000000000000, -0.0000000000000000000 ) ) ;
#216 = CARTESIAN_POINT ( 'NONE',  ( 0.0000000000000000000, 5.999999999999998200, 0.0000000000000000000 ) ) ;
#217 = CIRCLE ( 'NONE', #186, 17.30000000000000400 ) ;
#218 = AXIS2_PLACEMENT_3D ( 'NONE', #210, #209, #208 ) ;
#219 = CIRCLE ( 'NONE', #218, 17.50000000000000000 ) ;
#220 = CARTESIAN_POINT ( 'NONE',  ( 0.0000000000000000000, 0.0000000000000000000, 0.0000000000000000000 ) ) ;
#221 = DIRECTION ( 'NONE',  ( 1.000000000000000000, 0.0000000000000000000, -1.224646799147353200E-016 ) ) ;
#222 = DIRECTION ( 'NONE',  ( 1.224646799147353200E-016, -0.0000000000000000000, 1.000000000000000000 ) ) ;
#223 = CARTESIAN_POINT ( 'NONE',  ( 0.0000000000000000000, 42.06535733914194700, 0.0000000000000000000 ) ) ;
#224 = CARTESIAN_POINT ( 'NONE',  ( 0.0000000000000000000, -5.817072295949934300E-016, -9.250000000000000000 ) ) ;
#225 = PERSON_AND_ORGANIZATION_ROLE ( 'classification_officer' ) ;
#226 = PERSON_AND_ORGANIZATION ( #271, #270 ) ;
#227 = SECURITY_CLASSIFICATION ( '', '', #228 ) ;
#228 = SECURITY_CLASSIFICATION_LEVEL ( 'unclassified' ) ;
#229 = CC_DESIGN_PERSON_AND_ORGANIZATION_ASSIGNMENT ( #231, #230, ( #288 ) ) ;
#230 = PERSON_AND_ORGANIZATION_ROLE ( 'design_supplier' ) ;
#231 = PERSON_AND_ORGANIZATION ( #271, #270 ) ;
#232 = CC_DESIGN_PERSON_AND_ORGANIZATION_ASSIGNMENT ( #234, #233, ( #288 ) ) ;
#233 = PERSON_AND_ORGANIZATION_ROLE ( 'creator' ) ;
#234 = PERSON_AND_ORGANIZATION ( #271, #270 ) ;
#235 = CC_DESIGN_APPROVAL ( #285, ( #288 ) ) ;
#236 = APPROVAL_DATE_TIME ( #237, #285 ) ;
#237 = DATE_AND_TIME ( #238, #239 ) ;
#238 = CALENDAR_DATE ( 2012, 30, 3 ) ;
#239 = LOCAL_TIME ( 14, 7, 0.0000000000000000000, #240 ) ;
#240 = COORDINATED_UNIVERSAL_TIME_OFFSET ( 5, 0, .BEHIND. ) ;
#241 = APPROVAL_PERSON_ORGANIZATION ( #287, #285, #284 ) ;
#242 = CYLINDRICAL_SURFACE ( 'NONE', #295, 17.50000000000000000 ) ;
#243 = AXIS2_PLACEMENT_3D ( 'NONE', #296, #298, #297 ) ;
#244 = PRODUCT_DEFINITION_SHAPE ( 'NONE', 'NONE',  #262 ) ;
#245 = PRODUCT_RELATED_PRODUCT_CATEGORY ( 'detail', '', ( #272 ) ) ;
#246 = CC_DESIGN_SECURITY_CLASSIFICATION ( #227, ( #288 ) ) ;
#247 = COORDINATED_UNIVERSAL_TIME_OFFSET ( 5, 0, .BEHIND. ) ;
#248 = CC_DESIGN_PERSON_AND_ORGANIZATION_ASSIGNMENT ( #250, #249, ( #262 ) ) ;
#249 = PERSON_AND_ORGANIZATION_ROLE ( 'creator' ) ;
#250 = PERSON_AND_ORGANIZATION ( #271, #270 ) ;
#251 = CC_DESIGN_APPROVAL ( #259, ( #262 ) ) ;
#252 = APPROVAL_DATE_TIME ( #253, #259 ) ;
#253 = DATE_AND_TIME ( #254, #255 ) ;
#254 = CALENDAR_DATE ( 2012, 30, 3 ) ;
#255 = LOCAL_TIME ( 14, 7, 0.0000000000000000000, #256 ) ;
#256 = COORDINATED_UNIVERSAL_TIME_OFFSET ( 5, 0, .BEHIND. ) ;
#257 = APPROVAL_PERSON_ORGANIZATION ( #261, #259, #258 ) ;
#258 = APPROVAL_ROLE ( '' ) ;
#259 = APPROVAL ( #260, 'UNSPECIFIED' ) ;
#260 = APPROVAL_STATUS ( 'not_yet_approved' ) ;
#261 = PERSON_AND_ORGANIZATION ( #271, #270 ) ;
#262 = PRODUCT_DEFINITION ( 'UNKNOWN', '', #288, #263 ) ;
#263 = DESIGN_CONTEXT ( 'detailed design', #265, 'design' ) ;
#264 = APPLICATION_PROTOCOL_DEFINITION ( 'international standard', 'config_control_design', 1994, #265 ) ;
#265 = APPLICATION_CONTEXT ( 'configuration controlled 3d designs of mechanical parts and assemblies' ) ;
#266 = CC_DESIGN_PERSON_AND_ORGANIZATION_ASSIGNMENT ( #268, #267, ( #272 ) ) ;
#267 = PERSON_AND_ORGANIZATION_ROLE ( 'design_owner' ) ;
#268 = PERSON_AND_ORGANIZATION ( #271, #270 ) ;
#269 = DIRECTION ( 'NONE',  ( 0.0000000000000000000, 0.0000000000000000000, -1.000000000000000000 ) ) ;
#270 = ORGANIZATION ( 'UNSPECIFIED', 'UNSPECIFIED', '' ) ;
#271 = PERSON ( 'UNSPECIFIED', 'UNSPECIFIED', 'UNSPECIFIED', ('UNSPECIFIED'), ('UNSPECIFIED'), ('UNSPECIFIED') ) ;
#272 = PRODUCT ( 'WDS-401-206F', 'WDS-401-206F', '', ( #273 ) ) ;
#273 = MECHANICAL_CONTEXT ( 'NONE', #299, 'mechanical' ) ;
#274 = APPLICATION_PROTOCOL_DEFINITION ( 'international standard', 'config_control_design', 1994, #299 ) ;
#275 = SHAPE_DEFINITION_REPRESENTATION ( #244, #300 ) ;
#276 = DIRECTION ( 'NONE',  ( -0.0000000000000000000, -1.000000000000000000, -0.0000000000000000000 ) ) ;
#277 = DIRECTION ( 'NONE',  ( -0.0000000000000000000, -1.000000000000000000, -0.0000000000000000000 ) ) ;
#278 = VECTOR ( 'NONE', #277, 1000.000000000000000 ) ;
#279 = CARTESIAN_POINT ( 'NONE',  ( 2.143131898507868200E-015, 0.0000000000000000000, 17.50000000000000000 ) ) ;
#280 = LINE ( 'NONE', #279, #278 ) ;
#281 =( LENGTH_UNIT ( ) NAMED_UNIT ( * ) SI_UNIT ( .MILLI., .METRE. ) );
#282 = CARTESIAN_POINT ( 'NONE',  ( 2.143131898507868200E-015, 5.999999999999999100, 17.50000000000000000 ) ) ;
#283 =( NAMED_UNIT ( * ) PLANE_ANGLE_UNIT ( ) SI_UNIT ( $, .RADIAN. ) );
#284 = APPROVAL_ROLE ( '' ) ;
#285 = APPROVAL ( #286, 'UNSPECIFIED' ) ;
#286 = APPROVAL_STATUS ( 'not_yet_approved' ) ;
#287 = PERSON_AND_ORGANIZATION ( #271, #270 ) ;
#288 = PRODUCT_DEFINITION_FORMATION_WITH_SPECIFIED_SOURCE ( 'ANY', '', #272, .NOT_KNOWN. ) ;
#289 = CC_DESIGN_DATE_AND_TIME_ASSIGNMENT ( #291, #290, ( #262 ) ) ;
#290 = DATE_TIME_ROLE ( 'creation_date' ) ;
#291 = DATE_AND_TIME ( #292, #293 ) ;
#292 = CALENDAR_DATE ( 2012, 30, 3 ) ;
#293 = LOCAL_TIME ( 14, 7, 0.0000000000000000000, #247 ) ;
#294 = CARTESIAN_POINT ( 'NONE',  ( 0.0000000000000000000, 0.0000000000000000000, 0.0000000000000000000 ) ) ;
#295 = AXIS2_PLACEMENT_3D ( 'NONE', #294, #276, #269 ) ;
#296 = CARTESIAN_POINT ( 'NONE',  ( 0.0000000000000000000, 0.0000000000000000000, 0.0000000000000000000 ) ) ;
#297 = DIRECTION ( 'NONE',  ( 1.000000000000000000, 0.0000000000000000000, 0.0000000000000000000 ) ) ;
#298 = DIRECTION ( 'NONE',  ( 0.0000000000000000000, 0.0000000000000000000, 1.000000000000000000 ) ) ;
#299 = APPLICATION_CONTEXT ( 'configuration controlled 3d designs of mechanical parts and assemblies' ) ;
#300 = ADVANCED_BREP_SHAPE_REPRESENTATION ( 'WDS-401-206F', ( #45, #243 ), #301 ) ;
#301 =( GEOMETRIC_REPRESENTATION_CONTEXT ( 3 ) GLOBAL_UNCERTAINTY_ASSIGNED_CONTEXT ( ( #302 ) ) GLOBAL_UNIT_ASSIGNED_CONTEXT ( ( #281, #283, #303 ) ) REPRESENTATION_CONTEXT ( 'NONE', 'WORKASPACE' ) );
#302 = UNCERTAINTY_MEASURE_WITH_UNIT (LENGTH_MEASURE( 1.000000000000000100E-005 ), #281, 'distance_accuracy_value', 'NONE');
#303 =( NAMED_UNIT ( * ) SI_UNIT ( $, .STERADIAN. ) SOLID_ANGLE_UNIT ( ) );
#304 = CC_DESIGN_APPROVAL ( #312, ( #227 ) ) ;
#305 = APPROVAL_DATE_TIME ( #306, #312 ) ;
#306 = DATE_AND_TIME ( #307, #308 ) ;
#307 = CALENDAR_DATE ( 2012, 30, 3 ) ;
#308 = LOCAL_TIME ( 14, 7, 0.0000000000000000000, #309 ) ;
#309 = COORDINATED_UNIVERSAL_TIME_OFFSET ( 5, 0, .BEHIND. ) ;
#310 = APPROVAL_PERSON_ORGANIZATION ( #314, #312, #311 ) ;
#311 = APPROVAL_ROLE ( '' ) ;
#312 = APPROVAL ( #313, 'UNSPECIFIED' ) ;
#313 = APPROVAL_STATUS ( 'not_yet_approved' ) ;
#314 = PERSON_AND_ORGANIZATION ( #271, #270 ) ;
#315 = CC_DESIGN_DATE_AND_TIME_ASSIGNMENT ( #317, #316, ( #227 ) ) ;
#316 = DATE_TIME_ROLE ( 'classification_date' ) ;
#317 = DATE_AND_TIME ( #318, #319 ) ;
#318 = CALENDAR_DATE ( 2012, 30, 3 ) ;
#319 = LOCAL_TIME ( 14, 7, 0.0000000000000000000, #320 ) ;
#320 = COORDINATED_UNIVERSAL_TIME_OFFSET ( 5, 0, .BEHIND. ) ;
#321 = CC_DESIGN_PERSON_AND_ORGANIZATION_ASSIGNMENT ( #226, #225, ( #227 ) ) ;
ENDSEC;
END-ISO-10303-21;
