ISO-10303-21;
HEADER;
FILE_DESCRIPTION (( 'STEP AP214' ),
    '1' );
FILE_NAME ('WDS-401-205F.step',
    '2012-04-05T10:03:00',
    ( 'sysAdmin' ),
    ( 'SolidWorks' ),
    'SwSTEP 2.0',
    'SolidWorks 2012',
    '' );
FILE_SCHEMA (( 'AUTOMOTIVE_DESIGN' ));
ENDSEC;

DATA;
#1 = ORIENTED_EDGE ( 'NONE', *, *, #182, .F. ) ;
#2 = EDGE_CURVE ( 'NONE', #161, #176, #140, .T. ) ;
#3 = ADVANCED_FACE ( 'NONE', ( #159 ), #29, .F. ) ;
#4 = EDGE_LOOP ( 'NONE', ( #174, #178, #181, #1 ) ) ;
#5 = EDGE_LOOP ( 'NONE', ( #6, #124, #128, #163, #155 ) ) ;
#6 = ORIENTED_EDGE ( 'NONE', *, *, #156, .F. ) ;
#7 = EDGE_CURVE ( 'NONE', #176, #158, #97, .T. ) ;
#8 = VERTEX_POINT ( 'NONE', #141 ) ;
#9 = EDGE_CURVE ( 'NONE', #12, #127, #85, .T. ) ;
#10 = ADVANCED_FACE ( 'NONE', ( #144 ), #96, .T. ) ;
#11 = VERTEX_POINT ( 'NONE', #76 ) ;
#12 = VERTEX_POINT ( 'NONE', #74 ) ;
#13 = ADVANCED_FACE ( 'NONE', ( #79 ), #88, .F. ) ;
#14 = EDGE_CURVE ( 'NONE', #8, #157, #106, .T. ) ;
#15 = ORIENTED_EDGE ( 'NONE', *, *, #134, .F. ) ;
#16 = ORIENTED_EDGE ( 'NONE', *, *, #7, .T. ) ;
#17 = EDGE_LOOP ( 'NONE', ( #19, #72 ) ) ;
#18 = ORIENTED_EDGE ( 'NONE', *, *, #2, .T. ) ;
#19 = ORIENTED_EDGE ( 'NONE', *, *, #14, .T. ) ;
#20 = ADVANCED_FACE ( 'NONE', ( #91, #111 ), #107, .F. ) ;
#21 = ORIENTED_EDGE ( 'NONE', *, *, #139, .F. ) ;
#22 = ORIENTED_EDGE ( 'NONE', *, *, #9, .F. ) ;
#23 = ORIENTED_EDGE ( 'NONE', *, *, #14, .F. ) ;
#24 = ORIENTED_EDGE ( 'NONE', *, *, #182, .T. ) ;
#25 = ORIENTED_EDGE ( 'NONE', *, *, #165, .T. ) ;
#26 = AXIS2_PLACEMENT_3D ( 'NONE', #95, #90, #89 ) ;
#27 = EDGE_LOOP ( 'NONE', ( #22, #15 ) ) ;
#28 = DIRECTION ( 'NONE',  ( 0.0000000000000000000, 0.0000000000000000000, -1.000000000000000000 ) ) ;
#29 = CYLINDRICAL_SURFACE ( 'NONE', #98, 8.250000000000000000 ) ;
#30 = DIRECTION ( 'NONE',  ( -0.0000000000000000000, -1.000000000000000000, -0.0000000000000000000 ) ) ;
#31 = VECTOR ( 'NONE', #30, 1000.000000000000000 ) ;
#32 = CARTESIAN_POINT ( 'NONE',  ( 1.010333609296566500E-015, 0.0000000000000000000, 8.250000000000000000 ) ) ;
#33 = LINE ( 'NONE', #32, #31 ) ;
#34 = CARTESIAN_POINT ( 'NONE',  ( 0.0000000000000000000, -7.041719095097284800E-016, -8.250000000000000000 ) ) ;
#35 = CARTESIAN_POINT ( 'NONE',  ( 1.010333609296566500E-015, -7.041719095097284800E-016, 8.250000000000000000 ) ) ;
#36 = DIRECTION ( 'NONE',  ( 0.0000000000000000000, 0.0000000000000000000, -1.000000000000000000 ) ) ;
#37 = DIRECTION ( 'NONE',  ( 0.0000000000000000000, 0.0000000000000000000, -1.000000000000000000 ) ) ;
#38 = DIRECTION ( 'NONE',  ( -0.0000000000000000000, -1.000000000000000000, -0.0000000000000000000 ) ) ;
#39 = CARTESIAN_POINT ( 'NONE',  ( 0.0000000000000000000, 2.449293598294703000E-016, 0.0000000000000000000 ) ) ;
#40 = AXIS2_PLACEMENT_3D ( 'NONE', #39, #38, #37 ) ;
#41 = CIRCLE ( 'NONE', #40, 16.00000000000000000 ) ;
#42 = DIRECTION ( 'NONE',  ( 0.0000000000000000000, 0.0000000000000000000, -1.000000000000000000 ) ) ;
#43 = DIRECTION ( 'NONE',  ( 0.0000000000000000000, -1.000000000000000000, -0.0000000000000000000 ) ) ;
#44 = DIRECTION ( 'NONE',  ( -0.0000000000000000000, -1.000000000000000000, -0.0000000000000000000 ) ) ;
#45 = CARTESIAN_POINT ( 'NONE',  ( 0.0000000000000000000, -7.041719095097284800E-016, 0.0000000000000000000 ) ) ;
#46 = FACE_BOUND ( 'NONE', #172, .T. ) ;
#47 = DIRECTION ( 'NONE',  ( 0.0000000000000000000, 0.0000000000000000000, -1.000000000000000000 ) ) ;
#48 = DIRECTION ( 'NONE',  ( -0.0000000000000000000, -1.000000000000000000, -0.0000000000000000000 ) ) ;
#49 = CARTESIAN_POINT ( 'NONE',  ( 0.0000000000000000000, 5.999999999999999100, 0.0000000000000000000 ) ) ;
#50 = AXIS2_PLACEMENT_3D ( 'NONE', #49, #48, #47 ) ;
#51 = CIRCLE ( 'NONE', #50, 16.00000000000000000 ) ;
#52 = AXIS2_PLACEMENT_3D ( 'NONE', #45, #44, #36 ) ;
#53 = PLANE ( 'NONE',  #64 ) ;
#54 = FACE_OUTER_BOUND ( 'NONE', #183, .T. ) ;
#55 = DIRECTION ( 'NONE',  ( 0.0000000000000000000, 0.0000000000000000000, -1.000000000000000000 ) ) ;
#56 = CARTESIAN_POINT ( 'NONE',  ( 16.00000000000000000, -2.296212748401290900E-016, 0.0000000000000000000 ) ) ;
#57 = CIRCLE ( 'NONE', #52, 8.250000000000000000 ) ;
#58 = DIRECTION ( 'NONE',  ( -0.0000000000000000000, -1.000000000000000000, -0.0000000000000000000 ) ) ;
#59 = CARTESIAN_POINT ( 'NONE',  ( 0.0000000000000000000, 0.0000000000000000000, 0.0000000000000000000 ) ) ;
#60 = DIRECTION ( 'NONE',  ( 0.0000000000000000000, 0.0000000000000000000, -1.000000000000000000 ) ) ;
#61 = DIRECTION ( 'NONE',  ( -0.0000000000000000000, -1.000000000000000000, -0.0000000000000000000 ) ) ;
#62 = CARTESIAN_POINT ( 'NONE',  ( 0.0000000000000000000, 2.449293598294703000E-016, 0.0000000000000000000 ) ) ;
#63 = CIRCLE ( 'NONE', #65, 16.00000000000000000 ) ;
#64 = AXIS2_PLACEMENT_3D ( 'NONE', #56, #43, #42 ) ;
#65 = AXIS2_PLACEMENT_3D ( 'NONE', #62, #61, #60 ) ;
#66 = CYLINDRICAL_SURFACE ( 'NONE', #114, 16.00000000000000000 ) ;
#67 = DIRECTION ( 'NONE',  ( 1.000000000000000000, 0.0000000000000000000, -1.224646799147353200E-016 ) ) ;
#68 = DIRECTION ( 'NONE',  ( 1.224646799147353200E-016, -0.0000000000000000000, 1.000000000000000000 ) ) ;
#69 = CARTESIAN_POINT ( 'NONE',  ( 0.0000000000000000000, 37.23075407350901900, 0.0000000000000000000 ) ) ;
#70 = CARTESIAN_POINT ( 'NONE',  ( 0.0000000000000000000, 3.216970102889100200, -8.250000000000001800 ) ) ;
#71 = CIRCLE ( 'NONE', #120, 35.00000000000000000 ) ;
#72 = ORIENTED_EDGE ( 'NONE', *, *, #156, .T. ) ;
#73 = ORIENTED_EDGE ( 'NONE', *, *, #125, .F. ) ;
#74 = CARTESIAN_POINT ( 'NONE',  ( 0.0000000000000000000, 5.999999999999999100, -16.00000000000000000 ) ) ;
#75 = CARTESIAN_POINT ( 'NONE',  ( 0.0000000000000000000, 37.23075407350901900, 0.0000000000000000000 ) ) ;
#76 = CARTESIAN_POINT ( 'NONE',  ( 0.0000000000000000000, 2.449293598294703000E-016, -16.00000000000000000 ) ) ;
#77 = AXIS2_PLACEMENT_3D ( 'NONE', #110, #109, #108 ) ;
#78 = DIRECTION ( 'NONE',  ( 1.000000000000000000, 0.0000000000000000000, 0.0000000000000000000 ) ) ;
#79 = FACE_OUTER_BOUND ( 'NONE', #185, .T. ) ;
#80 = DIRECTION ( 'NONE',  ( -0.0000000000000000000, -1.000000000000000000, -0.0000000000000000000 ) ) ;
#81 = FACE_OUTER_BOUND ( 'NONE', #177, .T. ) ;
#82 = DIRECTION ( 'NONE',  ( 0.0000000000000000000, 0.0000000000000000000, -1.000000000000000000 ) ) ;
#83 = DIRECTION ( 'NONE',  ( -0.0000000000000000000, -1.000000000000000000, -0.0000000000000000000 ) ) ;
#84 = CARTESIAN_POINT ( 'NONE',  ( 0.0000000000000000000, 0.0000000000000000000, 0.0000000000000000000 ) ) ;
#85 = CIRCLE ( 'NONE', #143, 16.00000000000000000 ) ;
#86 = AXIS2_PLACEMENT_3D ( 'NONE', #84, #80, #28 ) ;
#87 = AXIS2_PLACEMENT_3D ( 'NONE', #105, #104, #103 ) ;
#88 = SPHERICAL_SURFACE ( 'NONE', #77, 35.00000000000000000 ) ;
#89 = DIRECTION ( 'NONE',  ( 0.0000000000000000000, 0.0000000000000000000, -1.000000000000000000 ) ) ;
#90 = DIRECTION ( 'NONE',  ( -0.0000000000000000000, -1.000000000000000000, -0.0000000000000000000 ) ) ;
#91 = FACE_OUTER_BOUND ( 'NONE', #27, .T. ) ;
#92 = CARTESIAN_POINT ( 'NONE',  ( 0.0000000000000000000, 5.999999999999999100, 0.0000000000000000000 ) ) ;
#93 = DIRECTION ( 'NONE',  ( 0.0000000000000000000, 0.0000000000000000000, -1.000000000000000000 ) ) ;
#94 = DIRECTION ( 'NONE',  ( -0.0000000000000000000, -1.000000000000000000, -0.0000000000000000000 ) ) ;
#95 = CARTESIAN_POINT ( 'NONE',  ( 0.0000000000000000000, 3.216970102889100200, 0.0000000000000000000 ) ) ;
#96 = CYLINDRICAL_SURFACE ( 'NONE', #86, 16.00000000000000000 ) ;
#97 = CIRCLE ( 'NONE', #26, 8.250000000000001800 ) ;
#98 = AXIS2_PLACEMENT_3D ( 'NONE', #142, #94, #93 ) ;
#99 = DIRECTION ( 'NONE',  ( 0.0000000000000000000, 0.0000000000000000000, -1.000000000000000000 ) ) ;
#100 = DIRECTION ( 'NONE',  ( -0.0000000000000000000, -1.000000000000000000, -0.0000000000000000000 ) ) ;
#101 = CARTESIAN_POINT ( 'NONE',  ( 0.0000000000000000000, 3.216970102889100200, 0.0000000000000000000 ) ) ;
#102 = AXIS2_PLACEMENT_3D ( 'NONE', #101, #100, #99 ) ;
#103 = DIRECTION ( 'NONE',  ( 0.0000000000000000000, 0.0000000000000000000, -1.000000000000000000 ) ) ;
#104 = DIRECTION ( 'NONE',  ( -0.0000000000000000000, -1.000000000000000000, -0.0000000000000000000 ) ) ;
#105 = CARTESIAN_POINT ( 'NONE',  ( 0.0000000000000000000, 5.999999999999998200, 0.0000000000000000000 ) ) ;
#106 = CIRCLE ( 'NONE', #87, 15.80000000000000100 ) ;
#107 = PLANE ( 'NONE',  #119 ) ;
#108 = DIRECTION ( 'NONE',  ( 1.000000000000000000, 0.0000000000000000000, 0.0000000000000000000 ) ) ;
#109 = DIRECTION ( 'NONE',  ( 0.0000000000000000000, 0.0000000000000000000, 1.000000000000000000 ) ) ;
#110 = CARTESIAN_POINT ( 'NONE',  ( 0.0000000000000000000, 37.23075407350901900, 0.0000000000000000000 ) ) ;
#111 = FACE_BOUND ( 'NONE', #17, .T. ) ;
#112 = FACE_OUTER_BOUND ( 'NONE', #5, .T. ) ;
#113 = SPHERICAL_SURFACE ( 'NONE', #121, 35.00000000000000000 ) ;
#114 = AXIS2_PLACEMENT_3D ( 'NONE', #59, #58, #55 ) ;
#115 = CARTESIAN_POINT ( 'NONE',  ( 1.959434878635765100E-015, 5.999999999999999100, 16.00000000000000000 ) ) ;
#116 = DIRECTION ( 'NONE',  ( 0.0000000000000000000, 0.0000000000000000000, -1.000000000000000000 ) ) ;
#117 = DIRECTION ( 'NONE',  ( 0.0000000000000000000, -1.000000000000000000, -0.0000000000000000000 ) ) ;
#118 = CARTESIAN_POINT ( 'NONE',  ( 15.80000000000000100, 5.999999999999998200, 0.0000000000000000000 ) ) ;
#119 = AXIS2_PLACEMENT_3D ( 'NONE', #118, #117, #116 ) ;
#120 = AXIS2_PLACEMENT_3D ( 'NONE', #69, #68, #67 ) ;
#121 = AXIS2_PLACEMENT_3D ( 'NONE', #75, #122, #78 ) ;
#122 = DIRECTION ( 'NONE',  ( 0.0000000000000000000, 0.0000000000000000000, 1.000000000000000000 ) ) ;
#123 = ADVANCED_FACE ( 'NONE', ( #112 ), #113, .F. ) ;
#124 = ORIENTED_EDGE ( 'NONE', *, *, #125, .T. ) ;
#125 = EDGE_CURVE ( 'NONE', #157, #158, #71, .T. ) ;
#126 = VERTEX_POINT ( 'NONE', #70 ) ;
#127 = VERTEX_POINT ( 'NONE', #115 ) ;
#128 = ORIENTED_EDGE ( 'NONE', *, *, #160, .T. ) ;
#129 = EDGE_CURVE ( 'NONE', #11, #162, #63, .T. ) ;
#130 = ORIENTED_EDGE ( 'NONE', *, *, #152, .T. ) ;
#131 = ORIENTED_EDGE ( 'NONE', *, *, #170, .T. ) ;
#132 = ORIENTED_EDGE ( 'NONE', *, *, #134, .T. ) ;
#133 = ADVANCED_FACE ( 'NONE', ( #81 ), #66, .T. ) ;
#134 = EDGE_CURVE ( 'NONE', #127, #12, #51, .T. ) ;
#135 = ORIENTED_EDGE ( 'NONE', *, *, #175, .F. ) ;
#136 = ORIENTED_EDGE ( 'NONE', *, *, #146, .F. ) ;
#137 = ORIENTED_EDGE ( 'NONE', *, *, #129, .T. ) ;
#138 = ADVANCED_FACE ( 'NONE', ( #54, #46 ), #53, .T. ) ;
#139 = EDGE_CURVE ( 'NONE', #162, #11, #41, .T. ) ;
#140 = CIRCLE ( 'NONE', #102, 8.250000000000001800 ) ;
#141 = CARTESIAN_POINT ( 'NONE',  ( 15.80000000000000100, 5.999999999999996400, 0.0000000000000000000 ) ) ;
#142 = CARTESIAN_POINT ( 'NONE',  ( 0.0000000000000000000, 0.0000000000000000000, 0.0000000000000000000 ) ) ;
#143 = AXIS2_PLACEMENT_3D ( 'NONE', #92, #83, #82 ) ;
#144 = FACE_OUTER_BOUND ( 'NONE', #4, .T. ) ;
#145 = ORIENTED_EDGE ( 'NONE', *, *, #7, .F. ) ;
#146 = EDGE_CURVE ( 'NONE', #176, #148, #33, .T. ) ;
#147 = EDGE_LOOP ( 'NONE', ( #136, #168, #171, #130, #131 ) ) ;
#148 = VERTEX_POINT ( 'NONE', #35 ) ;
#149 = VERTEX_POINT ( 'NONE', #34 ) ;
#150 = EDGE_CURVE ( 'NONE', #148, #149, #57, .T. ) ;
#151 = ORIENTED_EDGE ( 'NONE', *, *, #139, .T. ) ;
#152 = EDGE_CURVE ( 'NONE', #126, #149, #259, .T. ) ;
#153 = ORIENTED_EDGE ( 'NONE', *, *, #150, .F. ) ;
#154 = ORIENTED_EDGE ( 'NONE', *, *, #160, .F. ) ;
#155 = ORIENTED_EDGE ( 'NONE', *, *, #165, .F. ) ;
#156 = EDGE_CURVE ( 'NONE', #157, #8, #255, .T. ) ;
#157 = VERTEX_POINT ( 'NONE', #261 ) ;
#158 = VERTEX_POINT ( 'NONE', #252 ) ;
#159 = FACE_OUTER_BOUND ( 'NONE', #166, .T. ) ;
#160 = EDGE_CURVE ( 'NONE', #158, #126, #197, .T. ) ;
#161 = VERTEX_POINT ( 'NONE', #262 ) ;
#162 = VERTEX_POINT ( 'NONE', #260 ) ;
#163 = ORIENTED_EDGE ( 'NONE', *, *, #164, .T. ) ;
#164 = EDGE_CURVE ( 'NONE', #126, #161, #199, .T. ) ;
#165 = EDGE_CURVE ( 'NONE', #8, #161, #228, .T. ) ;
#166 = EDGE_LOOP ( 'NONE', ( #145, #180, #179, #167, #154 ) ) ;
#167 = ORIENTED_EDGE ( 'NONE', *, *, #152, .F. ) ;
#168 = ORIENTED_EDGE ( 'NONE', *, *, #2, .F. ) ;
#169 = ADVANCED_FACE ( 'NONE', ( #222 ), #223, .F. ) ;
#170 = EDGE_CURVE ( 'NONE', #149, #148, #214, .T. ) ;
#171 = ORIENTED_EDGE ( 'NONE', *, *, #164, .F. ) ;
#172 = EDGE_LOOP ( 'NONE', ( #173, #153 ) ) ;
#173 = ORIENTED_EDGE ( 'NONE', *, *, #170, .F. ) ;
#174 = ORIENTED_EDGE ( 'NONE', *, *, #9, .T. ) ;
#175 = EDGE_CURVE ( 'NONE', #127, #162, #208, .T. ) ;
#176 = VERTEX_POINT ( 'NONE', #217 ) ;
#177 = EDGE_LOOP ( 'NONE', ( #135, #132, #24, #21 ) ) ;
#178 = ORIENTED_EDGE ( 'NONE', *, *, #175, .T. ) ;
#179 = ORIENTED_EDGE ( 'NONE', *, *, #150, .T. ) ;
#180 = ORIENTED_EDGE ( 'NONE', *, *, #146, .T. ) ;
#181 = ORIENTED_EDGE ( 'NONE', *, *, #129, .F. ) ;
#182 = EDGE_CURVE ( 'NONE', #12, #11, #204, .T. ) ;
#183 = EDGE_LOOP ( 'NONE', ( #137, #151 ) ) ;
#184 = CLOSED_SHELL ( 'NONE', ( #123, #10, #3, #138, #169, #133, #13, #20 ) ) ;
#185 = EDGE_LOOP ( 'NONE', ( #73, #23, #25, #18, #16 ) ) ;
#186 = MANIFOLD_SOLID_BREP ( 'Cut-Revolve1', #184 ) ;
#187 = AXIS2_PLACEMENT_3D ( 'NONE', #188, #227, #218 ) ;
#188 = CARTESIAN_POINT ( 'NONE',  ( 0.0000000000000000000, 0.0000000000000000000, 0.0000000000000000000 ) ) ;
#189 = DIRECTION ( 'NONE',  ( 0.0000000000000000000, 0.0000000000000000000, -1.000000000000000000 ) ) ;
#190 = DIRECTION ( 'NONE',  ( -0.0000000000000000000, -1.000000000000000000, -0.0000000000000000000 ) ) ;
#191 = CARTESIAN_POINT ( 'NONE',  ( 0.0000000000000000000, 5.999999999999998200, 0.0000000000000000000 ) ) ;
#192 = CARTESIAN_POINT ( 'NONE',  ( 0.0000000000000000000, 0.0000000000000000000, -16.00000000000000000 ) ) ;
#193 = DIRECTION ( 'NONE',  ( 0.0000000000000000000, 0.0000000000000000000, -1.000000000000000000 ) ) ;
#194 = DIRECTION ( 'NONE',  ( -0.0000000000000000000, -1.000000000000000000, -0.0000000000000000000 ) ) ;
#195 = CARTESIAN_POINT ( 'NONE',  ( 0.0000000000000000000, 3.216970102889100200, 0.0000000000000000000 ) ) ;
#196 = AXIS2_PLACEMENT_3D ( 'NONE', #195, #194, #193 ) ;
#197 = CIRCLE ( 'NONE', #196, 8.250000000000001800 ) ;
#198 = AXIS2_PLACEMENT_3D ( 'NONE', #221, #220, #219 ) ;
#199 = CIRCLE ( 'NONE', #253, 8.250000000000001800 ) ;
#200 = DIRECTION ( 'NONE',  ( -0.0000000000000000000, -1.000000000000000000, -0.0000000000000000000 ) ) ;
#201 = VECTOR ( 'NONE', #200, 1000.000000000000000 ) ;
#202 = FILL_AREA_STYLE ('',( #203 ) ) ;
#203 = FILL_AREA_STYLE_COLOUR ( '', #215 ) ;
#204 = LINE ( 'NONE', #192, #201 ) ;
#205 = DIRECTION ( 'NONE',  ( -0.0000000000000000000, -1.000000000000000000, -0.0000000000000000000 ) ) ;
#206 = VECTOR ( 'NONE', #205, 1000.000000000000000 ) ;
#207 = CARTESIAN_POINT ( 'NONE',  ( 1.959434878635765100E-015, 0.0000000000000000000, 16.00000000000000000 ) ) ;
#208 = LINE ( 'NONE', #207, #206 ) ;
#209 = FILL_AREA_STYLE ('',( #216 ) ) ;
#210 = DIRECTION ( 'NONE',  ( 0.0000000000000000000, 0.0000000000000000000, -1.000000000000000000 ) ) ;
#211 = DIRECTION ( 'NONE',  ( -0.0000000000000000000, -1.000000000000000000, -0.0000000000000000000 ) ) ;
#212 = CARTESIAN_POINT ( 'NONE',  ( 0.0000000000000000000, -7.041719095097284800E-016, 0.0000000000000000000 ) ) ;
#213 = AXIS2_PLACEMENT_3D ( 'NONE', #212, #211, #210 ) ;
#214 = CIRCLE ( 'NONE', #213, 8.250000000000000000 ) ;
#215 = COLOUR_RGB ( '',0.7529411764705882200, 0.7529411764705882200, 0.7529411764705882200 ) ;
#216 = FILL_AREA_STYLE_COLOUR ( '', #277 ) ;
#217 = CARTESIAN_POINT ( 'NONE',  ( 1.010333609296566700E-015, 3.216970102889100200, 8.250000000000001800 ) ) ;
#218 = DIRECTION ( 'NONE',  ( 0.0000000000000000000, 0.0000000000000000000, -1.000000000000000000 ) ) ;
#219 = DIRECTION ( 'NONE',  ( -1.000000000000000000, 0.0000000000000000000, 0.0000000000000000000 ) ) ;
#220 = DIRECTION ( 'NONE',  ( 0.0000000000000000000, 0.0000000000000000000, -1.000000000000000000 ) ) ;
#221 = CARTESIAN_POINT ( 'NONE',  ( 0.0000000000000000000, 37.23075407350901900, 0.0000000000000000000 ) ) ;
#222 = FACE_OUTER_BOUND ( 'NONE', #147, .T. ) ;
#223 = CYLINDRICAL_SURFACE ( 'NONE', #187, 8.250000000000000000 ) ;
#224 = DIRECTION ( 'NONE',  ( 0.0000000000000000000, 0.0000000000000000000, -1.000000000000000000 ) ) ;
#225 = DIRECTION ( 'NONE',  ( -0.0000000000000000000, -1.000000000000000000, -0.0000000000000000000 ) ) ;
#226 = CARTESIAN_POINT ( 'NONE',  ( 0.0000000000000000000, 3.216970102889100200, 0.0000000000000000000 ) ) ;
#227 = DIRECTION ( 'NONE',  ( -0.0000000000000000000, -1.000000000000000000, -0.0000000000000000000 ) ) ;
#228 = CIRCLE ( 'NONE', #198, 35.00000000000000000 ) ;
#229 = DIRECTION ( 'NONE',  ( 1.000000000000000000, 0.0000000000000000000, 0.0000000000000000000 ) ) ;
#230 = DIRECTION ( 'NONE',  ( 0.0000000000000000000, 0.0000000000000000000, 1.000000000000000000 ) ) ;
#231 = CARTESIAN_POINT ( 'NONE',  ( 0.0000000000000000000, 0.0000000000000000000, 0.0000000000000000000 ) ) ;
#232 =( GEOMETRIC_REPRESENTATION_CONTEXT ( 3 ) GLOBAL_UNCERTAINTY_ASSIGNED_CONTEXT ( ( #233 ) ) GLOBAL_UNIT_ASSIGNED_CONTEXT ( ( #236, #235, #234 ) ) REPRESENTATION_CONTEXT ( 'NONE', 'WORKASPACE' ) );
#233 = UNCERTAINTY_MEASURE_WITH_UNIT (LENGTH_MEASURE( 1.000000000000000100E-005 ), #236, 'distance_accuracy_value', 'NONE');
#234 =( NAMED_UNIT ( * ) SI_UNIT ( $, .STERADIAN. ) SOLID_ANGLE_UNIT ( ) );
#235 =( NAMED_UNIT ( * ) PLANE_ANGLE_UNIT ( ) SI_UNIT ( $, .RADIAN. ) );
#236 =( LENGTH_UNIT ( ) NAMED_UNIT ( * ) SI_UNIT ( .MILLI., .METRE. ) );
#237 = MECHANICAL_DESIGN_GEOMETRIC_PRESENTATION_REPRESENTATION (  '', ( #239 ), #232 ) ;
#238 = PRESENTATION_LAYER_ASSIGNMENT (  '', '', ( #239 ) ) ;
#239 = STYLED_ITEM ( 'NONE', ( #240 ), #279 ) ;
#240 = PRESENTATION_STYLE_ASSIGNMENT (( #274 ) ) ;
#241 = UNCERTAINTY_MEASURE_WITH_UNIT (LENGTH_MEASURE( 1.000000000000000100E-005 ), #244, 'distance_accuracy_value', 'NONE');
#242 =( NAMED_UNIT ( * ) SI_UNIT ( $, .STERADIAN. ) SOLID_ANGLE_UNIT ( ) );
#243 =( NAMED_UNIT ( * ) PLANE_ANGLE_UNIT ( ) SI_UNIT ( $, .RADIAN. ) );
#244 =( LENGTH_UNIT ( ) NAMED_UNIT ( * ) SI_UNIT ( .MILLI., .METRE. ) );
#245 = MECHANICAL_DESIGN_GEOMETRIC_PRESENTATION_REPRESENTATION (  '', ( #247 ), #286 ) ;
#246 = PRESENTATION_LAYER_ASSIGNMENT (  '', '', ( #247 ) ) ;
#247 = STYLED_ITEM ( 'NONE', ( #248 ), #186 ) ;
#248 = PRESENTATION_STYLE_ASSIGNMENT (( #249 ) ) ;
#249 = SURFACE_STYLE_USAGE ( .BOTH. , #250 ) ;
#250 = SURFACE_SIDE_STYLE ('',( #251 ) ) ;
#251 = SURFACE_STYLE_FILL_AREA ( #202 ) ;
#252 = CARTESIAN_POINT ( 'NONE',  ( -8.250000000000001800, 3.216970102889100200, 1.472637775974692500E-015 ) ) ;
#253 = AXIS2_PLACEMENT_3D ( 'NONE', #226, #225, #224 ) ;
#254 = AXIS2_PLACEMENT_3D ( 'NONE', #191, #190, #189 ) ;
#255 = CIRCLE ( 'NONE', #254, 15.80000000000000100 ) ;
#256 = DIRECTION ( 'NONE',  ( -0.0000000000000000000, -1.000000000000000000, -0.0000000000000000000 ) ) ;
#257 = VECTOR ( 'NONE', #256, 1000.000000000000000 ) ;
#258 = CARTESIAN_POINT ( 'NONE',  ( 0.0000000000000000000, 0.0000000000000000000, -8.250000000000000000 ) ) ;
#259 = LINE ( 'NONE', #258, #257 ) ;
#260 = CARTESIAN_POINT ( 'NONE',  ( 1.959434878635765100E-015, 2.449293598294703000E-016, 16.00000000000000000 ) ) ;
#261 = CARTESIAN_POINT ( 'NONE',  ( -15.80000000000000100, 5.999999999999996400, 1.934941942652818000E-015 ) ) ;
#262 = CARTESIAN_POINT ( 'NONE',  ( 8.250000000000001800, 3.216970102889100200, 0.0000000000000000000 ) ) ;
#263 = PRODUCT_DEFINITION_SHAPE ( 'NONE', 'NONE',  #267 ) ;
#264 = PRODUCT_RELATED_PRODUCT_CATEGORY ( 'part', '', ( #271 ) ) ;
#265 = PRODUCT_DEFINITION_FORMATION_WITH_SPECIFIED_SOURCE ( 'ANY', '', #271, .NOT_KNOWN. ) ;
#266 = SHAPE_DEFINITION_REPRESENTATION ( #263, #279 ) ;
#267 = PRODUCT_DEFINITION ( 'UNKNOWN', '', #265, #268 ) ;
#268 = PRODUCT_DEFINITION_CONTEXT ( 'detailed design', #270, 'design' ) ;
#269 = APPLICATION_PROTOCOL_DEFINITION ( 'draft international standard', 'automotive_design', 1998, #270 ) ;
#270 = APPLICATION_CONTEXT ( 'automotive_design' ) ;
#271 = PRODUCT ( 'WDS-401-205F', 'WDS-401-205F', '', ( #272 ) ) ;
#272 = PRODUCT_CONTEXT ( 'NONE', #278, 'mechanical' ) ;
#273 = APPLICATION_PROTOCOL_DEFINITION ( 'draft international standard', 'automotive_design', 1998, #278 ) ;
#274 = SURFACE_STYLE_USAGE ( .BOTH. , #275 ) ;
#275 = SURFACE_SIDE_STYLE ('',( #276 ) ) ;
#276 = SURFACE_STYLE_FILL_AREA ( #209 ) ;
#277 = COLOUR_RGB ( '',0.7529411764705882200, 0.7529411764705882200, 0.7529411764705882200 ) ;
#278 = APPLICATION_CONTEXT ( 'automotive_design' ) ;
#279 = ADVANCED_BREP_SHAPE_REPRESENTATION ( 'WDS-401-205F', ( #186, #285 ), #280 ) ;
#280 =( GEOMETRIC_REPRESENTATION_CONTEXT ( 3 ) GLOBAL_UNCERTAINTY_ASSIGNED_CONTEXT ( ( #281 ) ) GLOBAL_UNIT_ASSIGNED_CONTEXT ( ( #284, #283, #282 ) ) REPRESENTATION_CONTEXT ( 'NONE', 'WORKASPACE' ) );
#281 = UNCERTAINTY_MEASURE_WITH_UNIT (LENGTH_MEASURE( 1.000000000000000100E-005 ), #284, 'distance_accuracy_value', 'NONE');
#282 =( NAMED_UNIT ( * ) SI_UNIT ( $, .STERADIAN. ) SOLID_ANGLE_UNIT ( ) );
#283 =( NAMED_UNIT ( * ) PLANE_ANGLE_UNIT ( ) SI_UNIT ( $, .RADIAN. ) );
#284 =( LENGTH_UNIT ( ) NAMED_UNIT ( * ) SI_UNIT ( .MILLI., .METRE. ) );
#285 = AXIS2_PLACEMENT_3D ( 'NONE', #231, #230, #229 ) ;
#286 =( GEOMETRIC_REPRESENTATION_CONTEXT ( 3 ) GLOBAL_UNCERTAINTY_ASSIGNED_CONTEXT ( ( #241 ) ) GLOBAL_UNIT_ASSIGNED_CONTEXT ( ( #244, #243, #242 ) ) REPRESENTATION_CONTEXT ( 'NONE', 'WORKASPACE' ) );
ENDSEC;
END-ISO-10303-21;
