ISO-10303-21;
HEADER;
FILE_DESCRIPTION (( 'STEP AP203' ),
    '1' );
FILE_NAME ('WDS-401-204F.step',
    '2012-03-30T18:06:40',
    ( 'sysAdmin' ),
    ( 'SolidWorks' ),
    'SwSTEP 2.0',
    'SolidWorks 2012',
    '' );
FILE_SCHEMA (( 'CONFIG_CONTROL_DESIGN' ));
ENDSEC;

DATA;
#1 = AXIS2_PLACEMENT_3D ( 'NONE', #13, #12, #113 ) ;
#2 = EDGE_CURVE ( 'NONE', #36, #65, #29, .T. ) ;
#3 = EDGE_LOOP ( 'NONE', ( #20, #5, #55, #57 ) ) ;
#4 = EDGE_CURVE ( 'NONE', #66, #65, #98, .T. ) ;
#5 = ORIENTED_EDGE ( 'NONE', *, *, #51, .T. ) ;
#6 = ORIENTED_EDGE ( 'NONE', *, *, #4, .T. ) ;
#7 = ADVANCED_FACE ( 'NONE', ( #138, #136 ), #100, .T. ) ;
#8 = EDGE_CURVE ( 'NONE', #39, #38, #99, .T. ) ;
#9 = ORIENTED_EDGE ( 'NONE', *, *, #22, .T. ) ;
#10 = EDGE_LOOP ( 'NONE', ( #11, #63 ) ) ;
#11 = ORIENTED_EDGE ( 'NONE', *, *, #8, .F. ) ;
#12 = DIRECTION ( 'NONE',  ( -0.0000000000000000000, -1.000000000000000000, -0.0000000000000000000 ) ) ;
#13 = CARTESIAN_POINT ( 'NONE',  ( 0.0000000000000000000, 0.0000000000000000000, 0.0000000000000000000 ) ) ;
#14 = DIRECTION ( 'NONE',  ( -0.0000000000000000000, -1.000000000000000000, -0.0000000000000000000 ) ) ;
#15 = VECTOR ( 'NONE', #14, 1000.000000000000000 ) ;
#16 = CARTESIAN_POINT ( 'NONE',  ( 0.0000000000000000000, 0.0000000000000000000, -14.00000000000000400 ) ) ;
#17 = FACE_OUTER_BOUND ( 'NONE', #3, .T. ) ;
#18 = DIRECTION ( 'NONE',  ( 0.0000000000000000000, 0.0000000000000000000, -1.000000000000000000 ) ) ;
#19 = EDGE_CURVE ( 'NONE', #37, #66, #101, .T. ) ;
#20 = ORIENTED_EDGE ( 'NONE', *, *, #19, .F. ) ;
#21 = ORIENTED_EDGE ( 'NONE', *, *, #19, .T. ) ;
#22 = EDGE_CURVE ( 'NONE', #65, #66, #102, .T. ) ;
#23 = EDGE_LOOP ( 'NONE', ( #9, #6 ) ) ;
#24 = ORIENTED_EDGE ( 'NONE', *, *, #22, .F. ) ;
#25 = ORIENTED_EDGE ( 'NONE', *, *, #27, .T. ) ;
#26 = EDGE_LOOP ( 'NONE', ( #25, #67 ) ) ;
#27 = EDGE_CURVE ( 'NONE', #87, #73, #162, .T. ) ;
#28 = MANIFOLD_SOLID_BREP ( 'Cut-Revolve1', #68 ) ;
#29 = LINE ( 'NONE', #16, #15 ) ;
#30 = ORIENTED_EDGE ( 'NONE', *, *, #2, .F. ) ;
#31 = EDGE_CURVE ( 'NONE', #69, #86, #157, .T. ) ;
#32 = ORIENTED_EDGE ( 'NONE', *, *, #31, .T. ) ;
#33 = EDGE_CURVE ( 'NONE', #87, #86, #130, .T. ) ;
#34 = EDGE_LOOP ( 'NONE', ( #84, #21, #24, #30 ) ) ;
#35 = ORIENTED_EDGE ( 'NONE', *, *, #33, .F. ) ;
#36 = VERTEX_POINT ( 'NONE', #155 ) ;
#37 = VERTEX_POINT ( 'NONE', #164 ) ;
#38 = VERTEX_POINT ( 'NONE', #131 ) ;
#39 = VERTEX_POINT ( 'NONE', #132 ) ;
#40 = ADVANCED_FACE ( 'NONE', ( #125 ), #163, .F. ) ;
#41 = ORIENTED_EDGE ( 'NONE', *, *, #59, .T. ) ;
#42 = EDGE_CURVE ( 'NONE', #43, #38, #121, .T. ) ;
#43 = VERTEX_POINT ( 'NONE', #118 ) ;
#44 = ADVANCED_FACE ( 'NONE', ( #123 ), #120, .F. ) ;
#45 = ORIENTED_EDGE ( 'NONE', *, *, #42, .F. ) ;
#46 = ORIENTED_EDGE ( 'NONE', *, *, #8, .T. ) ;
#47 = ORIENTED_EDGE ( 'NONE', *, *, #60, .T. ) ;
#48 = ORIENTED_EDGE ( 'NONE', *, *, #31, .F. ) ;
#49 = ADVANCED_FACE ( 'NONE', ( #111 ), #126, .F. ) ;
#50 = EDGE_LOOP ( 'NONE', ( #45, #56, #48, #47, #46 ) ) ;
#51 = EDGE_CURVE ( 'NONE', #37, #36, #143, .T. ) ;
#52 = EDGE_CURVE ( 'NONE', #86, #43, #144, .T. ) ;
#53 = EDGE_LOOP ( 'NONE', ( #90, #88, #92, #95, #91 ) ) ;
#54 = ADVANCED_FACE ( 'NONE', ( #17 ), #75, .T. ) ;
#55 = ORIENTED_EDGE ( 'NONE', *, *, #2, .T. ) ;
#56 = ORIENTED_EDGE ( 'NONE', *, *, #52, .F. ) ;
#57 = ORIENTED_EDGE ( 'NONE', *, *, #4, .F. ) ;
#58 = ORIENTED_EDGE ( 'NONE', *, *, #42, .T. ) ;
#59 = EDGE_CURVE ( 'NONE', #38, #39, #207, .T. ) ;
#60 = EDGE_CURVE ( 'NONE', #69, #39, #177, .T. ) ;
#61 = EDGE_CURVE ( 'NONE', #36, #37, #201, .T. ) ;
#62 = ORIENTED_EDGE ( 'NONE', *, *, #79, .F. ) ;
#63 = ORIENTED_EDGE ( 'NONE', *, *, #59, .F. ) ;
#64 = ADVANCED_FACE ( 'NONE', ( #195 ), #203, .T. ) ;
#65 = VERTEX_POINT ( 'NONE', #184 ) ;
#66 = VERTEX_POINT ( 'NONE', #200 ) ;
#67 = ORIENTED_EDGE ( 'NONE', *, *, #72, .T. ) ;
#68 = CLOSED_SHELL ( 'NONE', ( #76, #40, #64, #7, #54, #44, #49, #94 ) ) ;
#69 = VERTEX_POINT ( 'NONE', #176 ) ;
#70 = ORIENTED_EDGE ( 'NONE', *, *, #72, .F. ) ;
#71 = ORIENTED_EDGE ( 'NONE', *, *, #60, .F. ) ;
#72 = EDGE_CURVE ( 'NONE', #73, #87, #182, .T. ) ;
#73 = VERTEX_POINT ( 'NONE', #110 ) ;
#74 = EDGE_CURVE ( 'NONE', #43, #81, #196, .T. ) ;
#75 = CYLINDRICAL_SURFACE ( 'NONE', #1, 14.00000000000000400 ) ;
#76 = ADVANCED_FACE ( 'NONE', ( #212 ), #209, .F. ) ;
#77 = ORIENTED_EDGE ( 'NONE', *, *, #80, .T. ) ;
#78 = ORIENTED_EDGE ( 'NONE', *, *, #79, .T. ) ;
#79 = EDGE_CURVE ( 'NONE', #81, #69, #271, .T. ) ;
#80 = EDGE_CURVE ( 'NONE', #73, #81, #269, .T. ) ;
#81 = VERTEX_POINT ( 'NONE', #320 ) ;
#82 = EDGE_LOOP ( 'NONE', ( #70, #77, #78, #32, #35 ) ) ;
#83 = ORIENTED_EDGE ( 'NONE', *, *, #74, .F. ) ;
#84 = ORIENTED_EDGE ( 'NONE', *, *, #61, .T. ) ;
#85 = EDGE_LOOP ( 'NONE', ( #83, #58, #41, #71, #62 ) ) ;
#86 = VERTEX_POINT ( 'NONE', #270 ) ;
#87 = VERTEX_POINT ( 'NONE', #268 ) ;
#88 = ORIENTED_EDGE ( 'NONE', *, *, #27, .F. ) ;
#89 = EDGE_LOOP ( 'NONE', ( #96, #93 ) ) ;
#90 = ORIENTED_EDGE ( 'NONE', *, *, #80, .F. ) ;
#91 = ORIENTED_EDGE ( 'NONE', *, *, #74, .T. ) ;
#92 = ORIENTED_EDGE ( 'NONE', *, *, #33, .T. ) ;
#93 = ORIENTED_EDGE ( 'NONE', *, *, #51, .F. ) ;
#94 = ADVANCED_FACE ( 'NONE', ( #272, #311 ), #315, .F. ) ;
#95 = ORIENTED_EDGE ( 'NONE', *, *, #52, .T. ) ;
#96 = ORIENTED_EDGE ( 'NONE', *, *, #61, .F. ) ;
#97 = DIRECTION ( 'NONE',  ( -0.0000000000000000000, -1.000000000000000000, -0.0000000000000000000 ) ) ;
#98 = CIRCLE ( 'NONE', #152, 14.00000000000000400 ) ;
#99 = CIRCLE ( 'NONE', #148, 7.249999999999999100 ) ;
#100 = PLANE ( 'NONE',  #137 ) ;
#101 = LINE ( 'NONE', #175, #174 ) ;
#102 = CIRCLE ( 'NONE', #168, 14.00000000000000400 ) ;
#103 = AXIS2_PLACEMENT_3D ( 'NONE', #142, #141, #140 ) ;
#104 = AXIS2_PLACEMENT_3D ( 'NONE', #133, #156, #119 ) ;
#105 = DIRECTION ( 'NONE',  ( 0.0000000000000000000, 0.0000000000000000000, -1.000000000000000000 ) ) ;
#106 = DIRECTION ( 'NONE',  ( -0.0000000000000000000, -1.000000000000000000, -0.0000000000000000000 ) ) ;
#107 = CARTESIAN_POINT ( 'NONE',  ( 0.0000000000000000000, -2.051215642652481900E-015, 0.0000000000000000000 ) ) ;
#108 = AXIS2_PLACEMENT_3D ( 'NONE', #139, #97, #18 ) ;
#109 = DIRECTION ( 'NONE',  ( 0.0000000000000000000, 0.0000000000000000000, -1.000000000000000000 ) ) ;
#110 = CARTESIAN_POINT ( 'NONE',  ( -13.80000000000000200, 5.999999999999995600, 1.690012582823347500E-015 ) ) ;
#111 = FACE_OUTER_BOUND ( 'NONE', #53, .T. ) ;
#112 = AXIS2_PLACEMENT_3D ( 'NONE', #147, #146, #145 ) ;
#113 = DIRECTION ( 'NONE',  ( 0.0000000000000000000, 0.0000000000000000000, -1.000000000000000000 ) ) ;
#114 = AXIS2_PLACEMENT_3D ( 'NONE', #122, #124, #109 ) ;
#115 = DIRECTION ( 'NONE',  ( -0.0000000000000000000, -1.000000000000000000, -0.0000000000000000000 ) ) ;
#116 = VECTOR ( 'NONE', #115, 1000.000000000000000 ) ;
#117 = CARTESIAN_POINT ( 'NONE',  ( 8.878689293818310100E-016, 0.0000000000000000000, 7.249999999999999100 ) ) ;
#118 = CARTESIAN_POINT ( 'NONE',  ( 8.878689293818308100E-016, 3.703547041611085200, 7.249999999999997300 ) ) ;
#119 = DIRECTION ( 'NONE',  ( 0.0000000000000000000, 0.0000000000000000000, -1.000000000000000000 ) ) ;
#120 = CYLINDRICAL_SURFACE ( 'NONE', #114, 7.249999999999999100 ) ;
#121 = LINE ( 'NONE', #117, #116 ) ;
#122 = CARTESIAN_POINT ( 'NONE',  ( 0.0000000000000000000, 0.0000000000000000000, 0.0000000000000000000 ) ) ;
#123 = FACE_OUTER_BOUND ( 'NONE', #50, .T. ) ;
#124 = DIRECTION ( 'NONE',  ( -0.0000000000000000000, -1.000000000000000000, -0.0000000000000000000 ) ) ;
#125 = FACE_OUTER_BOUND ( 'NONE', #85, .T. ) ;
#126 = SPHERICAL_SURFACE ( 'NONE', #112, 32.00000000000000000 ) ;
#127 = DIRECTION ( 'NONE',  ( -1.000000000000000000, 0.0000000000000000000, 0.0000000000000000000 ) ) ;
#128 = DIRECTION ( 'NONE',  ( 0.0000000000000000000, 0.0000000000000000000, -1.000000000000000000 ) ) ;
#129 = CARTESIAN_POINT ( 'NONE',  ( 0.0000000000000000000, 34.87143917438131500, 0.0000000000000000000 ) ) ;
#130 = CIRCLE ( 'NONE', #172, 32.00000000000000000 ) ;
#131 = CARTESIAN_POINT ( 'NONE',  ( 8.878689293818310100E-016, -2.051215642652481900E-015, 7.249999999999999100 ) ) ;
#132 = CARTESIAN_POINT ( 'NONE',  ( 0.0000000000000000000, -2.051215642652481900E-015, -7.249999999999999100 ) ) ;
#133 = CARTESIAN_POINT ( 'NONE',  ( 0.0000000000000000000, 0.0000000000000000000, 0.0000000000000000000 ) ) ;
#134 = DIRECTION ( 'NONE',  ( 0.0000000000000000000, 0.0000000000000000000, -1.000000000000000000 ) ) ;
#135 = CARTESIAN_POINT ( 'NONE',  ( 14.00000000000000400, -1.637910998237429400E-015, 0.0000000000000000000 ) ) ;
#136 = FACE_BOUND ( 'NONE', #10, .T. ) ;
#137 = AXIS2_PLACEMENT_3D ( 'NONE', #135, #166, #165 ) ;
#138 = FACE_OUTER_BOUND ( 'NONE', #23, .T. ) ;
#139 = CARTESIAN_POINT ( 'NONE',  ( 0.0000000000000000000, 3.703547041611085200, 0.0000000000000000000 ) ) ;
#140 = DIRECTION ( 'NONE',  ( 0.0000000000000000000, 0.0000000000000000000, -1.000000000000000000 ) ) ;
#141 = DIRECTION ( 'NONE',  ( -0.0000000000000000000, -1.000000000000000000, -0.0000000000000000000 ) ) ;
#142 = CARTESIAN_POINT ( 'NONE',  ( 0.0000000000000000000, 5.999999999999997300, 0.0000000000000000000 ) ) ;
#143 = CIRCLE ( 'NONE', #103, 14.00000000000000500 ) ;
#144 = CIRCLE ( 'NONE', #108, 7.249999999999997300 ) ;
#145 = DIRECTION ( 'NONE',  ( 1.000000000000000000, 0.0000000000000000000, 0.0000000000000000000 ) ) ;
#146 = DIRECTION ( 'NONE',  ( 0.0000000000000000000, 0.0000000000000000000, 1.000000000000000000 ) ) ;
#147 = CARTESIAN_POINT ( 'NONE',  ( 0.0000000000000000000, 34.87143917438131500, 0.0000000000000000000 ) ) ;
#148 = AXIS2_PLACEMENT_3D ( 'NONE', #107, #106, #105 ) ;
#149 = DIRECTION ( 'NONE',  ( 0.0000000000000000000, 0.0000000000000000000, -1.000000000000000000 ) ) ;
#150 = DIRECTION ( 'NONE',  ( -0.0000000000000000000, -1.000000000000000000, -0.0000000000000000000 ) ) ;
#151 = CARTESIAN_POINT ( 'NONE',  ( 0.0000000000000000000, -1.224606353822376700E-015, 0.0000000000000000000 ) ) ;
#152 = AXIS2_PLACEMENT_3D ( 'NONE', #151, #150, #149 ) ;
#153 = DIRECTION ( 'NONE',  ( -0.0000000000000000000, -1.000000000000000000, -0.0000000000000000000 ) ) ;
#154 = CARTESIAN_POINT ( 'NONE',  ( 0.0000000000000000000, 3.703547041611085200, 0.0000000000000000000 ) ) ;
#155 = CARTESIAN_POINT ( 'NONE',  ( 0.0000000000000000000, 5.999999999999997300, -14.00000000000000500 ) ) ;
#156 = DIRECTION ( 'NONE',  ( -0.0000000000000000000, -1.000000000000000000, -0.0000000000000000000 ) ) ;
#157 = CIRCLE ( 'NONE', #169, 7.249999999999997300 ) ;
#158 = DIRECTION ( 'NONE',  ( 0.0000000000000000000, 0.0000000000000000000, -1.000000000000000000 ) ) ;
#159 = DIRECTION ( 'NONE',  ( -0.0000000000000000000, -1.000000000000000000, -0.0000000000000000000 ) ) ;
#160 = CARTESIAN_POINT ( 'NONE',  ( 0.0000000000000000000, 5.999999999999996400, 0.0000000000000000000 ) ) ;
#161 = AXIS2_PLACEMENT_3D ( 'NONE', #160, #159, #158 ) ;
#162 = CIRCLE ( 'NONE', #161, 13.80000000000000400 ) ;
#163 = CYLINDRICAL_SURFACE ( 'NONE', #104, 7.249999999999999100 ) ;
#164 = CARTESIAN_POINT ( 'NONE',  ( 1.714505518806295200E-015, 5.999999999999997300, 14.00000000000000700 ) ) ;
#165 = DIRECTION ( 'NONE',  ( 0.0000000000000000000, 0.0000000000000000000, -1.000000000000000000 ) ) ;
#166 = DIRECTION ( 'NONE',  ( 0.0000000000000000000, -1.000000000000000000, -0.0000000000000000000 ) ) ;
#167 = CARTESIAN_POINT ( 'NONE',  ( 0.0000000000000000000, -1.224606353822376700E-015, 0.0000000000000000000 ) ) ;
#168 = AXIS2_PLACEMENT_3D ( 'NONE', #167, #171, #170 ) ;
#169 = AXIS2_PLACEMENT_3D ( 'NONE', #154, #153, #134 ) ;
#170 = DIRECTION ( 'NONE',  ( 0.0000000000000000000, 0.0000000000000000000, -1.000000000000000000 ) ) ;
#171 = DIRECTION ( 'NONE',  ( -0.0000000000000000000, -1.000000000000000000, -0.0000000000000000000 ) ) ;
#172 = AXIS2_PLACEMENT_3D ( 'NONE', #129, #128, #127 ) ;
#173 = DIRECTION ( 'NONE',  ( -0.0000000000000000000, -1.000000000000000000, -0.0000000000000000000 ) ) ;
#174 = VECTOR ( 'NONE', #173, 1000.000000000000000 ) ;
#175 = CARTESIAN_POINT ( 'NONE',  ( 1.714505518806294800E-015, 0.0000000000000000000, 14.00000000000000400 ) ) ;
#176 = CARTESIAN_POINT ( 'NONE',  ( 0.0000000000000000000, 3.703547041611085200, -7.249999999999997300 ) ) ;
#177 = LINE ( 'NONE', #199, #198 ) ;
#178 = DIRECTION ( 'NONE',  ( 0.0000000000000000000, 0.0000000000000000000, -1.000000000000000000 ) ) ;
#179 = DIRECTION ( 'NONE',  ( -0.0000000000000000000, -1.000000000000000000, -0.0000000000000000000 ) ) ;
#180 = CARTESIAN_POINT ( 'NONE',  ( 0.0000000000000000000, 5.999999999999996400, 0.0000000000000000000 ) ) ;
#181 = AXIS2_PLACEMENT_3D ( 'NONE', #180, #179, #178 ) ;
#182 = CIRCLE ( 'NONE', #181, 13.80000000000000400 ) ;
#183 = CARTESIAN_POINT ( 'NONE',  ( 0.0000000000000000000, 3.703547041611085200, 0.0000000000000000000 ) ) ;
#184 = CARTESIAN_POINT ( 'NONE',  ( 0.0000000000000000000, -1.224606353822376700E-015, -14.00000000000000400 ) ) ;
#185 = DIRECTION ( 'NONE',  ( 0.0000000000000000000, 0.0000000000000000000, -1.000000000000000000 ) ) ;
#186 = DIRECTION ( 'NONE',  ( -0.0000000000000000000, -1.000000000000000000, -0.0000000000000000000 ) ) ;
#187 = DIRECTION ( 'NONE',  ( 0.0000000000000000000, 0.0000000000000000000, -1.000000000000000000 ) ) ;
#188 = CARTESIAN_POINT ( 'NONE',  ( 0.0000000000000000000, 0.0000000000000000000, 0.0000000000000000000 ) ) ;
#189 = DIRECTION ( 'NONE',  ( 0.0000000000000000000, 0.0000000000000000000, -1.000000000000000000 ) ) ;
#190 = DIRECTION ( 'NONE',  ( -0.0000000000000000000, -1.000000000000000000, -0.0000000000000000000 ) ) ;
#191 = CARTESIAN_POINT ( 'NONE',  ( 0.0000000000000000000, 5.999999999999997300, 0.0000000000000000000 ) ) ;
#192 = AXIS2_PLACEMENT_3D ( 'NONE', #183, #194, #187 ) ;
#193 = AXIS2_PLACEMENT_3D ( 'NONE', #188, #186, #185 ) ;
#194 = DIRECTION ( 'NONE',  ( -0.0000000000000000000, -1.000000000000000000, -0.0000000000000000000 ) ) ;
#195 = FACE_OUTER_BOUND ( 'NONE', #34, .T. ) ;
#196 = CIRCLE ( 'NONE', #192, 7.249999999999997300 ) ;
#197 = DIRECTION ( 'NONE',  ( -0.0000000000000000000, -1.000000000000000000, -0.0000000000000000000 ) ) ;
#198 = VECTOR ( 'NONE', #197, 1000.000000000000000 ) ;
#199 = CARTESIAN_POINT ( 'NONE',  ( 0.0000000000000000000, 0.0000000000000000000, -7.249999999999999100 ) ) ;
#200 = CARTESIAN_POINT ( 'NONE',  ( 1.714505518806294800E-015, -1.224606353822376700E-015, 14.00000000000000400 ) ) ;
#201 = CIRCLE ( 'NONE', #208, 14.00000000000000500 ) ;
#202 = AXIS2_PLACEMENT_3D ( 'NONE', #206, #205, #204 ) ;
#203 = CYLINDRICAL_SURFACE ( 'NONE', #193, 14.00000000000000400 ) ;
#204 = DIRECTION ( 'NONE',  ( 0.0000000000000000000, 0.0000000000000000000, -1.000000000000000000 ) ) ;
#205 = DIRECTION ( 'NONE',  ( -0.0000000000000000000, -1.000000000000000000, -0.0000000000000000000 ) ) ;
#206 = CARTESIAN_POINT ( 'NONE',  ( 0.0000000000000000000, -2.051215642652481900E-015, 0.0000000000000000000 ) ) ;
#207 = CIRCLE ( 'NONE', #202, 7.249999999999999100 ) ;
#208 = AXIS2_PLACEMENT_3D ( 'NONE', #191, #190, #189 ) ;
#209 = SPHERICAL_SURFACE ( 'NONE', #213, 32.00000000000000000 ) ;
#210 = DIRECTION ( 'NONE',  ( 1.000000000000000000, 0.0000000000000000000, 0.0000000000000000000 ) ) ;
#211 = DIRECTION ( 'NONE',  ( 0.0000000000000000000, 0.0000000000000000000, 1.000000000000000000 ) ) ;
#212 = FACE_OUTER_BOUND ( 'NONE', #82, .T. ) ;
#213 = AXIS2_PLACEMENT_3D ( 'NONE', #214, #211, #210 ) ;
#214 = CARTESIAN_POINT ( 'NONE',  ( 0.0000000000000000000, 34.87143917438131500, 0.0000000000000000000 ) ) ;
#215 = PERSON ( 'UNSPECIFIED', 'UNSPECIFIED', 'UNSPECIFIED', ('UNSPECIFIED'), ('UNSPECIFIED'), ('UNSPECIFIED') ) ;
#216 = PRODUCT ( 'WDS-401-204F', 'WDS-401-204F', '', ( #217 ) ) ;
#217 = MECHANICAL_CONTEXT ( 'NONE', #301, 'mechanical' ) ;
#218 = APPLICATION_PROTOCOL_DEFINITION ( 'international standard', 'config_control_design', 1994, #301 ) ;
#219 = CALENDAR_DATE ( 2012, 30, 3 ) ;
#220 = LOCAL_TIME ( 14, 6, 40.00000000000000000, #221 ) ;
#221 = COORDINATED_UNIVERSAL_TIME_OFFSET ( 5, 0, .BEHIND. ) ;
#222 = APPROVAL_PERSON_ORGANIZATION ( #226, #224, #223 ) ;
#223 = APPROVAL_ROLE ( '' ) ;
#224 = APPROVAL ( #225, 'UNSPECIFIED' ) ;
#225 = APPROVAL_STATUS ( 'not_yet_approved' ) ;
#226 = PERSON_AND_ORGANIZATION ( #215, #256 ) ;
#227 = PRODUCT_DEFINITION_FORMATION_WITH_SPECIFIED_SOURCE ( 'ANY', '', #216, .NOT_KNOWN. ) ;
#228 = SHAPE_DEFINITION_REPRESENTATION ( #273, #296 ) ;
#229 = CC_DESIGN_DATE_AND_TIME_ASSIGNMENT ( #231, #230, ( #249 ) ) ;
#230 = DATE_TIME_ROLE ( 'creation_date' ) ;
#231 = DATE_AND_TIME ( #232, #233 ) ;
#232 = CALENDAR_DATE ( 2012, 30, 3 ) ;
#233 = LOCAL_TIME ( 14, 6, 40.00000000000000000, #234 ) ;
#234 = COORDINATED_UNIVERSAL_TIME_OFFSET ( 5, 0, .BEHIND. ) ;
#235 = CC_DESIGN_PERSON_AND_ORGANIZATION_ASSIGNMENT ( #237, #236, ( #249 ) ) ;
#236 = PERSON_AND_ORGANIZATION_ROLE ( 'creator' ) ;
#237 = PERSON_AND_ORGANIZATION ( #215, #256 ) ;
#238 = CC_DESIGN_APPROVAL ( #246, ( #249 ) ) ;
#239 = APPROVAL_DATE_TIME ( #240, #246 ) ;
#240 = DATE_AND_TIME ( #241, #242 ) ;
#241 = CALENDAR_DATE ( 2012, 30, 3 ) ;
#242 = LOCAL_TIME ( 14, 6, 40.00000000000000000, #243 ) ;
#243 = COORDINATED_UNIVERSAL_TIME_OFFSET ( 5, 0, .BEHIND. ) ;
#244 = APPROVAL_PERSON_ORGANIZATION ( #248, #246, #245 ) ;
#245 = APPROVAL_ROLE ( '' ) ;
#246 = APPROVAL ( #247, 'UNSPECIFIED' ) ;
#247 = APPROVAL_STATUS ( 'not_yet_approved' ) ;
#248 = PERSON_AND_ORGANIZATION ( #215, #256 ) ;
#249 = PRODUCT_DEFINITION ( 'UNKNOWN', '', #227, #250 ) ;
#250 = DESIGN_CONTEXT ( 'detailed design', #252, 'design' ) ;
#251 = APPLICATION_PROTOCOL_DEFINITION ( 'international standard', 'config_control_design', 1994, #252 ) ;
#252 = APPLICATION_CONTEXT ( 'configuration controlled 3d designs of mechanical parts and assemblies' ) ;
#253 = CC_DESIGN_PERSON_AND_ORGANIZATION_ASSIGNMENT ( #255, #254, ( #216 ) ) ;
#254 = PERSON_AND_ORGANIZATION_ROLE ( 'design_owner' ) ;
#255 = PERSON_AND_ORGANIZATION ( #215, #256 ) ;
#256 = ORGANIZATION ( 'UNSPECIFIED', 'UNSPECIFIED', '' ) ;
#257 = SECURITY_CLASSIFICATION ( '', '', #258 ) ;
#258 = SECURITY_CLASSIFICATION_LEVEL ( 'unclassified' ) ;
#259 = CC_DESIGN_PERSON_AND_ORGANIZATION_ASSIGNMENT ( #261, #260, ( #227 ) ) ;
#260 = PERSON_AND_ORGANIZATION_ROLE ( 'design_supplier' ) ;
#261 = PERSON_AND_ORGANIZATION ( #215, #256 ) ;
#262 = CC_DESIGN_PERSON_AND_ORGANIZATION_ASSIGNMENT ( #264, #263, ( #227 ) ) ;
#263 = PERSON_AND_ORGANIZATION_ROLE ( 'creator' ) ;
#264 = PERSON_AND_ORGANIZATION ( #215, #256 ) ;
#265 = CC_DESIGN_APPROVAL ( #224, ( #227 ) ) ;
#266 = APPROVAL_DATE_TIME ( #267, #224 ) ;
#267 = DATE_AND_TIME ( #219, #220 ) ;
#268 = CARTESIAN_POINT ( 'NONE',  ( 13.80000000000000200, 5.999999999999995600, 0.0000000000000000000 ) ) ;
#269 = CIRCLE ( 'NONE', #321, 32.00000000000000000 ) ;
#270 = CARTESIAN_POINT ( 'NONE',  ( 7.249999999999997300, 3.703547041611085200, 0.0000000000000000000 ) ) ;
#271 = CIRCLE ( 'NONE', #319, 7.249999999999997300 ) ;
#272 = FACE_OUTER_BOUND ( 'NONE', #89, .T. ) ;
#273 = PRODUCT_DEFINITION_SHAPE ( 'NONE', 'NONE',  #249 ) ;
#274 = PRODUCT_RELATED_PRODUCT_CATEGORY ( 'detail', '', ( #216 ) ) ;
#275 = CC_DESIGN_SECURITY_CLASSIFICATION ( #257, ( #227 ) ) ;
#276 = CC_DESIGN_APPROVAL ( #284, ( #257 ) ) ;
#277 = APPROVAL_DATE_TIME ( #278, #284 ) ;
#278 = DATE_AND_TIME ( #279, #280 ) ;
#279 = CALENDAR_DATE ( 2012, 30, 3 ) ;
#280 = LOCAL_TIME ( 14, 6, 40.00000000000000000, #281 ) ;
#281 = COORDINATED_UNIVERSAL_TIME_OFFSET ( 5, 0, .BEHIND. ) ;
#282 = APPROVAL_PERSON_ORGANIZATION ( #286, #284, #283 ) ;
#283 = APPROVAL_ROLE ( '' ) ;
#284 = APPROVAL ( #285, 'UNSPECIFIED' ) ;
#285 = APPROVAL_STATUS ( 'not_yet_approved' ) ;
#286 = PERSON_AND_ORGANIZATION ( #215, #256 ) ;
#287 = CC_DESIGN_DATE_AND_TIME_ASSIGNMENT ( #289, #288, ( #257 ) ) ;
#288 = DATE_TIME_ROLE ( 'classification_date' ) ;
#289 = DATE_AND_TIME ( #290, #291 ) ;
#290 = CALENDAR_DATE ( 2012, 30, 3 ) ;
#291 = LOCAL_TIME ( 14, 6, 40.00000000000000000, #292 ) ;
#292 = COORDINATED_UNIVERSAL_TIME_OFFSET ( 5, 0, .BEHIND. ) ;
#293 = CC_DESIGN_PERSON_AND_ORGANIZATION_ASSIGNMENT ( #295, #294, ( #257 ) ) ;
#294 = PERSON_AND_ORGANIZATION_ROLE ( 'classification_officer' ) ;
#295 = PERSON_AND_ORGANIZATION ( #215, #256 ) ;
#296 = ADVANCED_BREP_SHAPE_REPRESENTATION ( 'WDS-401-204F', ( #28, #310 ), #297 ) ;
#297 =( GEOMETRIC_REPRESENTATION_CONTEXT ( 3 ) GLOBAL_UNCERTAINTY_ASSIGNED_CONTEXT ( ( #302 ) ) GLOBAL_UNIT_ASSIGNED_CONTEXT ( ( #305, #304, #303 ) ) REPRESENTATION_CONTEXT ( 'NONE', 'WORKASPACE' ) );
#298 = DIRECTION ( 'NONE',  ( 1.000000000000000000, 0.0000000000000000000, 0.0000000000000000000 ) ) ;
#299 = DIRECTION ( 'NONE',  ( 0.0000000000000000000, 0.0000000000000000000, 1.000000000000000000 ) ) ;
#300 = CARTESIAN_POINT ( 'NONE',  ( 0.0000000000000000000, 0.0000000000000000000, 0.0000000000000000000 ) ) ;
#301 = APPLICATION_CONTEXT ( 'configuration controlled 3d designs of mechanical parts and assemblies' ) ;
#302 = UNCERTAINTY_MEASURE_WITH_UNIT (LENGTH_MEASURE( 1.000000000000000100E-005 ), #305, 'distance_accuracy_value', 'NONE');
#303 =( NAMED_UNIT ( * ) SI_UNIT ( $, .STERADIAN. ) SOLID_ANGLE_UNIT ( ) );
#304 =( NAMED_UNIT ( * ) PLANE_ANGLE_UNIT ( ) SI_UNIT ( $, .RADIAN. ) );
#305 =( LENGTH_UNIT ( ) NAMED_UNIT ( * ) SI_UNIT ( .MILLI., .METRE. ) );
#306 = DIRECTION ( 'NONE',  ( 0.0000000000000000000, 0.0000000000000000000, -1.000000000000000000 ) ) ;
#307 = DIRECTION ( 'NONE',  ( 0.0000000000000000000, -1.000000000000000000, -0.0000000000000000000 ) ) ;
#308 = CARTESIAN_POINT ( 'NONE',  ( 13.80000000000000400, 5.999999999999996400, 0.0000000000000000000 ) ) ;
#309 = AXIS2_PLACEMENT_3D ( 'NONE', #308, #307, #306 ) ;
#310 = AXIS2_PLACEMENT_3D ( 'NONE', #300, #299, #298 ) ;
#311 = FACE_BOUND ( 'NONE', #26, .T. ) ;
#312 = DIRECTION ( 'NONE',  ( 1.000000000000000000, 0.0000000000000000000, -1.224646799147353200E-016 ) ) ;
#313 = DIRECTION ( 'NONE',  ( 1.224646799147353200E-016, -0.0000000000000000000, 1.000000000000000000 ) ) ;
#314 = CARTESIAN_POINT ( 'NONE',  ( 0.0000000000000000000, 34.87143917438131500, 0.0000000000000000000 ) ) ;
#315 = PLANE ( 'NONE',  #309 ) ;
#316 = DIRECTION ( 'NONE',  ( 0.0000000000000000000, 0.0000000000000000000, -1.000000000000000000 ) ) ;
#317 = DIRECTION ( 'NONE',  ( -0.0000000000000000000, -1.000000000000000000, -0.0000000000000000000 ) ) ;
#318 = CARTESIAN_POINT ( 'NONE',  ( 0.0000000000000000000, 3.703547041611085200, 0.0000000000000000000 ) ) ;
#319 = AXIS2_PLACEMENT_3D ( 'NONE', #318, #317, #316 ) ;
#320 = CARTESIAN_POINT ( 'NONE',  ( -7.249999999999997300, 3.703547041611085200, 1.288940756102589400E-015 ) ) ;
#321 = AXIS2_PLACEMENT_3D ( 'NONE', #314, #313, #312 ) ;
ENDSEC;
END-ISO-10303-21;
