ISO-10303-21;
HEADER;
FILE_DESCRIPTION (( 'STEP AP203' ),
    '1' );
FILE_NAME ('WDS-401-203F.step',
    '2011-12-01T12:24:23',
    ( 'SysAdmin' ),
    ( 'SolidWorks' ),
    'SwSTEP 2.0',
    'SolidWorks 2012',
    '' );
FILE_SCHEMA (( 'CONFIG_CONTROL_DESIGN' ));
ENDSEC;

DATA;
#1 = CARTESIAN_POINT ( 'NONE',  ( 0.0000000000000000000, -3.673940397442063800E-016, -11.00000000000000000 ) ) ;
#2 = CARTESIAN_POINT ( 'NONE',  ( -6.000000000000000000, 3.477517934352480900, 1.028703311283776400E-015 ) ) ;
#3 = AXIS2_PLACEMENT_3D ( 'NONE', #157, #156, #155 ) ;
#4 = LINE ( 'NONE', #164, #163 ) ;
#5 = DIRECTION ( 'NONE',  ( -0.0000000000000000000, -1.000000000000000000, -0.0000000000000000000 ) ) ;
#6 = FACE_OUTER_BOUND ( 'NONE', #33, .T. ) ;
#7 = CARTESIAN_POINT ( 'NONE',  ( 7.347880794884119700E-016, 3.477517934352480900, 6.000000000000000000 ) ) ;
#8 = VERTEX_POINT ( 'NONE', #7 ) ;
#9 = ADVANCED_FACE ( 'NONE', ( #6 ), #47, .F. ) ;
#10 = ORIENTED_EDGE ( 'NONE', *, *, #12, .T. ) ;
#11 = ORIENTED_EDGE ( 'NONE', *, *, #82, .F. ) ;
#12 = EDGE_CURVE ( 'NONE', #8, #43, #4, .T. ) ;
#13 = ORIENTED_EDGE ( 'NONE', *, *, #90, .F. ) ;
#14 = VERTEX_POINT ( 'NONE', #1 ) ;
#15 = EDGE_CURVE ( 'NONE', #37, #19, #74, .T. ) ;
#16 = VERTEX_POINT ( 'NONE', #159 ) ;
#17 = VERTEX_POINT ( 'NONE', #2 ) ;
#18 = VERTEX_POINT ( 'NONE', #158 ) ;
#19 = VERTEX_POINT ( 'NONE', #161 ) ;
#20 = EDGE_CURVE ( 'NONE', #38, #14, #149, .T. ) ;
#21 = EDGE_CURVE ( 'NONE', #25, #43, #144, .T. ) ;
#22 = ORIENTED_EDGE ( 'NONE', *, *, #15, .F. ) ;
#23 = CARTESIAN_POINT ( 'NONE',  ( 0.0000000000000000000, 0.0000000000000000000, 0.0000000000000000000 ) ) ;
#24 = ORIENTED_EDGE ( 'NONE', *, *, #73, .F. ) ;
#25 = VERTEX_POINT ( 'NONE', #153 ) ;
#26 = ORIENTED_EDGE ( 'NONE', *, *, #15, .T. ) ;
#27 = EDGE_LOOP ( 'NONE', ( #80, #24, #22, #72, #71 ) ) ;
#28 = ORIENTED_EDGE ( 'NONE', *, *, #30, .T. ) ;
#29 = EDGE_CURVE ( 'NONE', #37, #25, #138, .T. ) ;
#30 = EDGE_CURVE ( 'NONE', #43, #25, #140, .T. ) ;
#31 = EDGE_CURVE ( 'NONE', #14, #38, #113, .T. ) ;
#32 = ORIENTED_EDGE ( 'NONE', *, *, #31, .F. ) ;
#33 = EDGE_LOOP ( 'NONE', ( #11, #10, #28, #34, #13 ) ) ;
#34 = ORIENTED_EDGE ( 'NONE', *, *, #29, .F. ) ;
#35 = ORIENTED_EDGE ( 'NONE', *, *, #20, .T. ) ;
#36 = EDGE_CURVE ( 'NONE', #83, #14, #110, .T. ) ;
#37 = VERTEX_POINT ( 'NONE', #107 ) ;
#38 = VERTEX_POINT ( 'NONE', #106 ) ;
#39 = EDGE_CURVE ( 'NONE', #83, #84, #150, .T. ) ;
#40 = ORIENTED_EDGE ( 'NONE', *, *, #39, .T. ) ;
#41 = EDGE_CURVE ( 'NONE', #84, #38, #134, .T. ) ;
#42 = EDGE_LOOP ( 'NONE', ( #45, #35 ) ) ;
#43 = VERTEX_POINT ( 'NONE', #103 ) ;
#44 = ORIENTED_EDGE ( 'NONE', *, *, #36, .F. ) ;
#45 = ORIENTED_EDGE ( 'NONE', *, *, #31, .T. ) ;
#46 = ADVANCED_FACE ( 'NONE', ( #101, #114 ), #129, .T. ) ;
#47 = CYLINDRICAL_SURFACE ( 'NONE', #48, 6.000000000000000000 ) ;
#48 = AXIS2_PLACEMENT_3D ( 'NONE', #23, #5, #165 ) ;
#49 = ORIENTED_EDGE ( 'NONE', *, *, #94, .T. ) ;
#50 = ORIENTED_EDGE ( 'NONE', *, *, #52, .T. ) ;
#51 = ORIENTED_EDGE ( 'NONE', *, *, #36, .T. ) ;
#52 = EDGE_CURVE ( 'NONE', #18, #16, #102, .T. ) ;
#53 = ADVANCED_FACE ( 'NONE', ( #126 ), #123, .F. ) ;
#54 = ORIENTED_EDGE ( 'NONE', *, *, #95, .T. ) ;
#55 = EDGE_CURVE ( 'NONE', #84, #83, #181, .T. ) ;
#56 = EDGE_LOOP ( 'NONE', ( #69, #65, #51, #68 ) ) ;
#57 = ADVANCED_FACE ( 'NONE', ( #185, #184 ), #183, .F. ) ;
#58 = EDGE_LOOP ( 'NONE', ( #50, #49 ) ) ;
#59 = ORIENTED_EDGE ( 'NONE', *, *, #55, .F. ) ;
#60 = ORIENTED_EDGE ( 'NONE', *, *, #91, .F. ) ;
#61 = ORIENTED_EDGE ( 'NONE', *, *, #52, .F. ) ;
#62 = ORIENTED_EDGE ( 'NONE', *, *, #73, .T. ) ;
#63 = ORIENTED_EDGE ( 'NONE', *, *, #82, .T. ) ;
#64 = ORIENTED_EDGE ( 'NONE', *, *, #39, .F. ) ;
#65 = ORIENTED_EDGE ( 'NONE', *, *, #55, .T. ) ;
#66 = EDGE_LOOP ( 'NONE', ( #64, #59 ) ) ;
#67 = EDGE_LOOP ( 'NONE', ( #60, #61, #54, #62, #63 ) ) ;
#68 = ORIENTED_EDGE ( 'NONE', *, *, #20, .F. ) ;
#69 = ORIENTED_EDGE ( 'NONE', *, *, #41, .F. ) ;
#70 = ADVANCED_FACE ( 'NONE', ( #186 ), #176, .T. ) ;
#71 = ORIENTED_EDGE ( 'NONE', *, *, #21, .T. ) ;
#72 = ORIENTED_EDGE ( 'NONE', *, *, #29, .T. ) ;
#73 = EDGE_CURVE ( 'NONE', #19, #8, #130, .T. ) ;
#74 = CIRCLE ( 'NONE', #3, 6.000000000000000000 ) ;
#75 = CLOSED_SHELL ( 'NONE', ( #87, #85, #9, #46, #97, #70, #53, #57 ) ) ;
#76 = MANIFOLD_SOLID_BREP ( 'Cut-Revolve1', #75 ) ;
#77 = EDGE_LOOP ( 'NONE', ( #78, #79 ) ) ;
#78 = ORIENTED_EDGE ( 'NONE', *, *, #21, .F. ) ;
#79 = ORIENTED_EDGE ( 'NONE', *, *, #30, .F. ) ;
#80 = ORIENTED_EDGE ( 'NONE', *, *, #12, .F. ) ;
#81 = ORIENTED_EDGE ( 'NONE', *, *, #95, .F. ) ;
#82 = EDGE_CURVE ( 'NONE', #8, #17, #166, .T. ) ;
#83 = VERTEX_POINT ( 'NONE', #127 ) ;
#84 = VERTEX_POINT ( 'NONE', #170 ) ;
#85 = ADVANCED_FACE ( 'NONE', ( #204 ), #171, .T. ) ;
#86 = ORIENTED_EDGE ( 'NONE', *, *, #41, .T. ) ;
#87 = ADVANCED_FACE ( 'NONE', ( #201 ), #200, .F. ) ;
#88 = ORIENTED_EDGE ( 'NONE', *, *, #91, .T. ) ;
#89 = ORIENTED_EDGE ( 'NONE', *, *, #90, .T. ) ;
#90 = EDGE_CURVE ( 'NONE', #17, #37, #209, .T. ) ;
#91 = EDGE_CURVE ( 'NONE', #16, #17, #215, .T. ) ;
#92 = EDGE_LOOP ( 'NONE', ( #40, #86, #32, #44 ) ) ;
#93 = EDGE_LOOP ( 'NONE', ( #96, #88, #89, #26, #81 ) ) ;
#94 = EDGE_CURVE ( 'NONE', #16, #18, #321, .T. ) ;
#95 = EDGE_CURVE ( 'NONE', #18, #19, #226, .T. ) ;
#96 = ORIENTED_EDGE ( 'NONE', *, *, #94, .F. ) ;
#97 = ADVANCED_FACE ( 'NONE', ( #315 ), #253, .F. ) ;
#98 = DIRECTION ( 'NONE',  ( 0.0000000000000000000, 0.0000000000000000000, -1.000000000000000000 ) ) ;
#99 = DIRECTION ( 'NONE',  ( -0.0000000000000000000, -1.000000000000000000, -0.0000000000000000000 ) ) ;
#100 = CARTESIAN_POINT ( 'NONE',  ( 0.0000000000000000000, 5.199999999999998400, 0.0000000000000000000 ) ) ;
#101 = FACE_OUTER_BOUND ( 'NONE', #42, .T. ) ;
#102 = CIRCLE ( 'NONE', #122, 10.79999999999999700 ) ;
#103 = CARTESIAN_POINT ( 'NONE',  ( 7.347880794884119700E-016, -9.797174393178831600E-016, 6.000000000000000000 ) ) ;
#104 = AXIS2_PLACEMENT_3D ( 'NONE', #179, #178, #177 ) ;
#105 = DIRECTION ( 'NONE',  ( -0.0000000000000000000, -1.000000000000000000, -0.0000000000000000000 ) ) ;
#106 = CARTESIAN_POINT ( 'NONE',  ( 1.347111479062088400E-015, -3.673940397442063800E-016, 11.00000000000000000 ) ) ;
#107 = CARTESIAN_POINT ( 'NONE',  ( 0.0000000000000000000, 3.477517934352480900, -6.000000000000000000 ) ) ;
#108 = VECTOR ( 'NONE', #105, 1000.000000000000000 ) ;
#109 = CARTESIAN_POINT ( 'NONE',  ( 0.0000000000000000000, 0.0000000000000000000, -11.00000000000000000 ) ) ;
#110 = LINE ( 'NONE', #109, #108 ) ;
#111 = DIRECTION ( 'NONE',  ( 0.0000000000000000000, 0.0000000000000000000, -1.000000000000000000 ) ) ;
#112 = DIRECTION ( 'NONE',  ( -0.0000000000000000000, -1.000000000000000000, -0.0000000000000000000 ) ) ;
#113 = CIRCLE ( 'NONE', #151, 11.00000000000000000 ) ;
#114 = FACE_BOUND ( 'NONE', #77, .T. ) ;
#115 = CARTESIAN_POINT ( 'NONE',  ( 11.00000000000000000, -6.735557395310447000E-016, 0.0000000000000000000 ) ) ;
#116 = DIRECTION ( 'NONE',  ( 0.0000000000000000000, 0.0000000000000000000, -1.000000000000000000 ) ) ;
#117 = DIRECTION ( 'NONE',  ( -0.0000000000000000000, -1.000000000000000000, -0.0000000000000000000 ) ) ;
#118 = AXIS2_PLACEMENT_3D ( 'NONE', #100, #99, #98 ) ;
#119 = AXIS2_PLACEMENT_3D ( 'NONE', #180, #174, #173 ) ;
#120 = DIRECTION ( 'NONE',  ( -0.0000000000000000000, -1.000000000000000000, -0.0000000000000000000 ) ) ;
#121 = CARTESIAN_POINT ( 'NONE',  ( 0.0000000000000000000, 5.199999999999998400, 0.0000000000000000000 ) ) ;
#122 = AXIS2_PLACEMENT_3D ( 'NONE', #121, #188, #187 ) ;
#123 = SPHERICAL_SURFACE ( 'NONE', #128, 25.00000000000000000 ) ;
#124 = DIRECTION ( 'NONE',  ( 0.0000000000000000000, 0.0000000000000000000, -1.000000000000000000 ) ) ;
#125 = DIRECTION ( 'NONE',  ( 0.0000000000000000000, -1.000000000000000000, -0.0000000000000000000 ) ) ;
#126 = FACE_OUTER_BOUND ( 'NONE', #67, .T. ) ;
#127 = CARTESIAN_POINT ( 'NONE',  ( 0.0000000000000000000, 5.199999999999998400, -10.99999999999999800 ) ) ;
#128 = AXIS2_PLACEMENT_3D ( 'NONE', #190, #189, #182 ) ;
#129 = PLANE ( 'NONE',  #135 ) ;
#130 = CIRCLE ( 'NONE', #175, 6.000000000000000000 ) ;
#131 = DIRECTION ( 'NONE',  ( -0.0000000000000000000, -1.000000000000000000, -0.0000000000000000000 ) ) ;
#132 = VECTOR ( 'NONE', #131, 1000.000000000000000 ) ;
#133 = CARTESIAN_POINT ( 'NONE',  ( 1.347111479062088400E-015, 0.0000000000000000000, 11.00000000000000000 ) ) ;
#134 = LINE ( 'NONE', #133, #132 ) ;
#135 = AXIS2_PLACEMENT_3D ( 'NONE', #115, #125, #124 ) ;
#136 = VECTOR ( 'NONE', #120, 1000.000000000000000 ) ;
#137 = CARTESIAN_POINT ( 'NONE',  ( 0.0000000000000000000, 0.0000000000000000000, -6.000000000000000000 ) ) ;
#138 = LINE ( 'NONE', #137, #136 ) ;
#139 = CARTESIAN_POINT ( 'NONE',  ( 0.0000000000000000000, -9.797174393178831600E-016, 0.0000000000000000000 ) ) ;
#140 = CIRCLE ( 'NONE', #143, 6.000000000000000000 ) ;
#141 = DIRECTION ( 'NONE',  ( 0.0000000000000000000, 0.0000000000000000000, -1.000000000000000000 ) ) ;
#142 = DIRECTION ( 'NONE',  ( -0.0000000000000000000, -1.000000000000000000, -0.0000000000000000000 ) ) ;
#143 = AXIS2_PLACEMENT_3D ( 'NONE', #139, #117, #116 ) ;
#144 = CIRCLE ( 'NONE', #154, 6.000000000000000000 ) ;
#145 = DIRECTION ( 'NONE',  ( 0.0000000000000000000, 0.0000000000000000000, -1.000000000000000000 ) ) ;
#146 = DIRECTION ( 'NONE',  ( -0.0000000000000000000, -1.000000000000000000, -0.0000000000000000000 ) ) ;
#147 = CARTESIAN_POINT ( 'NONE',  ( 0.0000000000000000000, -3.673940397442063800E-016, 0.0000000000000000000 ) ) ;
#148 = AXIS2_PLACEMENT_3D ( 'NONE', #147, #146, #145 ) ;
#149 = CIRCLE ( 'NONE', #148, 11.00000000000000000 ) ;
#150 = CIRCLE ( 'NONE', #118, 10.99999999999999800 ) ;
#151 = AXIS2_PLACEMENT_3D ( 'NONE', #152, #112, #111 ) ;
#152 = CARTESIAN_POINT ( 'NONE',  ( 0.0000000000000000000, -3.673940397442063800E-016, 0.0000000000000000000 ) ) ;
#153 = CARTESIAN_POINT ( 'NONE',  ( 0.0000000000000000000, -9.797174393178831600E-016, -6.000000000000000000 ) ) ;
#154 = AXIS2_PLACEMENT_3D ( 'NONE', #160, #142, #141 ) ;
#155 = DIRECTION ( 'NONE',  ( 0.0000000000000000000, 0.0000000000000000000, -1.000000000000000000 ) ) ;
#156 = DIRECTION ( 'NONE',  ( -0.0000000000000000000, -1.000000000000000000, -0.0000000000000000000 ) ) ;
#157 = CARTESIAN_POINT ( 'NONE',  ( 0.0000000000000000000, 3.477517934352480900, 0.0000000000000000000 ) ) ;
#158 = CARTESIAN_POINT ( 'NONE',  ( 10.79999999999999700, 5.199999999999999300, 0.0000000000000000000 ) ) ;
#159 = CARTESIAN_POINT ( 'NONE',  ( -10.79999999999999700, 5.199999999999999300, 1.322618543079141300E-015 ) ) ;
#160 = CARTESIAN_POINT ( 'NONE',  ( 0.0000000000000000000, -9.797174393178831600E-016, 0.0000000000000000000 ) ) ;
#161 = CARTESIAN_POINT ( 'NONE',  ( 6.000000000000000000, 3.477517934352480900, 0.0000000000000000000 ) ) ;
#162 = DIRECTION ( 'NONE',  ( -0.0000000000000000000, -1.000000000000000000, -0.0000000000000000000 ) ) ;
#163 = VECTOR ( 'NONE', #162, 1000.000000000000000 ) ;
#164 = CARTESIAN_POINT ( 'NONE',  ( 7.347880794884119700E-016, 0.0000000000000000000, 6.000000000000000000 ) ) ;
#165 = DIRECTION ( 'NONE',  ( 0.0000000000000000000, 0.0000000000000000000, -1.000000000000000000 ) ) ;
#166 = CIRCLE ( 'NONE', #210, 6.000000000000000000 ) ;
#167 = DIRECTION ( 'NONE',  ( 0.0000000000000000000, 0.0000000000000000000, -1.000000000000000000 ) ) ;
#168 = DIRECTION ( 'NONE',  ( -0.0000000000000000000, -1.000000000000000000, -0.0000000000000000000 ) ) ;
#169 = CARTESIAN_POINT ( 'NONE',  ( 0.0000000000000000000, 0.0000000000000000000, 0.0000000000000000000 ) ) ;
#170 = CARTESIAN_POINT ( 'NONE',  ( 1.347111479062088200E-015, 5.199999999999998400, 10.99999999999999800 ) ) ;
#171 = CYLINDRICAL_SURFACE ( 'NONE', #202, 11.00000000000000000 ) ;
#172 = AXIS2_PLACEMENT_3D ( 'NONE', #169, #168, #167 ) ;
#173 = DIRECTION ( 'NONE',  ( 0.0000000000000000000, 0.0000000000000000000, -1.000000000000000000 ) ) ;
#174 = DIRECTION ( 'NONE',  ( 0.0000000000000000000, -1.000000000000000000, -0.0000000000000000000 ) ) ;
#175 = AXIS2_PLACEMENT_3D ( 'NONE', #213, #212, #211 ) ;
#176 = CYLINDRICAL_SURFACE ( 'NONE', #172, 11.00000000000000000 ) ;
#177 = DIRECTION ( 'NONE',  ( 0.0000000000000000000, 0.0000000000000000000, -1.000000000000000000 ) ) ;
#178 = DIRECTION ( 'NONE',  ( -0.0000000000000000000, -1.000000000000000000, -0.0000000000000000000 ) ) ;
#179 = CARTESIAN_POINT ( 'NONE',  ( 0.0000000000000000000, 5.199999999999998400, 0.0000000000000000000 ) ) ;
#180 = CARTESIAN_POINT ( 'NONE',  ( 10.79999999999999700, 5.199999999999998400, 0.0000000000000000000 ) ) ;
#181 = CIRCLE ( 'NONE', #104, 10.99999999999999800 ) ;
#182 = DIRECTION ( 'NONE',  ( 1.000000000000000000, 0.0000000000000000000, 0.0000000000000000000 ) ) ;
#183 = PLANE ( 'NONE',  #119 ) ;
#184 = FACE_BOUND ( 'NONE', #58, .T. ) ;
#185 = FACE_OUTER_BOUND ( 'NONE', #66, .T. ) ;
#186 = FACE_OUTER_BOUND ( 'NONE', #56, .T. ) ;
#187 = DIRECTION ( 'NONE',  ( 0.0000000000000000000, 0.0000000000000000000, -1.000000000000000000 ) ) ;
#188 = DIRECTION ( 'NONE',  ( -0.0000000000000000000, -1.000000000000000000, -0.0000000000000000000 ) ) ;
#189 = DIRECTION ( 'NONE',  ( 0.0000000000000000000, 0.0000000000000000000, 1.000000000000000000 ) ) ;
#190 = CARTESIAN_POINT ( 'NONE',  ( 0.0000000000000000000, 27.74684013337567700, 0.0000000000000000000 ) ) ;
#191 = DIRECTION ( 'NONE',  ( 0.0000000000000000000, 0.0000000000000000000, -1.000000000000000000 ) ) ;
#192 = DIRECTION ( 'NONE',  ( -0.0000000000000000000, -1.000000000000000000, -0.0000000000000000000 ) ) ;
#193 = CARTESIAN_POINT ( 'NONE',  ( 0.0000000000000000000, 3.477517934352480900, 0.0000000000000000000 ) ) ;
#194 = AXIS2_PLACEMENT_3D ( 'NONE', #193, #192, #191 ) ;
#195 = DIRECTION ( 'NONE',  ( 1.000000000000000000, 0.0000000000000000000, 0.0000000000000000000 ) ) ;
#196 = DIRECTION ( 'NONE',  ( 0.0000000000000000000, 0.0000000000000000000, 1.000000000000000000 ) ) ;
#197 = DIRECTION ( 'NONE',  ( 0.0000000000000000000, 0.0000000000000000000, -1.000000000000000000 ) ) ;
#198 = AXIS2_PLACEMENT_3D ( 'NONE', #203, #196, #195 ) ;
#199 = CARTESIAN_POINT ( 'NONE',  ( 0.0000000000000000000, 0.0000000000000000000, 0.0000000000000000000 ) ) ;
#200 = SPHERICAL_SURFACE ( 'NONE', #198, 25.00000000000000000 ) ;
#201 = FACE_OUTER_BOUND ( 'NONE', #93, .T. ) ;
#202 = AXIS2_PLACEMENT_3D ( 'NONE', #199, #205, #197 ) ;
#203 = CARTESIAN_POINT ( 'NONE',  ( 0.0000000000000000000, 27.74684013337567700, 0.0000000000000000000 ) ) ;
#204 = FACE_OUTER_BOUND ( 'NONE', #92, .T. ) ;
#205 = DIRECTION ( 'NONE',  ( -0.0000000000000000000, -1.000000000000000000, -0.0000000000000000000 ) ) ;
#206 = DIRECTION ( 'NONE',  ( 0.0000000000000000000, 0.0000000000000000000, -1.000000000000000000 ) ) ;
#207 = DIRECTION ( 'NONE',  ( -0.0000000000000000000, -1.000000000000000000, -0.0000000000000000000 ) ) ;
#208 = CARTESIAN_POINT ( 'NONE',  ( 0.0000000000000000000, 3.477517934352480900, 0.0000000000000000000 ) ) ;
#209 = CIRCLE ( 'NONE', #194, 6.000000000000000000 ) ;
#210 = AXIS2_PLACEMENT_3D ( 'NONE', #208, #207, #206 ) ;
#211 = DIRECTION ( 'NONE',  ( 0.0000000000000000000, 0.0000000000000000000, -1.000000000000000000 ) ) ;
#212 = DIRECTION ( 'NONE',  ( -0.0000000000000000000, -1.000000000000000000, -0.0000000000000000000 ) ) ;
#213 = CARTESIAN_POINT ( 'NONE',  ( 0.0000000000000000000, 3.477517934352480900, 0.0000000000000000000 ) ) ;
#214 = APPLICATION_PROTOCOL_DEFINITION ( 'international standard', 'config_control_design', 1994, #231 ) ;
#215 = CIRCLE ( 'NONE', #220, 25.00000000000000000 ) ;
#216 = AXIS2_PLACEMENT_3D ( 'NONE', #272, #273, #320 ) ;
#217 = DIRECTION ( 'NONE',  ( 1.224646799147353200E-016, -0.0000000000000000000, 1.000000000000000000 ) ) ;
#218 = DIRECTION ( 'NONE',  ( -0.0000000000000000000, -1.000000000000000000, -0.0000000000000000000 ) ) ;
#219 = CARTESIAN_POINT ( 'NONE',  ( 0.0000000000000000000, 5.199999999999998400, 0.0000000000000000000 ) ) ;
#220 = AXIS2_PLACEMENT_3D ( 'NONE', #317, #217, #316 ) ;
#221 = UNCERTAINTY_MEASURE_WITH_UNIT (LENGTH_MEASURE( 1.000000000000000100E-005 ), #319, 'distance_accuracy_value', 'NONE');
#222 =( NAMED_UNIT ( * ) SI_UNIT ( $, .STERADIAN. ) SOLID_ANGLE_UNIT ( ) );
#223 =( NAMED_UNIT ( * ) PLANE_ANGLE_UNIT ( ) SI_UNIT ( $, .RADIAN. ) );
#224 = ADVANCED_BREP_SHAPE_REPRESENTATION ( 'WDS-401-203F', ( #76, #227 ), #225 ) ;
#225 =( GEOMETRIC_REPRESENTATION_CONTEXT ( 3 ) GLOBAL_UNCERTAINTY_ASSIGNED_CONTEXT ( ( #221 ) ) GLOBAL_UNIT_ASSIGNED_CONTEXT ( ( #319, #223, #222 ) ) REPRESENTATION_CONTEXT ( 'NONE', 'WORKASPACE' ) );
#226 = CIRCLE ( 'NONE', #216, 25.00000000000000000 ) ;
#227 = AXIS2_PLACEMENT_3D ( 'NONE', #230, #229, #228 ) ;
#228 = DIRECTION ( 'NONE',  ( 1.000000000000000000, 0.0000000000000000000, 0.0000000000000000000 ) ) ;
#229 = DIRECTION ( 'NONE',  ( 0.0000000000000000000, 0.0000000000000000000, 1.000000000000000000 ) ) ;
#230 = CARTESIAN_POINT ( 'NONE',  ( 0.0000000000000000000, 0.0000000000000000000, 0.0000000000000000000 ) ) ;
#231 = APPLICATION_CONTEXT ( 'configuration controlled 3d designs of mechanical parts and assemblies' ) ;
#232 = SHAPE_DEFINITION_REPRESENTATION ( #262, #224 ) ;
#233 = COORDINATED_UNIVERSAL_TIME_OFFSET ( 5, 0, .BEHIND. ) ;
#234 = CC_DESIGN_PERSON_AND_ORGANIZATION_ASSIGNMENT ( #236, #235, ( #248 ) ) ;
#235 = PERSON_AND_ORGANIZATION_ROLE ( 'creator' ) ;
#236 = PERSON_AND_ORGANIZATION ( #259, #257 ) ;
#237 = CC_DESIGN_APPROVAL ( #245, ( #248 ) ) ;
#238 = APPROVAL_DATE_TIME ( #239, #245 ) ;
#239 = DATE_AND_TIME ( #240, #241 ) ;
#240 = CALENDAR_DATE ( 2011, 1, 12 ) ;
#241 = LOCAL_TIME ( 7, 24, 23.00000000000000000, #242 ) ;
#242 = COORDINATED_UNIVERSAL_TIME_OFFSET ( 5, 0, .BEHIND. ) ;
#243 = APPROVAL_PERSON_ORGANIZATION ( #247, #245, #244 ) ;
#244 = APPROVAL_ROLE ( '' ) ;
#245 = APPROVAL ( #246, 'UNSPECIFIED' ) ;
#246 = APPROVAL_STATUS ( 'not_yet_approved' ) ;
#247 = PERSON_AND_ORGANIZATION ( #259, #257 ) ;
#248 = PRODUCT_DEFINITION ( 'UNKNOWN', '', #308, #249 ) ;
#249 = DESIGN_CONTEXT ( 'detailed design', #251, 'design' ) ;
#250 = APPLICATION_PROTOCOL_DEFINITION ( 'international standard', 'config_control_design', 1994, #251 ) ;
#251 = APPLICATION_CONTEXT ( 'configuration controlled 3d designs of mechanical parts and assemblies' ) ;
#252 = AXIS2_PLACEMENT_3D ( 'NONE', #219, #218, #275 ) ;
#253 = CYLINDRICAL_SURFACE ( 'NONE', #314, 6.000000000000000000 ) ;
#254 = CC_DESIGN_PERSON_AND_ORGANIZATION_ASSIGNMENT ( #256, #255, ( #260 ) ) ;
#255 = PERSON_AND_ORGANIZATION_ROLE ( 'design_owner' ) ;
#256 = PERSON_AND_ORGANIZATION ( #259, #257 ) ;
#257 = ORGANIZATION ( 'UNSPECIFIED', 'UNSPECIFIED', '' ) ;
#258 = DIRECTION ( 'NONE',  ( 0.0000000000000000000, 0.0000000000000000000, -1.000000000000000000 ) ) ;
#259 = PERSON ( 'UNSPECIFIED', 'UNSPECIFIED', 'UNSPECIFIED', ('UNSPECIFIED'), ('UNSPECIFIED'), ('UNSPECIFIED') ) ;
#260 = PRODUCT ( 'WDS-401-203F', 'WDS-401-203F', '', ( #261 ) ) ;
#261 = MECHANICAL_CONTEXT ( 'NONE', #231, 'mechanical' ) ;
#262 = PRODUCT_DEFINITION_SHAPE ( 'NONE', 'NONE',  #248 ) ;
#263 = PRODUCT_RELATED_PRODUCT_CATEGORY ( 'detail', '', ( #260 ) ) ;
#264 = CC_DESIGN_SECURITY_CLASSIFICATION ( #289, ( #308 ) ) ;
#265 = CC_DESIGN_APPROVAL ( #277, ( #289 ) ) ;
#266 = APPROVAL_DATE_TIME ( #267, #277 ) ;
#267 = DATE_AND_TIME ( #268, #269 ) ;
#268 = CALENDAR_DATE ( 2011, 1, 12 ) ;
#269 = LOCAL_TIME ( 7, 24, 23.00000000000000000, #270 ) ;
#270 = COORDINATED_UNIVERSAL_TIME_OFFSET ( 5, 0, .BEHIND. ) ;
#271 = APPROVAL_PERSON_ORGANIZATION ( #279, #277, #276 ) ;
#272 = CARTESIAN_POINT ( 'NONE',  ( 0.0000000000000000000, 27.74684013337567700, 0.0000000000000000000 ) ) ;
#273 = DIRECTION ( 'NONE',  ( 0.0000000000000000000, 0.0000000000000000000, -1.000000000000000000 ) ) ;
#274 = CARTESIAN_POINT ( 'NONE',  ( 0.0000000000000000000, 0.0000000000000000000, 0.0000000000000000000 ) ) ;
#275 = DIRECTION ( 'NONE',  ( 0.0000000000000000000, 0.0000000000000000000, -1.000000000000000000 ) ) ;
#276 = APPROVAL_ROLE ( '' ) ;
#277 = APPROVAL ( #278, 'UNSPECIFIED' ) ;
#278 = APPROVAL_STATUS ( 'not_yet_approved' ) ;
#279 = PERSON_AND_ORGANIZATION ( #259, #257 ) ;
#280 = CC_DESIGN_DATE_AND_TIME_ASSIGNMENT ( #282, #281, ( #289 ) ) ;
#281 = DATE_TIME_ROLE ( 'classification_date' ) ;
#282 = DATE_AND_TIME ( #283, #284 ) ;
#283 = CALENDAR_DATE ( 2011, 1, 12 ) ;
#284 = LOCAL_TIME ( 7, 24, 23.00000000000000000, #285 ) ;
#285 = COORDINATED_UNIVERSAL_TIME_OFFSET ( 5, 0, .BEHIND. ) ;
#286 = CC_DESIGN_PERSON_AND_ORGANIZATION_ASSIGNMENT ( #288, #287, ( #289 ) ) ;
#287 = PERSON_AND_ORGANIZATION_ROLE ( 'classification_officer' ) ;
#288 = PERSON_AND_ORGANIZATION ( #259, #257 ) ;
#289 = SECURITY_CLASSIFICATION ( '', '', #290 ) ;
#290 = SECURITY_CLASSIFICATION_LEVEL ( 'unclassified' ) ;
#291 = CC_DESIGN_PERSON_AND_ORGANIZATION_ASSIGNMENT ( #293, #292, ( #308 ) ) ;
#292 = PERSON_AND_ORGANIZATION_ROLE ( 'design_supplier' ) ;
#293 = PERSON_AND_ORGANIZATION ( #259, #257 ) ;
#294 = CC_DESIGN_PERSON_AND_ORGANIZATION_ASSIGNMENT ( #296, #295, ( #308 ) ) ;
#295 = PERSON_AND_ORGANIZATION_ROLE ( 'creator' ) ;
#296 = PERSON_AND_ORGANIZATION ( #259, #257 ) ;
#297 = CC_DESIGN_APPROVAL ( #305, ( #308 ) ) ;
#298 = APPROVAL_DATE_TIME ( #299, #305 ) ;
#299 = DATE_AND_TIME ( #300, #301 ) ;
#300 = CALENDAR_DATE ( 2011, 1, 12 ) ;
#301 = LOCAL_TIME ( 7, 24, 23.00000000000000000, #302 ) ;
#302 = COORDINATED_UNIVERSAL_TIME_OFFSET ( 5, 0, .BEHIND. ) ;
#303 = APPROVAL_PERSON_ORGANIZATION ( #307, #305, #304 ) ;
#304 = APPROVAL_ROLE ( '' ) ;
#305 = APPROVAL ( #306, 'UNSPECIFIED' ) ;
#306 = APPROVAL_STATUS ( 'not_yet_approved' ) ;
#307 = PERSON_AND_ORGANIZATION ( #259, #257 ) ;
#308 = PRODUCT_DEFINITION_FORMATION_WITH_SPECIFIED_SOURCE ( 'ANY', '', #260, .NOT_KNOWN. ) ;
#309 = CC_DESIGN_DATE_AND_TIME_ASSIGNMENT ( #311, #310, ( #248 ) ) ;
#310 = DATE_TIME_ROLE ( 'creation_date' ) ;
#311 = DATE_AND_TIME ( #312, #313 ) ;
#312 = CALENDAR_DATE ( 2011, 1, 12 ) ;
#313 = LOCAL_TIME ( 7, 24, 23.00000000000000000, #233 ) ;
#314 = AXIS2_PLACEMENT_3D ( 'NONE', #274, #318, #258 ) ;
#315 = FACE_OUTER_BOUND ( 'NONE', #27, .T. ) ;
#316 = DIRECTION ( 'NONE',  ( 1.000000000000000000, 0.0000000000000000000, -1.224646799147353200E-016 ) ) ;
#317 = CARTESIAN_POINT ( 'NONE',  ( 0.0000000000000000000, 27.74684013337567700, 0.0000000000000000000 ) ) ;
#318 = DIRECTION ( 'NONE',  ( -0.0000000000000000000, -1.000000000000000000, -0.0000000000000000000 ) ) ;
#319 =( LENGTH_UNIT ( ) NAMED_UNIT ( * ) SI_UNIT ( .MILLI., .METRE. ) );
#320 = DIRECTION ( 'NONE',  ( -1.000000000000000000, 0.0000000000000000000, 0.0000000000000000000 ) ) ;
#321 = CIRCLE ( 'NONE', #252, 10.79999999999999700 ) ;
ENDSEC;
END-ISO-10303-21;
