ISO-10303-21;
HEADER;
FILE_DESCRIPTION (( 'STEP AP203' ),
    '1' );
FILE_NAME ('WDS-401-202F.step',
    '2012-03-30T18:06:00',
    ( 'sysAdmin' ),
    ( 'SolidWorks' ),
    'SwSTEP 2.0',
    'SolidWorks 2012',
    '' );
FILE_SCHEMA (( 'CONFIG_CONTROL_DESIGN' ));
ENDSEC;

DATA;
#1 = VERTEX_POINT ( 'NONE', #106 ) ;
#2 = EDGE_LOOP ( 'NONE', ( #8, #49, #6, #52 ) ) ;
#3 = VERTEX_POINT ( 'NONE', #100 ) ;
#4 = VERTEX_POINT ( 'NONE', #107 ) ;
#5 = DIRECTION ( 'NONE',  ( 0.0000000000000000000, 0.0000000000000000000, -1.000000000000000000 ) ) ;
#6 = ORIENTED_EDGE ( 'NONE', *, *, #50, .F. ) ;
#7 = ORIENTED_EDGE ( 'NONE', *, *, #38, .F. ) ;
#8 = ORIENTED_EDGE ( 'NONE', *, *, #23, .T. ) ;
#9 = DIRECTION ( 'NONE',  ( 1.000000000000000000, 0.0000000000000000000, -1.224646799147353200E-016 ) ) ;
#10 = CARTESIAN_POINT ( 'NONE',  ( 0.0000000000000000000, 0.0000000000000000000, 0.0000000000000000000 ) ) ;
#11 = VERTEX_POINT ( 'NONE', #101 ) ;
#12 = DIRECTION ( 'NONE',  ( -0.0000000000000000000, -1.000000000000000000, -0.0000000000000000000 ) ) ;
#13 = EDGE_CURVE ( 'NONE', #20, #14, #41, .T. ) ;
#14 = VERTEX_POINT ( 'NONE', #54 ) ;
#15 = ADVANCED_FACE ( 'NONE', ( #45 ), #70, .F. ) ;
#16 = ORIENTED_EDGE ( 'NONE', *, *, #43, .F. ) ;
#17 = EDGE_LOOP ( 'NONE', ( #32, #21, #37, #7, #33 ) ) ;
#18 = ORIENTED_EDGE ( 'NONE', *, *, #31, .T. ) ;
#19 = VERTEX_POINT ( 'NONE', #170 ) ;
#20 = VERTEX_POINT ( 'NONE', #168 ) ;
#21 = ORIENTED_EDGE ( 'NONE', *, *, #35, .T. ) ;
#22 = EDGE_CURVE ( 'NONE', #28, #34, #166, .T. ) ;
#23 = EDGE_CURVE ( 'NONE', #30, #28, #162, .T. ) ;
#24 = ORIENTED_EDGE ( 'NONE', *, *, #47, .T. ) ;
#25 = EDGE_CURVE ( 'NONE', #48, #3, #143, .T. ) ;
#26 = ORIENTED_EDGE ( 'NONE', *, *, #25, .F. ) ;
#27 = EDGE_CURVE ( 'NONE', #1, #14, #136, .T. ) ;
#28 = VERTEX_POINT ( 'NONE', #167 ) ;
#29 = ADVANCED_FACE ( 'NONE', ( #132 ), #137, .T. ) ;
#30 = VERTEX_POINT ( 'NONE', #146 ) ;
#31 = EDGE_CURVE ( 'NONE', #4, #3, #176, .T. ) ;
#32 = ORIENTED_EDGE ( 'NONE', *, *, #27, .F. ) ;
#33 = ORIENTED_EDGE ( 'NONE', *, *, #47, .F. ) ;
#34 = VERTEX_POINT ( 'NONE', #145 ) ;
#35 = EDGE_CURVE ( 'NONE', #1, #19, #177, .T. ) ;
#36 = EDGE_CURVE ( 'NONE', #19, #44, #113, .T. ) ;
#37 = ORIENTED_EDGE ( 'NONE', *, *, #36, .T. ) ;
#38 = EDGE_CURVE ( 'NONE', #4, #44, #171, .T. ) ;
#39 = DIRECTION ( 'NONE',  ( 1.224646799147353200E-016, -0.0000000000000000000, 1.000000000000000000 ) ) ;
#40 = CARTESIAN_POINT ( 'NONE',  ( 0.0000000000000000000, 20.96834330885257500, 0.0000000000000000000 ) ) ;
#41 = CIRCLE ( 'NONE', #42, 18.99999999999999600 ) ;
#42 = AXIS2_PLACEMENT_3D ( 'NONE', #40, #39, #9 ) ;
#43 = EDGE_CURVE ( 'NONE', #20, #48, #114, .T. ) ;
#44 = VERTEX_POINT ( 'NONE', #156 ) ;
#45 = FACE_OUTER_BOUND ( 'NONE', #17, .T. ) ;
#46 = ADVANCED_FACE ( 'NONE', ( #155 ), #157, .F. ) ;
#47 = EDGE_CURVE ( 'NONE', #14, #4, #129, .T. ) ;
#48 = VERTEX_POINT ( 'NONE', #108 ) ;
#49 = ORIENTED_EDGE ( 'NONE', *, *, #22, .T. ) ;
#50 = EDGE_CURVE ( 'NONE', #11, #34, #124, .T. ) ;
#51 = CLOSED_SHELL ( 'NONE', ( #46, #15, #29, #66, #56, #55, #80, #87 ) ) ;
#52 = ORIENTED_EDGE ( 'NONE', *, *, #68, .F. ) ;
#53 = MANIFOLD_SOLID_BREP ( 'Cut-Revolve1', #51 ) ;
#54 = CARTESIAN_POINT ( 'NONE',  ( -5.000000000000000000, 2.638040529029217000, 8.756224613903577500E-016 ) ) ;
#55 = ADVANCED_FACE ( 'NONE', ( #179 ), #105, .F. ) ;
#56 = ADVANCED_FACE ( 'NONE', ( #274 ), #233, .T. ) ;
#57 = ORIENTED_EDGE ( 'NONE', *, *, #95, .F. ) ;
#58 = EDGE_LOOP ( 'NONE', ( #98, #96, #97, #61 ) ) ;
#59 = ORIENTED_EDGE ( 'NONE', *, *, #36, .F. ) ;
#60 = EDGE_LOOP ( 'NONE', ( #64, #73, #75, #74, #90 ) ) ;
#61 = ORIENTED_EDGE ( 'NONE', *, *, #62, .F. ) ;
#62 = EDGE_CURVE ( 'NONE', #34, #11, #201, .T. ) ;
#63 = ORIENTED_EDGE ( 'NONE', *, *, #62, .T. ) ;
#64 = ORIENTED_EDGE ( 'NONE', *, *, #35, .F. ) ;
#65 = ORIENTED_EDGE ( 'NONE', *, *, #50, .T. ) ;
#66 = ADVANCED_FACE ( 'NONE', ( #278, #269 ), #275, .T. ) ;
#67 = EDGE_LOOP ( 'NONE', ( #65, #63 ) ) ;
#68 = EDGE_CURVE ( 'NONE', #30, #11, #199, .T. ) ;
#69 = AXIS2_PLACEMENT_3D ( 'NONE', #10, #12, #5 ) ;
#70 = CYLINDRICAL_SURFACE ( 'NONE', #69, 4.999999999999999100 ) ;
#71 = EDGE_LOOP ( 'NONE', ( #16, #72, #24, #18, #26 ) ) ;
#72 = ORIENTED_EDGE ( 'NONE', *, *, #13, .T. ) ;
#73 = ORIENTED_EDGE ( 'NONE', *, *, #77, .F. ) ;
#74 = ORIENTED_EDGE ( 'NONE', *, *, #38, .T. ) ;
#75 = ORIENTED_EDGE ( 'NONE', *, *, #31, .F. ) ;
#76 = EDGE_LOOP ( 'NONE', ( #91, #78 ) ) ;
#77 = EDGE_CURVE ( 'NONE', #3, #1, #268, .T. ) ;
#78 = ORIENTED_EDGE ( 'NONE', *, *, #94, .F. ) ;
#79 = ORIENTED_EDGE ( 'NONE', *, *, #89, .F. ) ;
#80 = ADVANCED_FACE ( 'NONE', ( #194 ), #267, .F. ) ;
#81 = EDGE_LOOP ( 'NONE', ( #57, #59 ) ) ;
#82 = ORIENTED_EDGE ( 'NONE', *, *, #77, .T. ) ;
#83 = ORIENTED_EDGE ( 'NONE', *, *, #89, .T. ) ;
#84 = ORIENTED_EDGE ( 'NONE', *, *, #27, .T. ) ;
#85 = ORIENTED_EDGE ( 'NONE', *, *, #43, .T. ) ;
#86 = ORIENTED_EDGE ( 'NONE', *, *, #13, .F. ) ;
#87 = ADVANCED_FACE ( 'NONE', ( #259, #215 ), #221, .F. ) ;
#88 = EDGE_LOOP ( 'NONE', ( #86, #79, #93, #82, #84 ) ) ;
#89 = EDGE_CURVE ( 'NONE', #48, #20, #227, .T. ) ;
#90 = ORIENTED_EDGE ( 'NONE', *, *, #95, .T. ) ;
#91 = ORIENTED_EDGE ( 'NONE', *, *, #23, .F. ) ;
#92 = EDGE_LOOP ( 'NONE', ( #83, #85 ) ) ;
#93 = ORIENTED_EDGE ( 'NONE', *, *, #25, .T. ) ;
#94 = EDGE_CURVE ( 'NONE', #28, #30, #224, .T. ) ;
#95 = EDGE_CURVE ( 'NONE', #44, #19, #223, .T. ) ;
#96 = ORIENTED_EDGE ( 'NONE', *, *, #94, .T. ) ;
#97 = ORIENTED_EDGE ( 'NONE', *, *, #68, .T. ) ;
#98 = ORIENTED_EDGE ( 'NONE', *, *, #22, .F. ) ;
#99 = DIRECTION ( 'NONE',  ( 0.0000000000000000000, 0.0000000000000000000, -1.000000000000000000 ) ) ;
#100 = CARTESIAN_POINT ( 'NONE',  ( 5.000000000000000000, 2.638040529029217000, 0.0000000000000000000 ) ) ;
#101 = CARTESIAN_POINT ( 'NONE',  ( 0.0000000000000000000, -5.510910596163090500E-016, -9.500000000000001800 ) ) ;
#102 = DIRECTION ( 'NONE',  ( -0.0000000000000000000, -1.000000000000000000, -0.0000000000000000000 ) ) ;
#103 = CARTESIAN_POINT ( 'NONE',  ( 0.0000000000000000000, 0.0000000000000000000, 0.0000000000000000000 ) ) ;
#104 = AXIS2_PLACEMENT_3D ( 'NONE', #103, #102, #99 ) ;
#105 = CYLINDRICAL_SURFACE ( 'NONE', #104, 4.999999999999999100 ) ;
#106 = CARTESIAN_POINT ( 'NONE',  ( 6.123233995736765300E-016, 2.638040529029217000, 4.999999999999999100 ) ) ;
#107 = CARTESIAN_POINT ( 'NONE',  ( 0.0000000000000000000, 2.638040529029217000, -4.999999999999999100 ) ) ;
#108 = CARTESIAN_POINT ( 'NONE',  ( 9.299999999999997200, 4.400000000000000400, 0.0000000000000000000 ) ) ;
#109 = DIRECTION ( 'NONE',  ( 0.0000000000000000000, 0.0000000000000000000, -1.000000000000000000 ) ) ;
#110 = DIRECTION ( 'NONE',  ( -0.0000000000000000000, -1.000000000000000000, -0.0000000000000000000 ) ) ;
#111 = CARTESIAN_POINT ( 'NONE',  ( 0.0000000000000000000, -1.102182119232618500E-015, 0.0000000000000000000 ) ) ;
#112 = AXIS2_PLACEMENT_3D ( 'NONE', #111, #110, #109 ) ;
#113 = CIRCLE ( 'NONE', #112, 4.999999999999999100 ) ;
#114 = CIRCLE ( 'NONE', #153, 9.299999999999998900 ) ;
#115 = DIRECTION ( 'NONE',  ( -0.0000000000000000000, -1.000000000000000000, -0.0000000000000000000 ) ) ;
#116 = VECTOR ( 'NONE', #115, 1000.000000000000000 ) ;
#117 = AXIS2_PLACEMENT_3D ( 'NONE', #154, #120, #119 ) ;
#118 = AXIS2_PLACEMENT_3D ( 'NONE', #123, #122, #121 ) ;
#119 = DIRECTION ( 'NONE',  ( 1.000000000000000000, 0.0000000000000000000, 0.0000000000000000000 ) ) ;
#120 = DIRECTION ( 'NONE',  ( 0.0000000000000000000, 0.0000000000000000000, 1.000000000000000000 ) ) ;
#121 = DIRECTION ( 'NONE',  ( 0.0000000000000000000, 0.0000000000000000000, -1.000000000000000000 ) ) ;
#122 = DIRECTION ( 'NONE',  ( -0.0000000000000000000, -1.000000000000000000, -0.0000000000000000000 ) ) ;
#123 = CARTESIAN_POINT ( 'NONE',  ( 0.0000000000000000000, -5.510910596163090500E-016, 0.0000000000000000000 ) ) ;
#124 = CIRCLE ( 'NONE', #118, 9.500000000000001800 ) ;
#125 = DIRECTION ( 'NONE',  ( 0.0000000000000000000, 0.0000000000000000000, -1.000000000000000000 ) ) ;
#126 = DIRECTION ( 'NONE',  ( -0.0000000000000000000, -1.000000000000000000, -0.0000000000000000000 ) ) ;
#127 = CARTESIAN_POINT ( 'NONE',  ( 0.0000000000000000000, 2.638040529029217000, 0.0000000000000000000 ) ) ;
#128 = AXIS2_PLACEMENT_3D ( 'NONE', #127, #126, #125 ) ;
#129 = CIRCLE ( 'NONE', #128, 4.999999999999999100 ) ;
#130 = AXIS2_PLACEMENT_3D ( 'NONE', #135, #134, #133 ) ;
#131 = AXIS2_PLACEMENT_3D ( 'NONE', #147, #138, #178 ) ;
#132 = FACE_OUTER_BOUND ( 'NONE', #2, .T. ) ;
#133 = DIRECTION ( 'NONE',  ( 0.0000000000000000000, 0.0000000000000000000, -1.000000000000000000 ) ) ;
#134 = DIRECTION ( 'NONE',  ( -0.0000000000000000000, -1.000000000000000000, -0.0000000000000000000 ) ) ;
#135 = CARTESIAN_POINT ( 'NONE',  ( 0.0000000000000000000, 2.638040529029217000, 0.0000000000000000000 ) ) ;
#136 = CIRCLE ( 'NONE', #130, 4.999999999999999100 ) ;
#137 = CYLINDRICAL_SURFACE ( 'NONE', #131, 9.500000000000001800 ) ;
#138 = DIRECTION ( 'NONE',  ( -0.0000000000000000000, -1.000000000000000000, -0.0000000000000000000 ) ) ;
#139 = DIRECTION ( 'NONE',  ( -1.000000000000000000, 0.0000000000000000000, 0.0000000000000000000 ) ) ;
#140 = DIRECTION ( 'NONE',  ( 0.0000000000000000000, 0.0000000000000000000, -1.000000000000000000 ) ) ;
#141 = CARTESIAN_POINT ( 'NONE',  ( 0.0000000000000000000, 20.96834330885257500, 0.0000000000000000000 ) ) ;
#142 = AXIS2_PLACEMENT_3D ( 'NONE', #141, #140, #139 ) ;
#143 = CIRCLE ( 'NONE', #142, 18.99999999999999600 ) ;
#144 = AXIS2_PLACEMENT_3D ( 'NONE', #175, #174, #173 ) ;
#145 = CARTESIAN_POINT ( 'NONE',  ( 1.163414459189985700E-015, -5.510910596163090500E-016, 9.500000000000001800 ) ) ;
#146 = CARTESIAN_POINT ( 'NONE',  ( 0.0000000000000000000, 4.399999999999999500, -9.500000000000000000 ) ) ;
#147 = CARTESIAN_POINT ( 'NONE',  ( 0.0000000000000000000, 0.0000000000000000000, 0.0000000000000000000 ) ) ;
#148 = DIRECTION ( 'NONE',  ( 0.0000000000000000000, 0.0000000000000000000, -1.000000000000000000 ) ) ;
#149 = DIRECTION ( 'NONE',  ( -0.0000000000000000000, -1.000000000000000000, -0.0000000000000000000 ) ) ;
#150 = DIRECTION ( 'NONE',  ( 0.0000000000000000000, 0.0000000000000000000, -1.000000000000000000 ) ) ;
#151 = DIRECTION ( 'NONE',  ( -0.0000000000000000000, -1.000000000000000000, -0.0000000000000000000 ) ) ;
#152 = CARTESIAN_POINT ( 'NONE',  ( 0.0000000000000000000, 4.399999999999999500, 0.0000000000000000000 ) ) ;
#153 = AXIS2_PLACEMENT_3D ( 'NONE', #152, #151, #150 ) ;
#154 = CARTESIAN_POINT ( 'NONE',  ( 0.0000000000000000000, 20.96834330885257500, 0.0000000000000000000 ) ) ;
#155 = FACE_OUTER_BOUND ( 'NONE', #71, .T. ) ;
#156 = CARTESIAN_POINT ( 'NONE',  ( 0.0000000000000000000, -1.102182119232618500E-015, -4.999999999999999100 ) ) ;
#157 = SPHERICAL_SURFACE ( 'NONE', #117, 18.99999999999999600 ) ;
#158 = DIRECTION ( 'NONE',  ( -0.0000000000000000000, -1.000000000000000000, -0.0000000000000000000 ) ) ;
#159 = VECTOR ( 'NONE', #158, 1000.000000000000000 ) ;
#160 = CARTESIAN_POINT ( 'NONE',  ( 0.0000000000000000000, 0.0000000000000000000, -4.999999999999999100 ) ) ;
#161 = CARTESIAN_POINT ( 'NONE',  ( 0.0000000000000000000, 4.399999999999999500, 0.0000000000000000000 ) ) ;
#162 = CIRCLE ( 'NONE', #169, 9.500000000000000000 ) ;
#163 = DIRECTION ( 'NONE',  ( -0.0000000000000000000, -1.000000000000000000, -0.0000000000000000000 ) ) ;
#164 = VECTOR ( 'NONE', #163, 1000.000000000000000 ) ;
#165 = CARTESIAN_POINT ( 'NONE',  ( 1.163414459189985700E-015, 0.0000000000000000000, 9.500000000000001800 ) ) ;
#166 = LINE ( 'NONE', #165, #164 ) ;
#167 = CARTESIAN_POINT ( 'NONE',  ( 1.163414459189985500E-015, 4.399999999999999500, 9.500000000000000000 ) ) ;
#168 = CARTESIAN_POINT ( 'NONE',  ( -9.299999999999997200, 4.400000000000000400, 1.138921523207038400E-015 ) ) ;
#169 = AXIS2_PLACEMENT_3D ( 'NONE', #161, #149, #148 ) ;
#170 = CARTESIAN_POINT ( 'NONE',  ( 6.123233995736765300E-016, -1.102182119232618500E-015, 4.999999999999999100 ) ) ;
#171 = LINE ( 'NONE', #160, #159 ) ;
#172 = CARTESIAN_POINT ( 'NONE',  ( 6.123233995736765300E-016, 0.0000000000000000000, 4.999999999999999100 ) ) ;
#173 = DIRECTION ( 'NONE',  ( 0.0000000000000000000, 0.0000000000000000000, -1.000000000000000000 ) ) ;
#174 = DIRECTION ( 'NONE',  ( -0.0000000000000000000, -1.000000000000000000, -0.0000000000000000000 ) ) ;
#175 = CARTESIAN_POINT ( 'NONE',  ( 0.0000000000000000000, 2.638040529029217000, 0.0000000000000000000 ) ) ;
#176 = CIRCLE ( 'NONE', #144, 4.999999999999999100 ) ;
#177 = LINE ( 'NONE', #172, #116 ) ;
#178 = DIRECTION ( 'NONE',  ( 0.0000000000000000000, 0.0000000000000000000, -1.000000000000000000 ) ) ;
#179 = FACE_OUTER_BOUND ( 'NONE', #60, .T. ) ;
#180 = APPLICATION_PROTOCOL_DEFINITION ( 'international standard', 'config_control_design', 1994, #229 ) ;
#181 = ADVANCED_BREP_SHAPE_REPRESENTATION ( 'WDS-401-202F', ( #53, #217 ), #182 ) ;
#182 =( GEOMETRIC_REPRESENTATION_CONTEXT ( 3 ) GLOBAL_UNCERTAINTY_ASSIGNED_CONTEXT ( ( #183 ) ) GLOBAL_UNIT_ASSIGNED_CONTEXT ( ( #214, #185, #184 ) ) REPRESENTATION_CONTEXT ( 'NONE', 'WORKASPACE' ) );
#183 = UNCERTAINTY_MEASURE_WITH_UNIT (LENGTH_MEASURE( 1.000000000000000100E-005 ), #214, 'distance_accuracy_value', 'NONE');
#184 =( NAMED_UNIT ( * ) SI_UNIT ( $, .STERADIAN. ) SOLID_ANGLE_UNIT ( ) );
#185 =( NAMED_UNIT ( * ) PLANE_ANGLE_UNIT ( ) SI_UNIT ( $, .RADIAN. ) );
#186 = CARTESIAN_POINT ( 'NONE',  ( 0.0000000000000000000, 0.0000000000000000000, 0.0000000000000000000 ) ) ;
#187 = DIRECTION ( 'NONE',  ( 0.0000000000000000000, 0.0000000000000000000, -1.000000000000000000 ) ) ;
#188 = DIRECTION ( 'NONE',  ( -0.0000000000000000000, -1.000000000000000000, -0.0000000000000000000 ) ) ;
#189 = CARTESIAN_POINT ( 'NONE',  ( 0.0000000000000000000, -1.102182119232618500E-015, 0.0000000000000000000 ) ) ;
#190 = DIRECTION ( 'NONE',  ( 0.0000000000000000000, 0.0000000000000000000, -1.000000000000000000 ) ) ;
#191 = DIRECTION ( 'NONE',  ( -0.0000000000000000000, -1.000000000000000000, -0.0000000000000000000 ) ) ;
#192 = CARTESIAN_POINT ( 'NONE',  ( 0.0000000000000000000, 4.399999999999999500, 0.0000000000000000000 ) ) ;
#193 = AXIS2_PLACEMENT_3D ( 'NONE', #282, #198, #197 ) ;
#194 = FACE_OUTER_BOUND ( 'NONE', #88, .T. ) ;
#195 = DIRECTION ( 'NONE',  ( 0.0000000000000000000, 0.0000000000000000000, -1.000000000000000000 ) ) ;
#196 = DIRECTION ( 'NONE',  ( 0.0000000000000000000, -1.000000000000000000, -0.0000000000000000000 ) ) ;
#197 = DIRECTION ( 'NONE',  ( 0.0000000000000000000, 0.0000000000000000000, -1.000000000000000000 ) ) ;
#198 = DIRECTION ( 'NONE',  ( -0.0000000000000000000, -1.000000000000000000, -0.0000000000000000000 ) ) ;
#199 = LINE ( 'NONE', #264, #263 ) ;
#200 = AXIS2_PLACEMENT_3D ( 'NONE', #281, #280, #279 ) ;
#201 = CIRCLE ( 'NONE', #200, 9.500000000000001800 ) ;
#202 = PRODUCT_DEFINITION_SHAPE ( 'NONE', 'NONE',  #248 ) ;
#203 = PRODUCT_RELATED_PRODUCT_CATEGORY ( 'detail', '', ( #257 ) ) ;
#204 = CC_DESIGN_SECURITY_CLASSIFICATION ( #296, ( #315 ) ) ;
#205 = CC_DESIGN_APPROVAL ( #284, ( #296 ) ) ;
#206 = APPROVAL_DATE_TIME ( #207, #284 ) ;
#207 = DATE_AND_TIME ( #208, #209 ) ;
#208 = CALENDAR_DATE ( 2012, 30, 3 ) ;
#209 = LOCAL_TIME ( 14, 6, 0.0000000000000000000, #210 ) ;
#210 = COORDINATED_UNIVERSAL_TIME_OFFSET ( 5, 0, .BEHIND. ) ;
#211 = APPROVAL_PERSON_ORGANIZATION ( #286, #284, #212 ) ;
#212 = APPROVAL_ROLE ( '' ) ;
#213 = CARTESIAN_POINT ( 'NONE',  ( 0.0000000000000000000, 0.0000000000000000000, 0.0000000000000000000 ) ) ;
#214 =( LENGTH_UNIT ( ) NAMED_UNIT ( * ) SI_UNIT ( .MILLI., .METRE. ) );
#215 = FACE_BOUND ( 'NONE', #92, .T. ) ;
#216 = DIRECTION ( 'NONE',  ( 0.0000000000000000000, 0.0000000000000000000, 1.000000000000000000 ) ) ;
#217 = AXIS2_PLACEMENT_3D ( 'NONE', #186, #272, #271 ) ;
#218 = DIRECTION ( 'NONE',  ( 0.0000000000000000000, 0.0000000000000000000, -1.000000000000000000 ) ) ;
#219 = CARTESIAN_POINT ( 'NONE',  ( 0.0000000000000000000, 4.399999999999999500, 0.0000000000000000000 ) ) ;
#220 = DIRECTION ( 'NONE',  ( 1.000000000000000000, 0.0000000000000000000, 0.0000000000000000000 ) ) ;
#221 = PLANE ( 'NONE',  #266 ) ;
#222 = AXIS2_PLACEMENT_3D ( 'NONE', #219, #226, #225 ) ;
#223 = CIRCLE ( 'NONE', #261, 4.999999999999999100 ) ;
#224 = CIRCLE ( 'NONE', #228, 9.500000000000000000 ) ;
#225 = DIRECTION ( 'NONE',  ( 0.0000000000000000000, 0.0000000000000000000, -1.000000000000000000 ) ) ;
#226 = DIRECTION ( 'NONE',  ( -0.0000000000000000000, -1.000000000000000000, -0.0000000000000000000 ) ) ;
#227 = CIRCLE ( 'NONE', #222, 9.299999999999998900 ) ;
#228 = AXIS2_PLACEMENT_3D ( 'NONE', #192, #191, #190 ) ;
#229 = APPLICATION_CONTEXT ( 'configuration controlled 3d designs of mechanical parts and assemblies' ) ;
#230 = DIRECTION ( 'NONE',  ( 0.0000000000000000000, 0.0000000000000000000, -1.000000000000000000 ) ) ;
#231 = DIRECTION ( 'NONE',  ( 0.0000000000000000000, -1.000000000000000000, -0.0000000000000000000 ) ) ;
#232 = CARTESIAN_POINT ( 'NONE',  ( 9.299999999999998900, 4.399999999999999500, 0.0000000000000000000 ) ) ;
#233 = CYLINDRICAL_SURFACE ( 'NONE', #276, 9.500000000000001800 ) ;
#234 = CC_DESIGN_PERSON_AND_ORGANIZATION_ASSIGNMENT ( #236, #235, ( #248 ) ) ;
#235 = PERSON_AND_ORGANIZATION_ROLE ( 'creator' ) ;
#236 = PERSON_AND_ORGANIZATION ( #256, #255 ) ;
#237 = CC_DESIGN_APPROVAL ( #245, ( #248 ) ) ;
#238 = APPROVAL_DATE_TIME ( #239, #245 ) ;
#239 = DATE_AND_TIME ( #240, #241 ) ;
#240 = CALENDAR_DATE ( 2012, 30, 3 ) ;
#241 = LOCAL_TIME ( 14, 6, 0.0000000000000000000, #242 ) ;
#242 = COORDINATED_UNIVERSAL_TIME_OFFSET ( 5, 0, .BEHIND. ) ;
#243 = APPROVAL_PERSON_ORGANIZATION ( #247, #245, #244 ) ;
#244 = APPROVAL_ROLE ( '' ) ;
#245 = APPROVAL ( #246, 'UNSPECIFIED' ) ;
#246 = APPROVAL_STATUS ( 'not_yet_approved' ) ;
#247 = PERSON_AND_ORGANIZATION ( #256, #255 ) ;
#248 = PRODUCT_DEFINITION ( 'UNKNOWN', '', #315, #249 ) ;
#249 = DESIGN_CONTEXT ( 'detailed design', #251, 'design' ) ;
#250 = APPLICATION_PROTOCOL_DEFINITION ( 'international standard', 'config_control_design', 1994, #251 ) ;
#251 = APPLICATION_CONTEXT ( 'configuration controlled 3d designs of mechanical parts and assemblies' ) ;
#252 = CC_DESIGN_PERSON_AND_ORGANIZATION_ASSIGNMENT ( #254, #253, ( #257 ) ) ;
#253 = PERSON_AND_ORGANIZATION_ROLE ( 'design_owner' ) ;
#254 = PERSON_AND_ORGANIZATION ( #256, #255 ) ;
#255 = ORGANIZATION ( 'UNSPECIFIED', 'UNSPECIFIED', '' ) ;
#256 = PERSON ( 'UNSPECIFIED', 'UNSPECIFIED', 'UNSPECIFIED', ('UNSPECIFIED'), ('UNSPECIFIED'), ('UNSPECIFIED') ) ;
#257 = PRODUCT ( 'WDS-401-202F', 'WDS-401-202F', '', ( #258 ) ) ;
#258 = MECHANICAL_CONTEXT ( 'NONE', #229, 'mechanical' ) ;
#259 = FACE_OUTER_BOUND ( 'NONE', #76, .T. ) ;
#260 = AXIS2_PLACEMENT_3D ( 'NONE', #265, #216, #220 ) ;
#261 = AXIS2_PLACEMENT_3D ( 'NONE', #189, #188, #187 ) ;
#262 = DIRECTION ( 'NONE',  ( -0.0000000000000000000, -1.000000000000000000, -0.0000000000000000000 ) ) ;
#263 = VECTOR ( 'NONE', #262, 1000.000000000000000 ) ;
#264 = CARTESIAN_POINT ( 'NONE',  ( 0.0000000000000000000, 0.0000000000000000000, -9.500000000000001800 ) ) ;
#265 = CARTESIAN_POINT ( 'NONE',  ( 0.0000000000000000000, 20.96834330885257500, 0.0000000000000000000 ) ) ;
#266 = AXIS2_PLACEMENT_3D ( 'NONE', #232, #231, #230 ) ;
#267 = SPHERICAL_SURFACE ( 'NONE', #260, 18.99999999999999600 ) ;
#268 = CIRCLE ( 'NONE', #193, 4.999999999999999100 ) ;
#269 = FACE_BOUND ( 'NONE', #81, .T. ) ;
#270 = DIRECTION ( 'NONE',  ( -0.0000000000000000000, -1.000000000000000000, -0.0000000000000000000 ) ) ;
#271 = DIRECTION ( 'NONE',  ( 1.000000000000000000, 0.0000000000000000000, 0.0000000000000000000 ) ) ;
#272 = DIRECTION ( 'NONE',  ( 0.0000000000000000000, 0.0000000000000000000, 1.000000000000000000 ) ) ;
#273 = SHAPE_DEFINITION_REPRESENTATION ( #202, #181 ) ;
#274 = FACE_OUTER_BOUND ( 'NONE', #58, .T. ) ;
#275 = PLANE ( 'NONE',  #283 ) ;
#276 = AXIS2_PLACEMENT_3D ( 'NONE', #213, #270, #218 ) ;
#277 = CARTESIAN_POINT ( 'NONE',  ( 9.500000000000001800, -8.266365894244638300E-016, 0.0000000000000000000 ) ) ;
#278 = FACE_OUTER_BOUND ( 'NONE', #67, .T. ) ;
#279 = DIRECTION ( 'NONE',  ( 0.0000000000000000000, 0.0000000000000000000, -1.000000000000000000 ) ) ;
#280 = DIRECTION ( 'NONE',  ( -0.0000000000000000000, -1.000000000000000000, -0.0000000000000000000 ) ) ;
#281 = CARTESIAN_POINT ( 'NONE',  ( 0.0000000000000000000, -5.510910596163090500E-016, 0.0000000000000000000 ) ) ;
#282 = CARTESIAN_POINT ( 'NONE',  ( 0.0000000000000000000, 2.638040529029217000, 0.0000000000000000000 ) ) ;
#283 = AXIS2_PLACEMENT_3D ( 'NONE', #277, #196, #195 ) ;
#284 = APPROVAL ( #285, 'UNSPECIFIED' ) ;
#285 = APPROVAL_STATUS ( 'not_yet_approved' ) ;
#286 = PERSON_AND_ORGANIZATION ( #256, #255 ) ;
#287 = CC_DESIGN_DATE_AND_TIME_ASSIGNMENT ( #289, #288, ( #296 ) ) ;
#288 = DATE_TIME_ROLE ( 'classification_date' ) ;
#289 = DATE_AND_TIME ( #290, #291 ) ;
#290 = CALENDAR_DATE ( 2012, 30, 3 ) ;
#291 = LOCAL_TIME ( 14, 6, 0.0000000000000000000, #292 ) ;
#292 = COORDINATED_UNIVERSAL_TIME_OFFSET ( 5, 0, .BEHIND. ) ;
#293 = CC_DESIGN_PERSON_AND_ORGANIZATION_ASSIGNMENT ( #295, #294, ( #296 ) ) ;
#294 = PERSON_AND_ORGANIZATION_ROLE ( 'classification_officer' ) ;
#295 = PERSON_AND_ORGANIZATION ( #256, #255 ) ;
#296 = SECURITY_CLASSIFICATION ( '', '', #297 ) ;
#297 = SECURITY_CLASSIFICATION_LEVEL ( 'unclassified' ) ;
#298 = CC_DESIGN_PERSON_AND_ORGANIZATION_ASSIGNMENT ( #300, #299, ( #315 ) ) ;
#299 = PERSON_AND_ORGANIZATION_ROLE ( 'design_supplier' ) ;
#300 = PERSON_AND_ORGANIZATION ( #256, #255 ) ;
#301 = CC_DESIGN_PERSON_AND_ORGANIZATION_ASSIGNMENT ( #303, #302, ( #315 ) ) ;
#302 = PERSON_AND_ORGANIZATION_ROLE ( 'creator' ) ;
#303 = PERSON_AND_ORGANIZATION ( #256, #255 ) ;
#304 = CC_DESIGN_APPROVAL ( #312, ( #315 ) ) ;
#305 = APPROVAL_DATE_TIME ( #306, #312 ) ;
#306 = DATE_AND_TIME ( #307, #308 ) ;
#307 = CALENDAR_DATE ( 2012, 30, 3 ) ;
#308 = LOCAL_TIME ( 14, 6, 0.0000000000000000000, #309 ) ;
#309 = COORDINATED_UNIVERSAL_TIME_OFFSET ( 5, 0, .BEHIND. ) ;
#310 = APPROVAL_PERSON_ORGANIZATION ( #314, #312, #311 ) ;
#311 = APPROVAL_ROLE ( '' ) ;
#312 = APPROVAL ( #313, 'UNSPECIFIED' ) ;
#313 = APPROVAL_STATUS ( 'not_yet_approved' ) ;
#314 = PERSON_AND_ORGANIZATION ( #256, #255 ) ;
#315 = PRODUCT_DEFINITION_FORMATION_WITH_SPECIFIED_SOURCE ( 'ANY', '', #257, .NOT_KNOWN. ) ;
#316 = CC_DESIGN_DATE_AND_TIME_ASSIGNMENT ( #318, #317, ( #248 ) ) ;
#317 = DATE_TIME_ROLE ( 'creation_date' ) ;
#318 = DATE_AND_TIME ( #319, #320 ) ;
#319 = CALENDAR_DATE ( 2012, 30, 3 ) ;
#320 = LOCAL_TIME ( 14, 6, 0.0000000000000000000, #321 ) ;
#321 = COORDINATED_UNIVERSAL_TIME_OFFSET ( 5, 0, .BEHIND. ) ;
ENDSEC;
END-ISO-10303-21;
