ISO-10303-21;
HEADER;
FILE_DESCRIPTION (( 'STEP AP203' ),
    '1' );
FILE_NAME ('WDS-401-201F.step',
    '2012-03-30T18:05:48',
    ( 'SysAdmin' ),
    ( 'SolidWorks' ),
    'SwSTEP 2.0',
    'SolidWorks 2012',
    '' );
FILE_SCHEMA (( 'CONFIG_CONTROL_DESIGN' ));
ENDSEC;

DATA;
#1 = APPLICATION_CONTEXT ( 'configuration controlled 3d designs of mechanical parts and assemblies' ) ;
#2 = APPLICATION_CONTEXT ( 'configuration controlled 3d designs of mechanical parts and assemblies' ) ;
#3 = PERSON_AND_ORGANIZATION ( #195, #303 ) ;
#4 = APPROVAL_ROLE ( '' ) ;
#5 = APPROVAL_DATE_TIME ( #8, #207 ) ;
#6 = APPROVAL_ROLE ( '' ) ;
#7 = DATE_TIME_ROLE ( 'classification_date' ) ;
#8 = DATE_AND_TIME ( #291, #209 ) ;
#9 = PERSON_AND_ORGANIZATION_ROLE ( 'classification_officer' ) ;
#10 = SECURITY_CLASSIFICATION_LEVEL ( 'unclassified' ) ;
#11 = DATE_AND_TIME ( #280, #251 ) ;
#12 = PERSON_AND_ORGANIZATION_ROLE ( 'design_supplier' ) ;
#13 = MECHANICAL_CONTEXT ( 'NONE', #1, 'mechanical' ) ;
#14 = PERSON_AND_ORGANIZATION ( #195, #303 ) ;
#15 = PERSON_AND_ORGANIZATION_ROLE ( 'creator' ) ;
#16 = APPROVAL_DATE_TIME ( #19, #253 ) ;
#17 = PERSON_AND_ORGANIZATION ( #195, #303 ) ;
#18 = PERSON_AND_ORGANIZATION ( #195, #303 ) ;
#19 = DATE_AND_TIME ( #276, #255 ) ;
#20 = PERSON_AND_ORGANIZATION ( #195, #303 ) ;
#21 = PERSON_AND_ORGANIZATION_ROLE ( 'creator' ) ;
#22 = DATE_AND_TIME ( #305, #215 ) ;
#23 = PERSON_AND_ORGANIZATION ( #195, #303 ) ;
#24 = DATE_TIME_ROLE ( 'creation_date' ) ;
#25 = PERSON_AND_ORGANIZATION ( #195, #303 ) ;
#26 = PERSON_AND_ORGANIZATION ( #195, #303 ) ;
#27 = APPLICATION_PROTOCOL_DEFINITION ( 'international standard', 'config_control_design', 1994, #2 ) ;
#28 = APPLICATION_PROTOCOL_DEFINITION ( 'international standard', 'config_control_design', 1994, #1 ) ;
#29 = APPROVAL_STATUS ( 'not_yet_approved' ) ;
#30 = APPROVAL_ROLE ( '' ) ;
#31 = APPROVAL_DATE_TIME ( #34, #247 ) ;
#32 = APPROVAL_STATUS ( 'not_yet_approved' ) ;
#33 = APPROVAL_STATUS ( 'not_yet_approved' ) ;
#34 = DATE_AND_TIME ( #300, #248 ) ;
#35 = PERSON_AND_ORGANIZATION_ROLE ( 'design_owner' ) ;
#36 = DIRECTION ( 'NONE',  ( 1.000000000000000000, 0.0000000000000000000, 0.0000000000000000000 ) ) ;
#37 = DIRECTION ( 'NONE',  ( 0.0000000000000000000, 0.0000000000000000000, 1.000000000000000000 ) ) ;
#38 = CARTESIAN_POINT ( 'NONE',  ( 0.0000000000000000000, 0.0000000000000000000, 0.0000000000000000000 ) ) ;
#39 = SHAPE_DEFINITION_REPRESENTATION ( #196, #194 ) ;
#40 = DIRECTION ( 'NONE',  ( 0.0000000000000000000, 0.0000000000000000000, -1.000000000000000000 ) ) ;
#41 = DIRECTION ( 'NONE',  ( -0.0000000000000000000, -1.000000000000000000, -0.0000000000000000000 ) ) ;
#42 = VERTEX_POINT ( 'NONE', #72 ) ;
#43 = CARTESIAN_POINT ( 'NONE',  ( 0.0000000000000000000, 0.0000000000000000000, -8.000000000000000000 ) ) ;
#44 = VERTEX_POINT ( 'NONE', #74 ) ;
#45 = LINE ( 'NONE', #43, #266 ) ;
#46 = CARTESIAN_POINT ( 'NONE',  ( 0.0000000000000000000, 17.56996778808025900, 0.0000000000000000000 ) ) ;
#47 = DIRECTION ( 'NONE',  ( 0.0000000000000000000, 0.0000000000000000000, -1.000000000000000000 ) ) ;
#48 = DIRECTION ( 'NONE',  ( -0.0000000000000000000, -1.000000000000000000, -0.0000000000000000000 ) ) ;
#49 = EDGE_LOOP ( 'NONE', ( #128, #124, #158, #154 ) ) ;
#50 = ORIENTED_EDGE ( 'NONE', *, *, #212, .F. ) ;
#51 = VERTEX_POINT ( 'NONE', #83 ) ;
#52 = CARTESIAN_POINT ( 'NONE',  ( 0.0000000000000000000, -1.224646799147353700E-015, 0.0000000000000000000 ) ) ;
#53 = ORIENTED_EDGE ( 'NONE', *, *, #239, .F. ) ;
#54 = CARTESIAN_POINT ( 'NONE',  ( 4.898587196589412800E-016, 0.0000000000000000000, 4.000000000000000000 ) ) ;
#55 = CARTESIAN_POINT ( 'NONE',  ( 0.0000000000000000000, 0.0000000000000000000, 0.0000000000000000000 ) ) ;
#56 = DIRECTION ( 'NONE',  ( -0.0000000000000000000, -1.000000000000000000, -0.0000000000000000000 ) ) ;
#57 = DIRECTION ( 'NONE',  ( 0.0000000000000000000, 0.0000000000000000000, -1.000000000000000000 ) ) ;
#58 = DIRECTION ( 'NONE',  ( -0.0000000000000000000, -1.000000000000000000, -0.0000000000000000000 ) ) ;
#59 = DIRECTION ( 'NONE',  ( 0.0000000000000000000, 0.0000000000000000000, -1.000000000000000000 ) ) ;
#60 = DIRECTION ( 'NONE',  ( -0.0000000000000000000, -1.000000000000000000, -0.0000000000000000000 ) ) ;
#61 = PLANE ( 'NONE',  #315 ) ;
#62 = DIRECTION ( 'NONE',  ( -0.0000000000000000000, -1.000000000000000000, -0.0000000000000000000 ) ) ;
#63 = DIRECTION ( 'NONE',  ( 0.0000000000000000000, -1.000000000000000000, -0.0000000000000000000 ) ) ;
#64 = CARTESIAN_POINT ( 'NONE',  ( 8.000000000000000000, -9.797174393178829600E-016, 0.0000000000000000000 ) ) ;
#65 = CARTESIAN_POINT ( 'NONE',  ( 0.0000000000000000000, 3.600000000000000500, 0.0000000000000000000 ) ) ;
#66 = DIRECTION ( 'NONE',  ( 0.0000000000000000000, 0.0000000000000000000, -1.000000000000000000 ) ) ;
#67 = DIRECTION ( 'NONE',  ( -0.0000000000000000000, -1.000000000000000000, -0.0000000000000000000 ) ) ;
#68 = ORIENTED_EDGE ( 'NONE', *, *, #212, .T. ) ;
#69 = DIRECTION ( 'NONE',  ( 0.0000000000000000000, 0.0000000000000000000, -1.000000000000000000 ) ) ;
#70 = VERTEX_POINT ( 'NONE', #85 ) ;
#71 = CARTESIAN_POINT ( 'NONE',  ( 0.0000000000000000000, 2.078034403250591700, 0.0000000000000000000 ) ) ;
#72 = CARTESIAN_POINT ( 'NONE',  ( 0.0000000000000000000, -7.347880794884122700E-016, -8.000000000000000000 ) ) ;
#73 = VERTEX_POINT ( 'NONE', #80 ) ;
#74 = CARTESIAN_POINT ( 'NONE',  ( 4.898587196589412800E-016, -1.224646799147353700E-015, 4.000000000000000000 ) ) ;
#75 = CARTESIAN_POINT ( 'NONE',  ( 9.797174393178825700E-016, 3.600000000000000100, 8.000000000000000000 ) ) ;
#76 = CARTESIAN_POINT ( 'NONE',  ( -4.000000000000000000, 2.078034403250591700, 7.225416114969384200E-016 ) ) ;
#77 = VERTEX_POINT ( 'NONE', #79 ) ;
#78 = CARTESIAN_POINT ( 'NONE',  ( 7.799999999999998000, 3.600000000000001000, 0.0000000000000000000 ) ) ;
#79 = CARTESIAN_POINT ( 'NONE',  ( 9.797174393178825700E-016, -7.347880794884122700E-016, 8.000000000000000000 ) ) ;
#80 = CARTESIAN_POINT ( 'NONE',  ( 4.898587196589412800E-016, 2.078034403250591700, 4.000000000000000000 ) ) ;
#81 = CARTESIAN_POINT ( 'NONE',  ( 0.0000000000000000000, 2.078034403250591700, -4.000000000000000000 ) ) ;
#82 = VERTEX_POINT ( 'NONE', #81 ) ;
#83 = CARTESIAN_POINT ( 'NONE',  ( 4.000000000000000000, 2.078034403250591700, 0.0000000000000000000 ) ) ;
#84 = DIRECTION ( 'NONE',  ( 1.224646799147353200E-016, -0.0000000000000000000, 1.000000000000000000 ) ) ;
#85 = CARTESIAN_POINT ( 'NONE',  ( 0.0000000000000000000, -1.224646799147353700E-015, -4.000000000000000000 ) ) ;
#86 = DIRECTION ( 'NONE',  ( 0.0000000000000000000, 0.0000000000000000000, 1.000000000000000000 ) ) ;
#87 = DIRECTION ( 'NONE',  ( 1.000000000000000000, 0.0000000000000000000, -1.224646799147353200E-016 ) ) ;
#88 = EDGE_LOOP ( 'NONE', ( #116, #141, #50, #146, #151 ) ) ;
#89 = DIRECTION ( 'NONE',  ( 0.0000000000000000000, 0.0000000000000000000, -1.000000000000000000 ) ) ;
#90 = ORIENTED_EDGE ( 'NONE', *, *, #241, .T. ) ;
#91 = CARTESIAN_POINT ( 'NONE',  ( 0.0000000000000000000, 17.56996778808025900, 0.0000000000000000000 ) ) ;
#92 = DIRECTION ( 'NONE',  ( -0.0000000000000000000, -1.000000000000000000, -0.0000000000000000000 ) ) ;
#93 = CARTESIAN_POINT ( 'NONE',  ( 0.0000000000000000000, 0.0000000000000000000, 0.0000000000000000000 ) ) ;
#94 = DIRECTION ( 'NONE',  ( -0.0000000000000000000, -1.000000000000000000, -0.0000000000000000000 ) ) ;
#95 = CARTESIAN_POINT ( 'NONE',  ( 0.0000000000000000000, 3.600000000000000100, 0.0000000000000000000 ) ) ;
#96 = DIRECTION ( 'NONE',  ( 0.0000000000000000000, 0.0000000000000000000, -1.000000000000000000 ) ) ;
#97 = CARTESIAN_POINT ( 'NONE',  ( 0.0000000000000000000, 0.0000000000000000000, 0.0000000000000000000 ) ) ;
#98 = DIRECTION ( 'NONE',  ( -0.0000000000000000000, -1.000000000000000000, -0.0000000000000000000 ) ) ;
#99 = DIRECTION ( 'NONE',  ( 0.0000000000000000000, 0.0000000000000000000, -1.000000000000000000 ) ) ;
#100 = DIRECTION ( 'NONE',  ( -0.0000000000000000000, -1.000000000000000000, -0.0000000000000000000 ) ) ;
#101 = DIRECTION ( 'NONE',  ( 0.0000000000000000000, 0.0000000000000000000, -1.000000000000000000 ) ) ;
#102 = DIRECTION ( 'NONE',  ( -0.0000000000000000000, -1.000000000000000000, -0.0000000000000000000 ) ) ;
#103 = ORIENTED_EDGE ( 'NONE', *, *, #201, .F. ) ;
#104 = ORIENTED_EDGE ( 'NONE', *, *, #199, .F. ) ;
#105 = EDGE_LOOP ( 'NONE', ( #111, #156 ) ) ;
#106 = CARTESIAN_POINT ( 'NONE',  ( -7.799999999999998000, 3.600000000000001000, 9.552245033349354600E-016 ) ) ;
#107 = EDGE_LOOP ( 'NONE', ( #137, #118 ) ) ;
#108 = ORIENTED_EDGE ( 'NONE', *, *, #234, .T. ) ;
#109 = ORIENTED_EDGE ( 'NONE', *, *, #225, .T. ) ;
#110 = EDGE_LOOP ( 'NONE', ( #53, #121, #108, #68, #129 ) ) ;
#111 = ORIENTED_EDGE ( 'NONE', *, *, #206, .F. ) ;
#112 = ORIENTED_EDGE ( 'NONE', *, *, #203, .T. ) ;
#113 = ORIENTED_EDGE ( 'NONE', *, *, #232, .T. ) ;
#114 = ORIENTED_EDGE ( 'NONE', *, *, #236, .F. ) ;
#115 = ORIENTED_EDGE ( 'NONE', *, *, #221, .T. ) ;
#116 = ORIENTED_EDGE ( 'NONE', *, *, #241, .F. ) ;
#117 = VERTEX_POINT ( 'NONE', #76 ) ;
#118 = ORIENTED_EDGE ( 'NONE', *, *, #239, .T. ) ;
#119 = ORIENTED_EDGE ( 'NONE', *, *, #234, .F. ) ;
#120 = ORIENTED_EDGE ( 'NONE', *, *, #216, .T. ) ;
#121 = ORIENTED_EDGE ( 'NONE', *, *, #201, .T. ) ;
#122 = DIRECTION ( 'NONE',  ( -0.0000000000000000000, -1.000000000000000000, -0.0000000000000000000 ) ) ;
#123 = ORIENTED_EDGE ( 'NONE', *, *, #217, .T. ) ;
#124 = ORIENTED_EDGE ( 'NONE', *, *, #243, .T. ) ;
#125 = DIRECTION ( 'NONE',  ( 0.0000000000000000000, 0.0000000000000000000, -1.000000000000000000 ) ) ;
#126 = ORIENTED_EDGE ( 'NONE', *, *, #254, .F. ) ;
#127 = ORIENTED_EDGE ( 'NONE', *, *, #221, .F. ) ;
#128 = ORIENTED_EDGE ( 'NONE', *, *, #206, .T. ) ;
#129 = ORIENTED_EDGE ( 'NONE', *, *, #225, .F. ) ;
#130 = DIRECTION ( 'NONE',  ( 0.0000000000000000000, 0.0000000000000000000, -1.000000000000000000 ) ) ;
#131 = ORIENTED_EDGE ( 'NONE', *, *, #237, .F. ) ;
#132 = EDGE_LOOP ( 'NONE', ( #104, #127 ) ) ;
#133 = ORIENTED_EDGE ( 'NONE', *, *, #223, .T. ) ;
#134 = DIRECTION ( 'NONE',  ( -0.0000000000000000000, -1.000000000000000000, -0.0000000000000000000 ) ) ;
#135 = ORIENTED_EDGE ( 'NONE', *, *, #243, .F. ) ;
#136 = CARTESIAN_POINT ( 'NONE',  ( 0.0000000000000000000, -7.347880794884122700E-016, 0.0000000000000000000 ) ) ;
#137 = ORIENTED_EDGE ( 'NONE', *, *, #254, .T. ) ;
#138 = ORIENTED_EDGE ( 'NONE', *, *, #236, .T. ) ;
#139 = DIRECTION ( 'NONE',  ( -0.0000000000000000000, -1.000000000000000000, -0.0000000000000000000 ) ) ;
#140 = EDGE_LOOP ( 'NONE', ( #103, #126, #109, #113, #112 ) ) ;
#141 = ORIENTED_EDGE ( 'NONE', *, *, #232, .F. ) ;
#142 = DIRECTION ( 'NONE',  ( -0.0000000000000000000, -1.000000000000000000, -0.0000000000000000000 ) ) ;
#143 = DIRECTION ( 'NONE',  ( -1.000000000000000000, 0.0000000000000000000, 0.0000000000000000000 ) ) ;
#144 = EDGE_LOOP ( 'NONE', ( #123, #138 ) ) ;
#145 = DIRECTION ( 'NONE',  ( 0.0000000000000000000, 0.0000000000000000000, -1.000000000000000000 ) ) ;
#146 = ORIENTED_EDGE ( 'NONE', *, *, #237, .T. ) ;
#147 = CARTESIAN_POINT ( 'NONE',  ( 0.0000000000000000000, 3.600000000000000100, 0.0000000000000000000 ) ) ;
#148 = EDGE_LOOP ( 'NONE', ( #149, #90, #115, #131, #119 ) ) ;
#149 = ORIENTED_EDGE ( 'NONE', *, *, #203, .F. ) ;
#150 = DIRECTION ( 'NONE',  ( 0.0000000000000000000, 0.0000000000000000000, -1.000000000000000000 ) ) ;
#151 = ORIENTED_EDGE ( 'NONE', *, *, #199, .T. ) ;
#152 = CARTESIAN_POINT ( 'NONE',  ( 0.0000000000000000000, 0.0000000000000000000, 0.0000000000000000000 ) ) ;
#153 = EDGE_LOOP ( 'NONE', ( #135, #120, #133, #114 ) ) ;
#154 = ORIENTED_EDGE ( 'NONE', *, *, #223, .F. ) ;
#155 = DIRECTION ( 'NONE',  ( 1.000000000000000000, 0.0000000000000000000, 0.0000000000000000000 ) ) ;
#156 = ORIENTED_EDGE ( 'NONE', *, *, #216, .F. ) ;
#157 = CARTESIAN_POINT ( 'NONE',  ( 0.0000000000000000000, 17.56996778808025900, 0.0000000000000000000 ) ) ;
#158 = ORIENTED_EDGE ( 'NONE', *, *, #217, .F. ) ;
#159 =( NAMED_UNIT ( * ) SI_UNIT ( $, .STERADIAN. ) SOLID_ANGLE_UNIT ( ) );
#160 = DIRECTION ( 'NONE',  ( -0.0000000000000000000, -1.000000000000000000, -0.0000000000000000000 ) ) ;
#161 = CARTESIAN_POINT ( 'NONE',  ( 0.0000000000000000000, 0.0000000000000000000, -4.000000000000000000 ) ) ;
#162 = LINE ( 'NONE', #161, #285 ) ;
#163 = CARTESIAN_POINT ( 'NONE',  ( 0.0000000000000000000, 3.600000000000000500, 0.0000000000000000000 ) ) ;
#164 = DIRECTION ( 'NONE',  ( 1.000000000000000000, 0.0000000000000000000, 0.0000000000000000000 ) ) ;
#165 = DIRECTION ( 'NONE',  ( 0.0000000000000000000, 0.0000000000000000000, -1.000000000000000000 ) ) ;
#166 = CARTESIAN_POINT ( 'NONE',  ( 0.0000000000000000000, 2.078034403250591700, 0.0000000000000000000 ) ) ;
#167 = DIRECTION ( 'NONE',  ( -0.0000000000000000000, -1.000000000000000000, -0.0000000000000000000 ) ) ;
#168 = CARTESIAN_POINT ( 'NONE',  ( 0.0000000000000000000, -7.347880794884122700E-016, 0.0000000000000000000 ) ) ;
#169 = DIRECTION ( 'NONE',  ( 0.0000000000000000000, 0.0000000000000000000, -1.000000000000000000 ) ) ;
#170 = DIRECTION ( 'NONE',  ( 0.0000000000000000000, -1.000000000000000000, -0.0000000000000000000 ) ) ;
#171 = CARTESIAN_POINT ( 'NONE',  ( 7.800000000000000700, 3.600000000000000100, 0.0000000000000000000 ) ) ;
#172 = PLANE ( 'NONE',  #268 ) ;
#173 = DIRECTION ( 'NONE',  ( 0.0000000000000000000, 0.0000000000000000000, -1.000000000000000000 ) ) ;
#174 = DIRECTION ( 'NONE',  ( -0.0000000000000000000, -1.000000000000000000, -0.0000000000000000000 ) ) ;
#175 = DIRECTION ( 'NONE',  ( 0.0000000000000000000, 0.0000000000000000000, 1.000000000000000000 ) ) ;
#176 = CARTESIAN_POINT ( 'NONE',  ( 0.0000000000000000000, 2.078034403250591700, 0.0000000000000000000 ) ) ;
#177 = DIRECTION ( 'NONE',  ( -0.0000000000000000000, -1.000000000000000000, -0.0000000000000000000 ) ) ;
#178 = LINE ( 'NONE', #54, #264 ) ;
#179 = DIRECTION ( 'NONE',  ( 0.0000000000000000000, 0.0000000000000000000, -1.000000000000000000 ) ) ;
#180 = CARTESIAN_POINT ( 'NONE',  ( 0.0000000000000000000, 17.56996778808025900, 0.0000000000000000000 ) ) ;
#181 = CARTESIAN_POINT ( 'NONE',  ( 0.0000000000000000000, 3.600000000000000100, -8.000000000000000000 ) ) ;
#182 = CARTESIAN_POINT ( 'NONE',  ( 0.0000000000000000000, 2.078034403250591700, 0.0000000000000000000 ) ) ;
#183 =( NAMED_UNIT ( * ) PLANE_ANGLE_UNIT ( ) SI_UNIT ( $, .RADIAN. ) );
#184 = CARTESIAN_POINT ( 'NONE',  ( 9.797174393178825700E-016, 0.0000000000000000000, 8.000000000000000000 ) ) ;
#185 = LINE ( 'NONE', #184, #289 ) ;
#186 =( LENGTH_UNIT ( ) NAMED_UNIT ( * ) SI_UNIT ( .MILLI., .METRE. ) );
#187 = CARTESIAN_POINT ( 'NONE',  ( 0.0000000000000000000, -1.224646799147353700E-015, 0.0000000000000000000 ) ) ;
#188 = VERTEX_POINT ( 'NONE', #106 ) ;
#189 = VERTEX_POINT ( 'NONE', #78 ) ;
#190 = DIRECTION ( 'NONE',  ( 0.0000000000000000000, 0.0000000000000000000, -1.000000000000000000 ) ) ;
#191 = VERTEX_POINT ( 'NONE', #75 ) ;
#192 = VERTEX_POINT ( 'NONE', #181 ) ;
#193 = UNCERTAINTY_MEASURE_WITH_UNIT (LENGTH_MEASURE( 1.000000000000000100E-005 ), #186, 'distance_accuracy_value', 'NONE');
#194 = ADVANCED_BREP_SHAPE_REPRESENTATION ( 'WDS-401-201F', ( #198, #283 ), #320 ) ;
#195 = PERSON ( 'UNSPECIFIED', 'UNSPECIFIED', 'UNSPECIFIED', ('UNSPECIFIED'), ('UNSPECIFIED'), ('UNSPECIFIED') ) ;
#196 = PRODUCT_DEFINITION_SHAPE ( 'NONE', 'NONE',  #246 ) ;
#197 = DESIGN_CONTEXT ( 'detailed design', #2, 'design' ) ;
#198 = MANIFOLD_SOLID_BREP ( 'Cut-Revolve1', #296 ) ;
#199 = EDGE_CURVE ( 'NONE', #70, #44, #238, .T. ) ;
#200 = CIRCLE ( 'NONE', #262, 7.800000000000000700 ) ;
#201 = EDGE_CURVE ( 'NONE', #188, #117, #218, .T. ) ;
#202 = CC_DESIGN_PERSON_AND_ORGANIZATION_ASSIGNMENT ( #14, #12, ( #281 ) ) ;
#203 = EDGE_CURVE ( 'NONE', #73, #117, #222, .T. ) ;
#204 = CC_DESIGN_DATE_AND_TIME_ASSIGNMENT ( #11, #7, ( #282 ) ) ;
#205 = CIRCLE ( 'NONE', #278, 8.000000000000000000 ) ;
#206 = EDGE_CURVE ( 'NONE', #192, #191, #226, .T. ) ;
#207 = APPROVAL ( #33, 'UNSPECIFIED' ) ;
#208 = CIRCLE ( 'NONE', #316, 4.000000000000000000 ) ;
#209 = LOCAL_TIME ( 14, 5, 48.00000000000000000, #287 ) ;
#210 = PRODUCT_RELATED_PRODUCT_CATEGORY ( 'detail', '', ( #321 ) ) ;
#211 = ADVANCED_FACE ( 'NONE', ( #318 ), #271, .F. ) ;
#212 = EDGE_CURVE ( 'NONE', #82, #51, #233, .T. ) ;
#213 = ADVANCED_FACE ( 'NONE', ( #317 ), #277, .F. ) ;
#214 = CC_DESIGN_PERSON_AND_ORGANIZATION_ASSIGNMENT ( #3, #21, ( #246 ) ) ;
#215 = LOCAL_TIME ( 14, 5, 48.00000000000000000, #258 ) ;
#216 = EDGE_CURVE ( 'NONE', #191, #192, #229, .T. ) ;
#217 = EDGE_CURVE ( 'NONE', #42, #77, #205, .T. ) ;
#218 = CIRCLE ( 'NONE', #312, 16.00000000000000000 ) ;
#219 = ADVANCED_FACE ( 'NONE', ( #299 ), #319, .F. ) ;
#220 = ADVANCED_FACE ( 'NONE', ( #297 ), #309, .T. ) ;
#221 = EDGE_CURVE ( 'NONE', #44, #70, #227, .T. ) ;
#222 = CIRCLE ( 'NONE', #272, 4.000000000000000000 ) ;
#223 = EDGE_CURVE ( 'NONE', #192, #42, #45, .T. ) ;
#224 = CIRCLE ( 'NONE', #311, 7.800000000000000700 ) ;
#225 = EDGE_CURVE ( 'NONE', #189, #51, #231, .T. ) ;
#226 = CIRCLE ( 'NONE', #257, 8.000000000000000000 ) ;
#227 = CIRCLE ( 'NONE', #274, 4.000000000000000000 ) ;
#228 = ADVANCED_FACE ( 'NONE', ( #263 ), #288, .F. ) ;
#229 = CIRCLE ( 'NONE', #267, 8.000000000000000000 ) ;
#230 = CIRCLE ( 'NONE', #293, 4.000000000000000000 ) ;
#231 = CIRCLE ( 'NONE', #307, 16.00000000000000000 ) ;
#232 = EDGE_CURVE ( 'NONE', #51, #73, #230, .T. ) ;
#233 = CIRCLE ( 'NONE', #301, 4.000000000000000000 ) ;
#234 = EDGE_CURVE ( 'NONE', #117, #82, #208, .T. ) ;
#235 = ADVANCED_FACE ( 'NONE', ( #269, #295 ), #172, .F. ) ;
#236 = EDGE_CURVE ( 'NONE', #77, #42, #242, .T. ) ;
#237 = EDGE_CURVE ( 'NONE', #82, #70, #162, .T. ) ;
#238 = CIRCLE ( 'NONE', #308, 4.000000000000000000 ) ;
#239 = EDGE_CURVE ( 'NONE', #188, #189, #224, .T. ) ;
#240 = CC_DESIGN_PERSON_AND_ORGANIZATION_ASSIGNMENT ( #20, #15, ( #281 ) ) ;
#241 = EDGE_CURVE ( 'NONE', #73, #44, #178, .T. ) ;
#242 = CIRCLE ( 'NONE', #270, 8.000000000000000000 ) ;
#243 = EDGE_CURVE ( 'NONE', #191, #77, #185, .T. ) ;
#244 = CC_DESIGN_PERSON_AND_ORGANIZATION_ASSIGNMENT ( #23, #35, ( #321 ) ) ;
#245 = CC_DESIGN_PERSON_AND_ORGANIZATION_ASSIGNMENT ( #26, #9, ( #282 ) ) ;
#246 = PRODUCT_DEFINITION ( 'UNKNOWN', '', #281, #197 ) ;
#247 = APPROVAL ( #32, 'UNSPECIFIED' ) ;
#248 = LOCAL_TIME ( 14, 5, 48.00000000000000000, #292 ) ;
#249 = ADVANCED_FACE ( 'NONE', ( #313 ), #294, .T. ) ;
#250 = CC_DESIGN_DATE_AND_TIME_ASSIGNMENT ( #22, #24, ( #246 ) ) ;
#251 = LOCAL_TIME ( 14, 5, 48.00000000000000000, #290 ) ;
#252 = ADVANCED_FACE ( 'NONE', ( #261, #286 ), #61, .T. ) ;
#253 = APPROVAL ( #29, 'UNSPECIFIED' ) ;
#254 = EDGE_CURVE ( 'NONE', #189, #188, #200, .T. ) ;
#255 = LOCAL_TIME ( 14, 5, 48.00000000000000000, #306 ) ;
#256 = AXIS2_PLACEMENT_3D ( 'NONE', #152, #67, #150 ) ;
#257 = AXIS2_PLACEMENT_3D ( 'NONE', #95, #98, #99 ) ;
#258 = COORDINATED_UNIVERSAL_TIME_OFFSET ( 5, 0, .BEHIND. ) ;
#259 = APPROVAL_PERSON_ORGANIZATION ( #18, #253, #4 ) ;
#260 = CC_DESIGN_APPROVAL ( #253, ( #281 ) ) ;
#261 = FACE_OUTER_BOUND ( 'NONE', #144, .T. ) ;
#262 = AXIS2_PLACEMENT_3D ( 'NONE', #65, #60, #59 ) ;
#263 = FACE_OUTER_BOUND ( 'NONE', #140, .T. ) ;
#264 = VECTOR ( 'NONE', #62, 1000.000000000000000 ) ;
#265 = CC_DESIGN_SECURITY_CLASSIFICATION ( #282, ( #281 ) ) ;
#266 = VECTOR ( 'NONE', #41, 1000.000000000000000 ) ;
#267 = AXIS2_PLACEMENT_3D ( 'NONE', #147, #142, #145 ) ;
#268 = AXIS2_PLACEMENT_3D ( 'NONE', #171, #170, #169 ) ;
#269 = FACE_OUTER_BOUND ( 'NONE', #105, .T. ) ;
#270 = AXIS2_PLACEMENT_3D ( 'NONE', #168, #167, #165 ) ;
#271 = CYLINDRICAL_SURFACE ( 'NONE', #273, 4.000000000000000000 ) ;
#272 = AXIS2_PLACEMENT_3D ( 'NONE', #71, #92, #130 ) ;
#273 = AXIS2_PLACEMENT_3D ( 'NONE', #97, #100, #96 ) ;
#274 = AXIS2_PLACEMENT_3D ( 'NONE', #187, #48, #47 ) ;
#275 = APPROVAL_PERSON_ORGANIZATION ( #25, #207, #6 ) ;
#276 = CALENDAR_DATE ( 2012, 30, 3 ) ;
#277 = CYLINDRICAL_SURFACE ( 'NONE', #256, 4.000000000000000000 ) ;
#278 = AXIS2_PLACEMENT_3D ( 'NONE', #136, #139, #125 ) ;
#279 = APPROVAL_PERSON_ORGANIZATION ( #17, #247, #30 ) ;
#280 = CALENDAR_DATE ( 2012, 30, 3 ) ;
#281 = PRODUCT_DEFINITION_FORMATION_WITH_SPECIFIED_SOURCE ( 'ANY', '', #321, .NOT_KNOWN. ) ;
#282 = SECURITY_CLASSIFICATION ( '', '', #10 ) ;
#283 = AXIS2_PLACEMENT_3D ( 'NONE', #38, #37, #36 ) ;
#284 = CC_DESIGN_APPROVAL ( #247, ( #246 ) ) ;
#285 = VECTOR ( 'NONE', #58, 1000.000000000000000 ) ;
#286 = FACE_BOUND ( 'NONE', #132, .T. ) ;
#287 = COORDINATED_UNIVERSAL_TIME_OFFSET ( 5, 0, .BEHIND. ) ;
#288 = SPHERICAL_SURFACE ( 'NONE', #310, 16.00000000000000000 ) ;
#289 = VECTOR ( 'NONE', #102, 1000.000000000000000 ) ;
#290 = COORDINATED_UNIVERSAL_TIME_OFFSET ( 5, 0, .BEHIND. ) ;
#291 = CALENDAR_DATE ( 2012, 30, 3 ) ;
#292 = COORDINATED_UNIVERSAL_TIME_OFFSET ( 5, 0, .BEHIND. ) ;
#293 = AXIS2_PLACEMENT_3D ( 'NONE', #166, #177, #179 ) ;
#294 = CYLINDRICAL_SURFACE ( 'NONE', #304, 8.000000000000000000 ) ;
#295 = FACE_BOUND ( 'NONE', #107, .T. ) ;
#296 = CLOSED_SHELL ( 'NONE', ( #219, #220, #213, #252, #211, #249, #228, #235 ) ) ;
#297 = FACE_OUTER_BOUND ( 'NONE', #49, .T. ) ;
#298 = AXIS2_PLACEMENT_3D ( 'NONE', #157, #86, #155 ) ;
#299 = FACE_OUTER_BOUND ( 'NONE', #110, .T. ) ;
#300 = CALENDAR_DATE ( 2012, 30, 3 ) ;
#301 = AXIS2_PLACEMENT_3D ( 'NONE', #182, #94, #89 ) ;
#302 = AXIS2_PLACEMENT_3D ( 'NONE', #93, #122, #190 ) ;
#303 = ORGANIZATION ( 'UNSPECIFIED', 'UNSPECIFIED', '' ) ;
#304 = AXIS2_PLACEMENT_3D ( 'NONE', #55, #160, #101 ) ;
#305 = CALENDAR_DATE ( 2012, 30, 3 ) ;
#306 = COORDINATED_UNIVERSAL_TIME_OFFSET ( 5, 0, .BEHIND. ) ;
#307 = AXIS2_PLACEMENT_3D ( 'NONE', #46, #40, #143 ) ;
#308 = AXIS2_PLACEMENT_3D ( 'NONE', #52, #134, #69 ) ;
#309 = CYLINDRICAL_SURFACE ( 'NONE', #302, 8.000000000000000000 ) ;
#310 = AXIS2_PLACEMENT_3D ( 'NONE', #180, #175, #164 ) ;
#311 = AXIS2_PLACEMENT_3D ( 'NONE', #163, #56, #57 ) ;
#312 = AXIS2_PLACEMENT_3D ( 'NONE', #91, #84, #87 ) ;
#313 = FACE_OUTER_BOUND ( 'NONE', #153, .T. ) ;
#314 = CC_DESIGN_APPROVAL ( #207, ( #282 ) ) ;
#315 = AXIS2_PLACEMENT_3D ( 'NONE', #64, #63, #66 ) ;
#316 = AXIS2_PLACEMENT_3D ( 'NONE', #176, #174, #173 ) ;
#317 = FACE_OUTER_BOUND ( 'NONE', #148, .T. ) ;
#318 = FACE_OUTER_BOUND ( 'NONE', #88, .T. ) ;
#319 = SPHERICAL_SURFACE ( 'NONE', #298, 16.00000000000000000 ) ;
#320 =( GEOMETRIC_REPRESENTATION_CONTEXT ( 3 ) GLOBAL_UNCERTAINTY_ASSIGNED_CONTEXT ( ( #193 ) ) GLOBAL_UNIT_ASSIGNED_CONTEXT ( ( #186, #183, #159 ) ) REPRESENTATION_CONTEXT ( 'NONE', 'WORKASPACE' ) );
#321 = PRODUCT ( 'WDS-401-201F', 'WDS-401-201F', '', ( #13 ) ) ;
ENDSEC;
END-ISO-10303-21;
