ISO-10303-21;
HEADER;
FILE_DESCRIPTION (( 'STEP AP203' ),
    '1' );
FILE_NAME ('WDS-401-211M.step',
    '2012-04-05T09:59:21',
    ( 'SysAdmin' ),
    ( 'SolidWorks' ),
    'SwSTEP 2.0',
    'SolidWorks 2012',
    '' );
FILE_SCHEMA (( 'CONFIG_CONTROL_DESIGN' ));
ENDSEC;

DATA;
#1 = CIRCLE ( 'NONE', #2, 80.00000000000000000 ) ;
#2 = AXIS2_PLACEMENT_3D ( 'NONE', #9, #30, #47 ) ;
#3 = DIRECTION ( 'NONE',  ( 0.0000000000000000000, 0.0000000000000000000, -1.000000000000000000 ) ) ;
#4 = DIRECTION ( 'NONE',  ( -0.0000000000000000000, -1.000000000000000000, -0.0000000000000000000 ) ) ;
#5 = CARTESIAN_POINT ( 'NONE',  ( 0.0000000000000000000, 2.100000000000001000, 0.0000000000000000000 ) ) ;
#6 = CIRCLE ( 'NONE', #31, 17.75000000000000000 ) ;
#7 = DIRECTION ( 'NONE',  ( 1.000000000000000000, 0.0000000000000000000, 0.0000000000000000000 ) ) ;
#8 = DIRECTION ( 'NONE',  ( 0.0000000000000000000, 0.0000000000000000000, 1.000000000000000000 ) ) ;
#9 = CARTESIAN_POINT ( 'NONE',  ( 0.0000000000000000000, 80.10600938389299600, 0.0000000000000000000 ) ) ;
#10 = CARTESIAN_POINT ( 'NONE',  ( 0.0000000000000000000, 2.100000000000001000, 0.0000000000000000000 ) ) ;
#11 = CARTESIAN_POINT ( 'NONE',  ( 0.0000000000000000000, 2.100000000000001000, 0.0000000000000000000 ) ) ;
#12 = CARTESIAN_POINT ( 'NONE',  ( 0.0000000000000000000, 10.50000000000000200, 0.0000000000000000000 ) ) ;
#13 = CIRCLE ( 'NONE', #63, 33.50000000000000000 ) ;
#14 = AXIS2_PLACEMENT_3D ( 'NONE', #37, #36, #35 ) ;
#15 = DIRECTION ( 'NONE',  ( -1.000000000000000000, 0.0000000000000000000, 0.0000000000000000000 ) ) ;
#16 = DIRECTION ( 'NONE',  ( 0.0000000000000000000, 0.0000000000000000000, -1.000000000000000000 ) ) ;
#17 = CARTESIAN_POINT ( 'NONE',  ( 0.0000000000000000000, 80.10600938389299600, 0.0000000000000000000 ) ) ;
#18 = AXIS2_PLACEMENT_3D ( 'NONE', #17, #16, #15 ) ;
#19 = AXIS2_PLACEMENT_3D ( 'NONE', #10, #55, #54 ) ;
#20 = CARTESIAN_POINT ( 'NONE',  ( 2.173748068486551600E-015, 10.50000000000000200, 17.75000000000000000 ) ) ;
#21 = DIRECTION ( 'NONE',  ( 0.0000000000000000000, 0.0000000000000000000, -1.000000000000000000 ) ) ;
#22 = DIRECTION ( 'NONE',  ( -0.0000000000000000000, -1.000000000000000000, -0.0000000000000000000 ) ) ;
#23 = CARTESIAN_POINT ( 'NONE',  ( 0.0000000000000000000, 2.100000000000001000, 0.0000000000000000000 ) ) ;
#24 = AXIS2_PLACEMENT_3D ( 'NONE', #23, #22, #21 ) ;
#25 = CIRCLE ( 'NONE', #24, 17.75000000000000000 ) ;
#26 = CIRCLE ( 'NONE', #19, 17.75000000000000000 ) ;
#27 = DIRECTION ( 'NONE',  ( 0.0000000000000000000, 0.0000000000000000000, -1.000000000000000000 ) ) ;
#28 = DIRECTION ( 'NONE',  ( -0.0000000000000000000, -1.000000000000000000, -0.0000000000000000000 ) ) ;
#29 = CARTESIAN_POINT ( 'NONE',  ( 0.0000000000000000000, 7.457884838244878800, 0.0000000000000000000 ) ) ;
#30 = DIRECTION ( 'NONE',  ( 1.224646799147353200E-016, -0.0000000000000000000, 1.000000000000000000 ) ) ;
#31 = AXIS2_PLACEMENT_3D ( 'NONE', #5, #4, #3 ) ;
#32 = AXIS2_PLACEMENT_3D ( 'NONE', #45, #8, #7 ) ;
#33 = FACE_OUTER_BOUND ( 'NONE', #120, .T. ) ;
#34 = AXIS2_PLACEMENT_3D ( 'NONE', #29, #28, #27 ) ;
#35 = DIRECTION ( 'NONE',  ( 1.000000000000000000, 0.0000000000000000000, 0.0000000000000000000 ) ) ;
#36 = DIRECTION ( 'NONE',  ( 0.0000000000000000000, 0.0000000000000000000, 1.000000000000000000 ) ) ;
#37 = CARTESIAN_POINT ( 'NONE',  ( 0.0000000000000000000, 80.10600938389299600, 0.0000000000000000000 ) ) ;
#38 = DIRECTION ( 'NONE',  ( 0.0000000000000000000, 0.0000000000000000000, -1.000000000000000000 ) ) ;
#39 = DIRECTION ( 'NONE',  ( -0.0000000000000000000, -1.000000000000000000, -0.0000000000000000000 ) ) ;
#40 = SPHERICAL_SURFACE ( 'NONE', #32, 80.00000000000000000 ) ;
#41 = AXIS2_PLACEMENT_3D ( 'NONE', #11, #39, #38 ) ;
#42 = CIRCLE ( 'NONE', #34, 33.50000000000000000 ) ;
#43 = DIRECTION ( 'NONE',  ( 0.0000000000000000000, 0.0000000000000000000, -1.000000000000000000 ) ) ;
#44 = DIRECTION ( 'NONE',  ( -0.0000000000000000000, -1.000000000000000000, -0.0000000000000000000 ) ) ;
#45 = CARTESIAN_POINT ( 'NONE',  ( 0.0000000000000000000, 80.10600938389299600, 0.0000000000000000000 ) ) ;
#46 = CIRCLE ( 'NONE', #41, 17.75000000000000000 ) ;
#47 = DIRECTION ( 'NONE',  ( 1.000000000000000000, 0.0000000000000000000, -1.224646799147353200E-016 ) ) ;
#48 = CIRCLE ( 'NONE', #64, 17.75000000000000000 ) ;
#49 = DIRECTION ( 'NONE',  ( 0.0000000000000000000, 0.0000000000000000000, -1.000000000000000000 ) ) ;
#50 = DIRECTION ( 'NONE',  ( -0.0000000000000000000, -1.000000000000000000, -0.0000000000000000000 ) ) ;
#51 = CARTESIAN_POINT ( 'NONE',  ( 0.0000000000000000000, 7.457884838244878800, 0.0000000000000000000 ) ) ;
#52 = SPHERICAL_SURFACE ( 'NONE', #14, 80.00000000000000000 ) ;
#53 = FACE_OUTER_BOUND ( 'NONE', #150, .T. ) ;
#54 = DIRECTION ( 'NONE',  ( 0.0000000000000000000, 0.0000000000000000000, -1.000000000000000000 ) ) ;
#55 = DIRECTION ( 'NONE',  ( -0.0000000000000000000, -1.000000000000000000, -0.0000000000000000000 ) ) ;
#56 = CLOSED_SHELL ( 'NONE', ( #160, #92, #102, #169, #115, #119, #154 ) ) ;
#57 = ORIENTED_EDGE ( 'NONE', *, *, #136, .F. ) ;
#58 = VERTEX_POINT ( 'NONE', #139 ) ;
#59 = CIRCLE ( 'NONE', #18, 80.00000000000000000 ) ;
#60 = DIRECTION ( 'NONE',  ( 0.0000000000000000000, 0.0000000000000000000, -1.000000000000000000 ) ) ;
#61 = CARTESIAN_POINT ( 'NONE',  ( 2.173748068486551600E-015, 2.100000000000001000, 17.75000000000000000 ) ) ;
#62 = CARTESIAN_POINT ( 'NONE',  ( 4.102566777143633800E-015, 7.457884838244878800, 33.50000000000000000 ) ) ;
#63 = AXIS2_PLACEMENT_3D ( 'NONE', #51, #50, #49 ) ;
#64 = AXIS2_PLACEMENT_3D ( 'NONE', #12, #44, #43 ) ;
#65 = DIRECTION ( 'NONE',  ( 0.0000000000000000000, -0.0000000000000000000, 1.000000000000000000 ) ) ;
#66 = DIRECTION ( 'NONE',  ( 0.0000000000000000000, 1.000000000000000000, 0.0000000000000000000 ) ) ;
#67 = CARTESIAN_POINT ( 'NONE',  ( 0.0000000000000000000, 0.0000000000000000000, 0.0000000000000000000 ) ) ;
#68 = DIRECTION ( 'NONE',  ( -0.0000000000000000000, -1.000000000000000000, -0.0000000000000000000 ) ) ;
#69 = DIRECTION ( 'NONE',  ( -0.0000000000000000000, -1.000000000000000000, -0.0000000000000000000 ) ) ;
#70 = VECTOR ( 'NONE', #69, 1000.000000000000000 ) ;
#71 = FACE_OUTER_BOUND ( 'NONE', #114, .T. ) ;
#72 = CARTESIAN_POINT ( 'NONE',  ( 17.75000000000000000, 10.50000000000000200, 0.0000000000000000000 ) ) ;
#73 = FACE_BOUND ( 'NONE', #112, .T. ) ;
#74 = CARTESIAN_POINT ( 'NONE',  ( 0.0000000000000000000, 7.457884838244878800, -33.50000000000000000 ) ) ;
#75 = CARTESIAN_POINT ( 'NONE',  ( 17.75000000000000000, 2.100000000000001000, 0.0000000000000000000 ) ) ;
#76 = AXIS2_PLACEMENT_3D ( 'NONE', #72, #66, #65 ) ;
#77 = DIRECTION ( 'NONE',  ( 0.0000000000000000000, 0.0000000000000000000, -1.000000000000000000 ) ) ;
#78 = DIRECTION ( 'NONE',  ( -0.0000000000000000000, -1.000000000000000000, -0.0000000000000000000 ) ) ;
#79 = CIRCLE ( 'NONE', #173, 33.50000000000000000 ) ;
#80 = FACE_OUTER_BOUND ( 'NONE', #90, .T. ) ;
#81 = PLANE ( 'NONE',  #76 ) ;
#82 = CYLINDRICAL_SURFACE ( 'NONE', #180, 17.75000000000000000 ) ;
#83 = DIRECTION ( 'NONE',  ( 0.0000000000000000000, 0.0000000000000000000, -1.000000000000000000 ) ) ;
#84 = DIRECTION ( 'NONE',  ( -0.0000000000000000000, -1.000000000000000000, -0.0000000000000000000 ) ) ;
#85 = CARTESIAN_POINT ( 'NONE',  ( -33.50000000000000000, 7.457884838244876100, 4.102566777143633800E-015 ) ) ;
#86 = ORIENTED_EDGE ( 'NONE', *, *, #104, .F. ) ;
#87 = ORIENTED_EDGE ( 'NONE', *, *, #111, .T. ) ;
#88 = ORIENTED_EDGE ( 'NONE', *, *, #159, .F. ) ;
#89 = ORIENTED_EDGE ( 'NONE', *, *, #171, .F. ) ;
#90 = EDGE_LOOP ( 'NONE', ( #91, #146, #149, #152, #151 ) ) ;
#91 = ORIENTED_EDGE ( 'NONE', *, *, #95, .F. ) ;
#92 = ADVANCED_FACE ( 'NONE', ( #201 ), #158, .F. ) ;
#93 = VERTEX_POINT ( 'NONE', #140 ) ;
#94 = ORIENTED_EDGE ( 'NONE', *, *, #138, .F. ) ;
#95 = EDGE_CURVE ( 'NONE', #131, #126, #198, .T. ) ;
#96 = ORIENTED_EDGE ( 'NONE', *, *, #161, .T. ) ;
#97 = ORIENTED_EDGE ( 'NONE', *, *, #100, .F. ) ;
#98 = ORIENTED_EDGE ( 'NONE', *, *, #135, .T. ) ;
#99 = VERTEX_POINT ( 'NONE', #143 ) ;
#100 = EDGE_CURVE ( 'NONE', #58, #99, #187, .T. ) ;
#101 = VERTEX_POINT ( 'NONE', #190 ) ;
#102 = ADVANCED_FACE ( 'NONE', ( #182 ), #199, .T. ) ;
#103 = ORIENTED_EDGE ( 'NONE', *, *, #105, .T. ) ;
#104 = EDGE_CURVE ( 'NONE', #101, #125, #177, .T. ) ;
#105 = EDGE_CURVE ( 'NONE', #93, #101, #142, .T. ) ;
#106 = EDGE_CURVE ( 'NONE', #113, #163, #79, .T. ) ;
#107 = ORIENTED_EDGE ( 'NONE', *, *, #104, .T. ) ;
#108 = ORIENTED_EDGE ( 'NONE', *, *, #111, .F. ) ;
#109 = ORIENTED_EDGE ( 'NONE', *, *, #106, .F. ) ;
#110 = ORIENTED_EDGE ( 'NONE', *, *, #167, .T. ) ;
#111 = EDGE_CURVE ( 'NONE', #93, #113, #157, .T. ) ;
#112 = EDGE_LOOP ( 'NONE', ( #110, #117 ) ) ;
#113 = VERTEX_POINT ( 'NONE', #74 ) ;
#114 = EDGE_LOOP ( 'NONE', ( #116, #118 ) ) ;
#115 = ADVANCED_FACE ( 'NONE', ( #73, #71 ), #81, .T. ) ;
#116 = ORIENTED_EDGE ( 'NONE', *, *, #105, .F. ) ;
#117 = ORIENTED_EDGE ( 'NONE', *, *, #138, .T. ) ;
#118 = ORIENTED_EDGE ( 'NONE', *, *, #170, .F. ) ;
#119 = ADVANCED_FACE ( 'NONE', ( #80 ), #82, .F. ) ;
#120 = EDGE_LOOP ( 'NONE', ( #123, #165, #122, #128, #124, #132 ) ) ;
#121 = VERTEX_POINT ( 'NONE', #85 ) ;
#122 = ORIENTED_EDGE ( 'NONE', *, *, #161, .F. ) ;
#123 = ORIENTED_EDGE ( 'NONE', *, *, #159, .T. ) ;
#124 = ORIENTED_EDGE ( 'NONE', *, *, #133, .F. ) ;
#125 = VERTEX_POINT ( 'NONE', #62 ) ;
#126 = VERTEX_POINT ( 'NONE', #61 ) ;
#127 = EDGE_LOOP ( 'NONE', ( #94, #134, #96, #98, #97 ) ) ;
#128 = ORIENTED_EDGE ( 'NONE', *, *, #129, .F. ) ;
#129 = EDGE_CURVE ( 'NONE', #130, #126, #25, .T. ) ;
#130 = VERTEX_POINT ( 'NONE', #75 ) ;
#131 = VERTEX_POINT ( 'NONE', #20 ) ;
#132 = ORIENTED_EDGE ( 'NONE', *, *, #136, .T. ) ;
#133 = EDGE_CURVE ( 'NONE', #163, #130, #59, .T. ) ;
#134 = ORIENTED_EDGE ( 'NONE', *, *, #95, .T. ) ;
#135 = EDGE_CURVE ( 'NONE', #164, #99, #26, .T. ) ;
#136 = EDGE_CURVE ( 'NONE', #163, #125, #13, .T. ) ;
#137 = EDGE_LOOP ( 'NONE', ( #103, #107, #57, #109, #108 ) ) ;
#138 = EDGE_CURVE ( 'NONE', #131, #58, #48, .T. ) ;
#139 = CARTESIAN_POINT ( 'NONE',  ( 0.0000000000000000000, 10.50000000000000200, -17.75000000000000000 ) ) ;
#140 = CARTESIAN_POINT ( 'NONE',  ( 0.0000000000000000000, 10.50000000000000200, -33.50000000000000000 ) ) ;
#141 = MANIFOLD_SOLID_BREP ( 'Cut-Revolve2', #56 ) ;
#142 = CIRCLE ( 'NONE', #181, 33.50000000000000000 ) ;
#143 = CARTESIAN_POINT ( 'NONE',  ( 0.0000000000000000000, 2.100000000000001000, -17.75000000000000000 ) ) ;
#144 = ORIENTED_EDGE ( 'NONE', *, *, #133, .T. ) ;
#145 = ORIENTED_EDGE ( 'NONE', *, *, #147, .F. ) ;
#146 = ORIENTED_EDGE ( 'NONE', *, *, #167, .F. ) ;
#147 = EDGE_CURVE ( 'NONE', #99, #130, #46, .T. ) ;
#148 = ORIENTED_EDGE ( 'NONE', *, *, #171, .T. ) ;
#149 = ORIENTED_EDGE ( 'NONE', *, *, #100, .T. ) ;
#150 = EDGE_LOOP ( 'NONE', ( #155, #148, #153, #144, #145, #156 ) ) ;
#151 = ORIENTED_EDGE ( 'NONE', *, *, #129, .T. ) ;
#152 = ORIENTED_EDGE ( 'NONE', *, *, #147, .T. ) ;
#153 = ORIENTED_EDGE ( 'NONE', *, *, #106, .T. ) ;
#154 = ADVANCED_FACE ( 'NONE', ( #53 ), #52, .T. ) ;
#155 = ORIENTED_EDGE ( 'NONE', *, *, #162, .F. ) ;
#156 = ORIENTED_EDGE ( 'NONE', *, *, #135, .F. ) ;
#157 = LINE ( 'NONE', #172, #70 ) ;
#158 = CYLINDRICAL_SURFACE ( 'NONE', #200, 17.75000000000000000 ) ;
#159 = EDGE_CURVE ( 'NONE', #125, #121, #42, .T. ) ;
#160 = ADVANCED_FACE ( 'NONE', ( #33 ), #40, .T. ) ;
#161 = EDGE_CURVE ( 'NONE', #126, #164, #6, .T. ) ;
#162 = EDGE_CURVE ( 'NONE', #121, #164, #1, .T. ) ;
#163 = VERTEX_POINT ( 'NONE', #271 ) ;
#164 = VERTEX_POINT ( 'NONE', #269 ) ;
#165 = ORIENTED_EDGE ( 'NONE', *, *, #162, .T. ) ;
#166 = EDGE_LOOP ( 'NONE', ( #86, #168, #87, #89, #88 ) ) ;
#167 = EDGE_CURVE ( 'NONE', #58, #131, #268, .T. ) ;
#168 = ORIENTED_EDGE ( 'NONE', *, *, #170, .T. ) ;
#169 = ADVANCED_FACE ( 'NONE', ( #272 ), #270, .T. ) ;
#170 = EDGE_CURVE ( 'NONE', #101, #93, #256, .T. ) ;
#171 = EDGE_CURVE ( 'NONE', #121, #113, #257, .T. ) ;
#172 = CARTESIAN_POINT ( 'NONE',  ( 0.0000000000000000000, 0.0000000000000000000, -33.50000000000000000 ) ) ;
#173 = AXIS2_PLACEMENT_3D ( 'NONE', #179, #78, #77 ) ;
#174 = DIRECTION ( 'NONE',  ( -0.0000000000000000000, -1.000000000000000000, -0.0000000000000000000 ) ) ;
#175 = VECTOR ( 'NONE', #174, 1000.000000000000000 ) ;
#176 = CARTESIAN_POINT ( 'NONE',  ( 4.102566777143633800E-015, 0.0000000000000000000, 33.50000000000000000 ) ) ;
#177 = LINE ( 'NONE', #176, #175 ) ;
#178 = CARTESIAN_POINT ( 'NONE',  ( 0.0000000000000000000, 10.50000000000000200, 0.0000000000000000000 ) ) ;
#179 = CARTESIAN_POINT ( 'NONE',  ( 0.0000000000000000000, 7.457884838244878800, 0.0000000000000000000 ) ) ;
#180 = AXIS2_PLACEMENT_3D ( 'NONE', #67, #68, #60 ) ;
#181 = AXIS2_PLACEMENT_3D ( 'NONE', #178, #84, #83 ) ;
#182 = FACE_OUTER_BOUND ( 'NONE', #137, .T. ) ;
#183 = DIRECTION ( 'NONE',  ( 0.0000000000000000000, 0.0000000000000000000, -1.000000000000000000 ) ) ;
#184 = DIRECTION ( 'NONE',  ( -0.0000000000000000000, -1.000000000000000000, -0.0000000000000000000 ) ) ;
#185 = VECTOR ( 'NONE', #184, 1000.000000000000000 ) ;
#186 = CARTESIAN_POINT ( 'NONE',  ( 0.0000000000000000000, 0.0000000000000000000, -17.75000000000000000 ) ) ;
#187 = LINE ( 'NONE', #186, #185 ) ;
#188 = CARTESIAN_POINT ( 'NONE',  ( 0.0000000000000000000, 0.0000000000000000000, 0.0000000000000000000 ) ) ;
#189 = AXIS2_PLACEMENT_3D ( 'NONE', #188, #194, #183 ) ;
#190 = CARTESIAN_POINT ( 'NONE',  ( 4.102566777143633800E-015, 10.50000000000000200, 33.50000000000000000 ) ) ;
#191 = DIRECTION ( 'NONE',  ( -0.0000000000000000000, -1.000000000000000000, -0.0000000000000000000 ) ) ;
#192 = VECTOR ( 'NONE', #191, 1000.000000000000000 ) ;
#193 = CARTESIAN_POINT ( 'NONE',  ( 2.173748068486551600E-015, 0.0000000000000000000, 17.75000000000000000 ) ) ;
#194 = DIRECTION ( 'NONE',  ( -0.0000000000000000000, -1.000000000000000000, -0.0000000000000000000 ) ) ;
#195 = DIRECTION ( 'NONE',  ( 0.0000000000000000000, 0.0000000000000000000, -1.000000000000000000 ) ) ;
#196 = DIRECTION ( 'NONE',  ( -0.0000000000000000000, -1.000000000000000000, -0.0000000000000000000 ) ) ;
#197 = CARTESIAN_POINT ( 'NONE',  ( 0.0000000000000000000, 0.0000000000000000000, 0.0000000000000000000 ) ) ;
#198 = LINE ( 'NONE', #193, #192 ) ;
#199 = CYLINDRICAL_SURFACE ( 'NONE', #189, 33.50000000000000000 ) ;
#200 = AXIS2_PLACEMENT_3D ( 'NONE', #197, #196, #195 ) ;
#201 = FACE_OUTER_BOUND ( 'NONE', #127, .T. ) ;
#202 = PRODUCT_DEFINITION_SHAPE ( 'NONE', 'NONE',  #300 ) ;
#203 = PRODUCT_RELATED_PRODUCT_CATEGORY ( 'detail', '', ( #309 ) ) ;
#204 = CC_DESIGN_SECURITY_CLASSIFICATION ( #225, ( #244 ) ) ;
#205 = CC_DESIGN_APPROVAL ( #213, ( #225 ) ) ;
#206 = APPROVAL_DATE_TIME ( #207, #213 ) ;
#207 = DATE_AND_TIME ( #208, #209 ) ;
#208 = CALENDAR_DATE ( 2012, 5, 4 ) ;
#209 = LOCAL_TIME ( 5, 59, 21.00000000000000000, #210 ) ;
#210 = COORDINATED_UNIVERSAL_TIME_OFFSET ( 5, 0, .BEHIND. ) ;
#211 = APPROVAL_PERSON_ORGANIZATION ( #215, #213, #212 ) ;
#212 = APPROVAL_ROLE ( '' ) ;
#213 = APPROVAL ( #214, 'UNSPECIFIED' ) ;
#214 = APPROVAL_STATUS ( 'not_yet_approved' ) ;
#215 = PERSON_AND_ORGANIZATION ( #308, #307 ) ;
#216 = CC_DESIGN_DATE_AND_TIME_ASSIGNMENT ( #218, #217, ( #225 ) ) ;
#217 = DATE_TIME_ROLE ( 'classification_date' ) ;
#218 = DATE_AND_TIME ( #219, #220 ) ;
#219 = CALENDAR_DATE ( 2012, 5, 4 ) ;
#220 = LOCAL_TIME ( 5, 59, 21.00000000000000000, #221 ) ;
#221 = COORDINATED_UNIVERSAL_TIME_OFFSET ( 5, 0, .BEHIND. ) ;
#222 = CC_DESIGN_PERSON_AND_ORGANIZATION_ASSIGNMENT ( #224, #223, ( #225 ) ) ;
#223 = PERSON_AND_ORGANIZATION_ROLE ( 'classification_officer' ) ;
#224 = PERSON_AND_ORGANIZATION ( #308, #307 ) ;
#225 = SECURITY_CLASSIFICATION ( '', '', #226 ) ;
#226 = SECURITY_CLASSIFICATION_LEVEL ( 'unclassified' ) ;
#227 = CC_DESIGN_PERSON_AND_ORGANIZATION_ASSIGNMENT ( #229, #228, ( #244 ) ) ;
#228 = PERSON_AND_ORGANIZATION_ROLE ( 'design_supplier' ) ;
#229 = PERSON_AND_ORGANIZATION ( #308, #307 ) ;
#230 = CC_DESIGN_PERSON_AND_ORGANIZATION_ASSIGNMENT ( #232, #231, ( #244 ) ) ;
#231 = PERSON_AND_ORGANIZATION_ROLE ( 'creator' ) ;
#232 = PERSON_AND_ORGANIZATION ( #308, #307 ) ;
#233 = CC_DESIGN_APPROVAL ( #241, ( #244 ) ) ;
#234 = APPROVAL_DATE_TIME ( #235, #241 ) ;
#235 = DATE_AND_TIME ( #236, #237 ) ;
#236 = CALENDAR_DATE ( 2012, 5, 4 ) ;
#237 = LOCAL_TIME ( 5, 59, 21.00000000000000000, #238 ) ;
#238 = COORDINATED_UNIVERSAL_TIME_OFFSET ( 5, 0, .BEHIND. ) ;
#239 = APPROVAL_PERSON_ORGANIZATION ( #243, #241, #240 ) ;
#240 = APPROVAL_ROLE ( '' ) ;
#241 = APPROVAL ( #242, 'UNSPECIFIED' ) ;
#242 = APPROVAL_STATUS ( 'not_yet_approved' ) ;
#243 = PERSON_AND_ORGANIZATION ( #308, #307 ) ;
#244 = PRODUCT_DEFINITION_FORMATION_WITH_SPECIFIED_SOURCE ( 'ANY', '', #309, .NOT_KNOWN. ) ;
#245 = SHAPE_DEFINITION_REPRESENTATION ( #202, #278 ) ;
#246 = CC_DESIGN_DATE_AND_TIME_ASSIGNMENT ( #248, #247, ( #300 ) ) ;
#247 = DATE_TIME_ROLE ( 'creation_date' ) ;
#248 = DATE_AND_TIME ( #249, #250 ) ;
#249 = CALENDAR_DATE ( 2012, 5, 4 ) ;
#250 = LOCAL_TIME ( 5, 59, 21.00000000000000000, #251 ) ;
#251 = COORDINATED_UNIVERSAL_TIME_OFFSET ( 5, 0, .BEHIND. ) ;
#252 = CARTESIAN_POINT ( 'NONE',  ( 0.0000000000000000000, 7.457884838244878800, 0.0000000000000000000 ) ) ;
#253 = DIRECTION ( 'NONE',  ( 0.0000000000000000000, 0.0000000000000000000, -1.000000000000000000 ) ) ;
#254 = DIRECTION ( 'NONE',  ( -0.0000000000000000000, -1.000000000000000000, -0.0000000000000000000 ) ) ;
#255 = CARTESIAN_POINT ( 'NONE',  ( 0.0000000000000000000, 10.50000000000000200, 0.0000000000000000000 ) ) ;
#256 = CIRCLE ( 'NONE', #266, 33.50000000000000000 ) ;
#257 = CIRCLE ( 'NONE', #267, 33.50000000000000000 ) ;
#258 = DIRECTION ( 'NONE',  ( 0.0000000000000000000, 0.0000000000000000000, -1.000000000000000000 ) ) ;
#259 = CARTESIAN_POINT ( 'NONE',  ( 0.0000000000000000000, 0.0000000000000000000, 0.0000000000000000000 ) ) ;
#260 = AXIS2_PLACEMENT_3D ( 'NONE', #259, #265, #258 ) ;
#261 = DIRECTION ( 'NONE',  ( 0.0000000000000000000, 0.0000000000000000000, -1.000000000000000000 ) ) ;
#262 = DIRECTION ( 'NONE',  ( -0.0000000000000000000, -1.000000000000000000, -0.0000000000000000000 ) ) ;
#263 = CARTESIAN_POINT ( 'NONE',  ( 0.0000000000000000000, 10.50000000000000200, 0.0000000000000000000 ) ) ;
#264 = AXIS2_PLACEMENT_3D ( 'NONE', #263, #262, #261 ) ;
#265 = DIRECTION ( 'NONE',  ( -0.0000000000000000000, -1.000000000000000000, -0.0000000000000000000 ) ) ;
#266 = AXIS2_PLACEMENT_3D ( 'NONE', #255, #254, #253 ) ;
#267 = AXIS2_PLACEMENT_3D ( 'NONE', #252, #285, #284 ) ;
#268 = CIRCLE ( 'NONE', #264, 17.75000000000000000 ) ;
#269 = CARTESIAN_POINT ( 'NONE',  ( -17.75000000000000000, 2.100000000000001000, 3.138157422815093300E-015 ) ) ;
#270 = CYLINDRICAL_SURFACE ( 'NONE', #260, 33.50000000000000000 ) ;
#271 = CARTESIAN_POINT ( 'NONE',  ( 33.50000000000000000, 7.457884838244876100, 0.0000000000000000000 ) ) ;
#272 = FACE_OUTER_BOUND ( 'NONE', #166, .T. ) ;
#273 = DIRECTION ( 'NONE',  ( 0.0000000000000000000, 0.0000000000000000000, 1.000000000000000000 ) ) ;
#274 = CARTESIAN_POINT ( 'NONE',  ( 0.0000000000000000000, 0.0000000000000000000, 0.0000000000000000000 ) ) ;
#275 = DIRECTION ( 'NONE',  ( 1.000000000000000000, 0.0000000000000000000, 0.0000000000000000000 ) ) ;
#276 = AXIS2_PLACEMENT_3D ( 'NONE', #274, #273, #275 ) ;
#277 = APPLICATION_CONTEXT ( 'configuration controlled 3d designs of mechanical parts and assemblies' ) ;
#278 = ADVANCED_BREP_SHAPE_REPRESENTATION ( 'WDS-401-211M', ( #141, #276 ), #279 ) ;
#279 =( GEOMETRIC_REPRESENTATION_CONTEXT ( 3 ) GLOBAL_UNCERTAINTY_ASSIGNED_CONTEXT ( ( #280 ) ) GLOBAL_UNIT_ASSIGNED_CONTEXT ( ( #283, #282, #281 ) ) REPRESENTATION_CONTEXT ( 'NONE', 'WORKASPACE' ) );
#280 = UNCERTAINTY_MEASURE_WITH_UNIT (LENGTH_MEASURE( 1.000000000000000100E-005 ), #283, 'distance_accuracy_value', 'NONE');
#281 =( NAMED_UNIT ( * ) SI_UNIT ( $, .STERADIAN. ) SOLID_ANGLE_UNIT ( ) );
#282 =( NAMED_UNIT ( * ) PLANE_ANGLE_UNIT ( ) SI_UNIT ( $, .RADIAN. ) );
#283 =( LENGTH_UNIT ( ) NAMED_UNIT ( * ) SI_UNIT ( .MILLI., .METRE. ) );
#284 = DIRECTION ( 'NONE',  ( 0.0000000000000000000, 0.0000000000000000000, -1.000000000000000000 ) ) ;
#285 = DIRECTION ( 'NONE',  ( -0.0000000000000000000, -1.000000000000000000, -0.0000000000000000000 ) ) ;
#286 = CC_DESIGN_PERSON_AND_ORGANIZATION_ASSIGNMENT ( #288, #287, ( #300 ) ) ;
#287 = PERSON_AND_ORGANIZATION_ROLE ( 'creator' ) ;
#288 = PERSON_AND_ORGANIZATION ( #308, #307 ) ;
#289 = CC_DESIGN_APPROVAL ( #297, ( #300 ) ) ;
#290 = APPROVAL_DATE_TIME ( #291, #297 ) ;
#291 = DATE_AND_TIME ( #292, #293 ) ;
#292 = CALENDAR_DATE ( 2012, 5, 4 ) ;
#293 = LOCAL_TIME ( 5, 59, 21.00000000000000000, #294 ) ;
#294 = COORDINATED_UNIVERSAL_TIME_OFFSET ( 5, 0, .BEHIND. ) ;
#295 = APPROVAL_PERSON_ORGANIZATION ( #299, #297, #296 ) ;
#296 = APPROVAL_ROLE ( '' ) ;
#297 = APPROVAL ( #298, 'UNSPECIFIED' ) ;
#298 = APPROVAL_STATUS ( 'not_yet_approved' ) ;
#299 = PERSON_AND_ORGANIZATION ( #308, #307 ) ;
#300 = PRODUCT_DEFINITION ( 'UNKNOWN', '', #244, #301 ) ;
#301 = DESIGN_CONTEXT ( 'detailed design', #303, 'design' ) ;
#302 = APPLICATION_PROTOCOL_DEFINITION ( 'international standard', 'config_control_design', 1994, #303 ) ;
#303 = APPLICATION_CONTEXT ( 'configuration controlled 3d designs of mechanical parts and assemblies' ) ;
#304 = CC_DESIGN_PERSON_AND_ORGANIZATION_ASSIGNMENT ( #306, #305, ( #309 ) ) ;
#305 = PERSON_AND_ORGANIZATION_ROLE ( 'design_owner' ) ;
#306 = PERSON_AND_ORGANIZATION ( #308, #307 ) ;
#307 = ORGANIZATION ( 'UNSPECIFIED', 'UNSPECIFIED', '' ) ;
#308 = PERSON ( 'UNSPECIFIED', 'UNSPECIFIED', 'UNSPECIFIED', ('UNSPECIFIED'), ('UNSPECIFIED'), ('UNSPECIFIED') ) ;
#309 = PRODUCT ( 'WDS-401-211M', 'WDS-401-211M', '', ( #310 ) ) ;
#310 = MECHANICAL_CONTEXT ( 'NONE', #277, 'mechanical' ) ;
#311 = APPLICATION_PROTOCOL_DEFINITION ( 'international standard', 'config_control_design', 1994, #277 ) ;
ENDSEC;
END-ISO-10303-21;
