ISO-10303-21;
HEADER;
FILE_DESCRIPTION (( 'STEP AP214' ),
    '1' );
FILE_NAME ('WDS-401-2105M.step',
    '2012-04-05T09:58:56',
    ( 'sysAdmin' ),
    ( 'SolidWorks' ),
    'SwSTEP 2.0',
    'SolidWorks 2012',
    '' );
FILE_SCHEMA (( 'AUTOMOTIVE_DESIGN' ));
ENDSEC;

DATA;
#1 = DIRECTION ( 'NONE',  ( 0.0000000000000000000, 0.0000000000000000000, -1.000000000000000000 ) ) ;
#2 = ORIENTED_EDGE ( 'NONE', *, *, #21, .F. ) ;
#3 = ORIENTED_EDGE ( 'NONE', *, *, #208, .T. ) ;
#4 = EDGE_LOOP ( 'NONE', ( #2, #5 ) ) ;
#5 = ORIENTED_EDGE ( 'NONE', *, *, #36, .F. ) ;
#6 = ORIENTED_EDGE ( 'NONE', *, *, #41, .F. ) ;
#7 = ADVANCED_FACE ( 'NONE', ( #46 ), #144, .F. ) ;
#8 = CLOSED_SHELL ( 'NONE', ( #47, #204, #37, #30, #216, #7, #137 ) ) ;
#9 = CYLINDRICAL_SURFACE ( 'NONE', #15, 16.50000000000000000 ) ;
#10 = CARTESIAN_POINT ( 'NONE',  ( 2.020667218593133100E-015, 2.500000000000002200, 16.50000000000000000 ) ) ;
#11 = DIRECTION ( 'NONE',  ( 1.000000000000000000, 0.0000000000000000000, 0.0000000000000000000 ) ) ;
#12 = DIRECTION ( 'NONE',  ( 0.0000000000000000000, 0.0000000000000000000, 1.000000000000000000 ) ) ;
#13 = CARTESIAN_POINT ( 'NONE',  ( 31.49999999999999300, 8.015569093018692500, 0.0000000000000000000 ) ) ;
#14 = CARTESIAN_POINT ( 'NONE',  ( 0.0000000000000000000, 2.500000000000002200, -16.50000000000000000 ) ) ;
#15 = AXIS2_PLACEMENT_3D ( 'NONE', #83, #84, #79 ) ;
#16 = CARTESIAN_POINT ( 'NONE',  ( 0.0000000000000000000, 70.52756794123983800, 0.0000000000000000000 ) ) ;
#17 = DIRECTION ( 'NONE',  ( 0.0000000000000000000, 0.0000000000000000000, -1.000000000000000000 ) ) ;
#18 = DIRECTION ( 'NONE',  ( -0.0000000000000000000, -1.000000000000000000, -0.0000000000000000000 ) ) ;
#19 = CARTESIAN_POINT ( 'NONE',  ( 0.0000000000000000000, 0.0000000000000000000, 0.0000000000000000000 ) ) ;
#20 = ORIENTED_EDGE ( 'NONE', *, *, #56, .T. ) ;
#21 = EDGE_CURVE ( 'NONE', #63, #38, #71, .T. ) ;
#22 = EDGE_LOOP ( 'NONE', ( #215, #6, #140, #74, #77 ) ) ;
#23 = ORIENTED_EDGE ( 'NONE', *, *, #198, .F. ) ;
#24 = ORIENTED_EDGE ( 'NONE', *, *, #27, .F. ) ;
#25 = EDGE_LOOP ( 'NONE', ( #40, #64, #29, #42, #212 ) ) ;
#26 = ORIENTED_EDGE ( 'NONE', *, *, #35, .F. ) ;
#27 = EDGE_CURVE ( 'NONE', #63, #203, #69, .T. ) ;
#28 = ORIENTED_EDGE ( 'NONE', *, *, #41, .T. ) ;
#29 = ORIENTED_EDGE ( 'NONE', *, *, #27, .T. ) ;
#30 = ADVANCED_FACE ( 'NONE', ( #117 ), #45, .T. ) ;
#31 = VERTEX_POINT ( 'NONE', #107 ) ;
#32 = EDGE_LOOP ( 'NONE', ( #28, #3 ) ) ;
#33 = EDGE_LOOP ( 'NONE', ( #54, #20, #23, #26, #24 ) ) ;
#34 = ORIENTED_EDGE ( 'NONE', *, *, #213, .F. ) ;
#35 = EDGE_CURVE ( 'NONE', #203, #200, #104, .T. ) ;
#36 = EDGE_CURVE ( 'NONE', #38, #63, #99, .T. ) ;
#37 = ADVANCED_FACE ( 'NONE', ( #95 ), #111, .T. ) ;
#38 = VERTEX_POINT ( 'NONE', #110 ) ;
#39 = EDGE_CURVE ( 'NONE', #55, #203, #133, .T. ) ;
#40 = ORIENTED_EDGE ( 'NONE', *, *, #56, .F. ) ;
#41 = EDGE_CURVE ( 'NONE', #205, #60, #126, .T. ) ;
#42 = ORIENTED_EDGE ( 'NONE', *, *, #39, .F. ) ;
#43 = ORIENTED_EDGE ( 'NONE', *, *, #62, .F. ) ;
#44 = MANIFOLD_SOLID_BREP ( 'Cut-Revolve2', #8 ) ;
#45 = CYLINDRICAL_SURFACE ( 'NONE', #70, 31.50000000000000000 ) ;
#46 = FACE_OUTER_BOUND ( 'NONE', #22, .T. ) ;
#47 = ADVANCED_FACE ( 'NONE', ( #183 ), #135, .T. ) ;
#48 = EDGE_LOOP ( 'NONE', ( #206, #210, #209, #211, #34 ) ) ;
#49 = VERTEX_POINT ( 'NONE', #178 ) ;
#50 = EDGE_LOOP ( 'NONE', ( #51, #58, #61, #43, #197, #202 ) ) ;
#51 = ORIENTED_EDGE ( 'NONE', *, *, #53, .T. ) ;
#52 = EDGE_CURVE ( 'NONE', #55, #49, #182, .T. ) ;
#53 = EDGE_CURVE ( 'NONE', #31, #55, #170, .T. ) ;
#54 = ORIENTED_EDGE ( 'NONE', *, *, #21, .T. ) ;
#55 = VERTEX_POINT ( 'NONE', #176 ) ;
#56 = EDGE_CURVE ( 'NONE', #38, #31, #166, .T. ) ;
#57 = VERTEX_POINT ( 'NONE', #167 ) ;
#58 = ORIENTED_EDGE ( 'NONE', *, *, #52, .T. ) ;
#59 = EDGE_CURVE ( 'NONE', #201, #49, #177, .T. ) ;
#60 = VERTEX_POINT ( 'NONE', #122 ) ;
#61 = ORIENTED_EDGE ( 'NONE', *, *, #59, .F. ) ;
#62 = EDGE_CURVE ( 'NONE', #57, #201, #156, .T. ) ;
#63 = VERTEX_POINT ( 'NONE', #153 ) ;
#64 = ORIENTED_EDGE ( 'NONE', *, *, #36, .T. ) ;
#65 = DIRECTION ( 'NONE',  ( 0.0000000000000000000, 0.0000000000000000000, -1.000000000000000000 ) ) ;
#66 = DIRECTION ( 'NONE',  ( -0.0000000000000000000, -1.000000000000000000, -0.0000000000000000000 ) ) ;
#67 = CARTESIAN_POINT ( 'NONE',  ( 0.0000000000000000000, 0.0000000000000000000, 0.0000000000000000000 ) ) ;
#68 = CARTESIAN_POINT ( 'NONE',  ( 0.0000000000000000000, 10.50000000000000200, 0.0000000000000000000 ) ) ;
#69 = LINE ( 'NONE', #114, #113 ) ;
#70 = AXIS2_PLACEMENT_3D ( 'NONE', #19, #115, #108 ) ;
#71 = CIRCLE ( 'NONE', #72, 31.50000000000000000 ) ;
#72 = AXIS2_PLACEMENT_3D ( 'NONE', #68, #119, #118 ) ;
#73 = AXIS2_PLACEMENT_3D ( 'NONE', #67, #66, #65 ) ;
#74 = ORIENTED_EDGE ( 'NONE', *, *, #76, .T. ) ;
#75 = ORIENTED_EDGE ( 'NONE', *, *, #214, .F. ) ;
#76 = EDGE_CURVE ( 'NONE', #199, #57, #155, .T. ) ;
#77 = ORIENTED_EDGE ( 'NONE', *, *, #62, .T. ) ;
#78 = ORIENTED_EDGE ( 'NONE', *, *, #35, .T. ) ;
#79 = DIRECTION ( 'NONE',  ( 0.0000000000000000000, 0.0000000000000000000, -1.000000000000000000 ) ) ;
#80 = AXIS2_PLACEMENT_3D ( 'NONE', #223, #222, #1 ) ;
#81 = CARTESIAN_POINT ( 'NONE',  ( 0.0000000000000000000, 10.50000000000000200, -16.50000000000000000 ) ) ;
#82 = FACE_OUTER_BOUND ( 'NONE', #48, .T. ) ;
#83 = CARTESIAN_POINT ( 'NONE',  ( 0.0000000000000000000, 0.0000000000000000000, 0.0000000000000000000 ) ) ;
#84 = DIRECTION ( 'NONE',  ( -0.0000000000000000000, -1.000000000000000000, -0.0000000000000000000 ) ) ;
#85 = DIRECTION ( 'NONE',  ( 0.0000000000000000000, 0.0000000000000000000, -1.000000000000000000 ) ) ;
#86 = DIRECTION ( 'NONE',  ( -0.0000000000000000000, -1.000000000000000000, -0.0000000000000000000 ) ) ;
#87 = CARTESIAN_POINT ( 'NONE',  ( 0.0000000000000000000, 8.015569093018694200, 0.0000000000000000000 ) ) ;
#88 = AXIS2_PLACEMENT_3D ( 'NONE', #87, #86, #85 ) ;
#89 = DIRECTION ( 'NONE',  ( -1.000000000000000000, 0.0000000000000000000, 0.0000000000000000000 ) ) ;
#90 = DIRECTION ( 'NONE',  ( 0.0000000000000000000, 0.0000000000000000000, -1.000000000000000000 ) ) ;
#91 = CARTESIAN_POINT ( 'NONE',  ( 0.0000000000000000000, 70.52756794123983800, 0.0000000000000000000 ) ) ;
#92 = AXIS2_PLACEMENT_3D ( 'NONE', #91, #90, #89 ) ;
#93 = AXIS2_PLACEMENT_3D ( 'NONE', #98, #97, #96 ) ;
#94 = AXIS2_PLACEMENT_3D ( 'NONE', #125, #124, #123 ) ;
#95 = FACE_OUTER_BOUND ( 'NONE', #33, .T. ) ;
#96 = DIRECTION ( 'NONE',  ( 0.0000000000000000000, 0.0000000000000000000, -1.000000000000000000 ) ) ;
#97 = DIRECTION ( 'NONE',  ( -0.0000000000000000000, -1.000000000000000000, -0.0000000000000000000 ) ) ;
#98 = CARTESIAN_POINT ( 'NONE',  ( 0.0000000000000000000, 10.50000000000000200, 0.0000000000000000000 ) ) ;
#99 = CIRCLE ( 'NONE', #93, 31.50000000000000000 ) ;
#100 = DIRECTION ( 'NONE',  ( 0.0000000000000000000, 0.0000000000000000000, -1.000000000000000000 ) ) ;
#101 = DIRECTION ( 'NONE',  ( -0.0000000000000000000, -1.000000000000000000, -0.0000000000000000000 ) ) ;
#102 = CARTESIAN_POINT ( 'NONE',  ( 0.0000000000000000000, 8.015569093018694200, 0.0000000000000000000 ) ) ;
#103 = AXIS2_PLACEMENT_3D ( 'NONE', #102, #101, #100 ) ;
#104 = CIRCLE ( 'NONE', #103, 31.50000000000000000 ) ;
#105 = DIRECTION ( 'NONE',  ( -0.0000000000000000000, -1.000000000000000000, -0.0000000000000000000 ) ) ;
#106 = CARTESIAN_POINT ( 'NONE',  ( 0.0000000000000000000, 0.0000000000000000000, 0.0000000000000000000 ) ) ;
#107 = CARTESIAN_POINT ( 'NONE',  ( 3.857637417314162700E-015, 8.015569093018694200, 31.50000000000000000 ) ) ;
#108 = DIRECTION ( 'NONE',  ( 0.0000000000000000000, 0.0000000000000000000, -1.000000000000000000 ) ) ;
#109 = FILL_AREA_STYLE_COLOUR ( '', #127 ) ;
#110 = CARTESIAN_POINT ( 'NONE',  ( 3.857637417314162700E-015, 10.50000000000000200, 31.50000000000000000 ) ) ;
#111 = CYLINDRICAL_SURFACE ( 'NONE', #116, 31.50000000000000000 ) ;
#112 = DIRECTION ( 'NONE',  ( -0.0000000000000000000, -1.000000000000000000, -0.0000000000000000000 ) ) ;
#113 = VECTOR ( 'NONE', #112, 1000.000000000000000 ) ;
#114 = CARTESIAN_POINT ( 'NONE',  ( 0.0000000000000000000, 0.0000000000000000000, -31.50000000000000000 ) ) ;
#115 = DIRECTION ( 'NONE',  ( -0.0000000000000000000, -1.000000000000000000, -0.0000000000000000000 ) ) ;
#116 = AXIS2_PLACEMENT_3D ( 'NONE', #106, #105, #136 ) ;
#117 = FACE_OUTER_BOUND ( 'NONE', #25, .T. ) ;
#118 = DIRECTION ( 'NONE',  ( 0.0000000000000000000, 0.0000000000000000000, -1.000000000000000000 ) ) ;
#119 = DIRECTION ( 'NONE',  ( -0.0000000000000000000, -1.000000000000000000, -0.0000000000000000000 ) ) ;
#120 = FILL_AREA_STYLE ('',( #109 ) ) ;
#121 = CARTESIAN_POINT ( 'NONE',  ( 0.0000000000000000000, 8.015569093018694200, 0.0000000000000000000 ) ) ;
#122 = CARTESIAN_POINT ( 'NONE',  ( 2.020667218593133100E-015, 10.50000000000000200, 16.50000000000000000 ) ) ;
#123 = DIRECTION ( 'NONE',  ( 0.0000000000000000000, 0.0000000000000000000, -1.000000000000000000 ) ) ;
#124 = DIRECTION ( 'NONE',  ( -0.0000000000000000000, -1.000000000000000000, -0.0000000000000000000 ) ) ;
#125 = CARTESIAN_POINT ( 'NONE',  ( 0.0000000000000000000, 10.50000000000000200, 0.0000000000000000000 ) ) ;
#126 = CIRCLE ( 'NONE', #94, 16.50000000000000000 ) ;
#127 = COLOUR_RGB ( '',0.7529411764705882200, 0.7529411764705882200, 0.7529411764705882200 ) ;
#128 = CARTESIAN_POINT ( 'NONE',  ( 0.0000000000000000000, 70.52756794123983800, 0.0000000000000000000 ) ) ;
#129 = DIRECTION ( 'NONE',  ( 0.0000000000000000000, 0.0000000000000000000, -1.000000000000000000 ) ) ;
#130 = DIRECTION ( 'NONE',  ( -0.0000000000000000000, -1.000000000000000000, -0.0000000000000000000 ) ) ;
#131 = CARTESIAN_POINT ( 'NONE',  ( 0.0000000000000000000, 8.015569093018694200, 0.0000000000000000000 ) ) ;
#132 = AXIS2_PLACEMENT_3D ( 'NONE', #131, #130, #129 ) ;
#133 = CIRCLE ( 'NONE', #132, 31.50000000000000000 ) ;
#134 = AXIS2_PLACEMENT_3D ( 'NONE', #128, #180, #179 ) ;
#135 = SPHERICAL_SURFACE ( 'NONE', #134, 70.00000000000000000 ) ;
#136 = DIRECTION ( 'NONE',  ( 0.0000000000000000000, 0.0000000000000000000, -1.000000000000000000 ) ) ;
#137 = ADVANCED_FACE ( 'NONE', ( #152 ), #154, .T. ) ;
#138 = ORIENTED_EDGE ( 'NONE', *, *, #52, .F. ) ;
#139 = ORIENTED_EDGE ( 'NONE', *, *, #39, .T. ) ;
#140 = ORIENTED_EDGE ( 'NONE', *, *, #213, .T. ) ;
#141 = EDGE_LOOP ( 'NONE', ( #138, #139, #78, #142, #143, #75 ) ) ;
#142 = ORIENTED_EDGE ( 'NONE', *, *, #196, .T. ) ;
#143 = ORIENTED_EDGE ( 'NONE', *, *, #76, .F. ) ;
#144 = CYLINDRICAL_SURFACE ( 'NONE', #73, 16.50000000000000000 ) ;
#145 = CARTESIAN_POINT ( 'NONE',  ( 0.0000000000000000000, 2.500000000000002200, 0.0000000000000000000 ) ) ;
#146 = AXIS2_PLACEMENT_3D ( 'NONE', #145, #18, #17 ) ;
#147 = CIRCLE ( 'NONE', #92, 70.00000000000000000 ) ;
#148 = CIRCLE ( 'NONE', #88, 31.50000000000000000 ) ;
#149 = DIRECTION ( 'NONE',  ( 0.0000000000000000000, 0.0000000000000000000, -1.000000000000000000 ) ) ;
#150 = DIRECTION ( 'NONE',  ( -0.0000000000000000000, -1.000000000000000000, -0.0000000000000000000 ) ) ;
#151 = AXIS2_PLACEMENT_3D ( 'NONE', #16, #12, #11 ) ;
#152 = FACE_OUTER_BOUND ( 'NONE', #141, .T. ) ;
#153 = CARTESIAN_POINT ( 'NONE',  ( 0.0000000000000000000, 10.50000000000000200, -31.50000000000000000 ) ) ;
#154 = SPHERICAL_SURFACE ( 'NONE', #151, 70.00000000000000000 ) ;
#155 = CIRCLE ( 'NONE', #146, 16.50000000000000000 ) ;
#156 = CIRCLE ( 'NONE', #175, 16.50000000000000000 ) ;
#157 = DIRECTION ( 'NONE',  ( 0.0000000000000000000, 0.0000000000000000000, -1.000000000000000000 ) ) ;
#158 = DIRECTION ( 'NONE',  ( -0.0000000000000000000, -1.000000000000000000, -0.0000000000000000000 ) ) ;
#159 = CARTESIAN_POINT ( 'NONE',  ( 0.0000000000000000000, 2.500000000000002200, 0.0000000000000000000 ) ) ;
#160 = AXIS2_PLACEMENT_3D ( 'NONE', #159, #158, #157 ) ;
#161 = CARTESIAN_POINT ( 'NONE',  ( 0.0000000000000000000, 8.015569093018694200, -31.50000000000000000 ) ) ;
#162 = CARTESIAN_POINT ( 'NONE',  ( 0.0000000000000000000, 2.500000000000002200, 0.0000000000000000000 ) ) ;
#163 = DIRECTION ( 'NONE',  ( -0.0000000000000000000, -1.000000000000000000, -0.0000000000000000000 ) ) ;
#164 = VECTOR ( 'NONE', #163, 1000.000000000000000 ) ;
#165 = CARTESIAN_POINT ( 'NONE',  ( 3.857637417314162700E-015, 0.0000000000000000000, 31.50000000000000000 ) ) ;
#166 = LINE ( 'NONE', #165, #164 ) ;
#167 = CARTESIAN_POINT ( 'NONE',  ( 16.50000000000000000, 2.500000000000002200, 0.0000000000000000000 ) ) ;
#168 = DIRECTION ( 'NONE',  ( 0.0000000000000000000, 0.0000000000000000000, -1.000000000000000000 ) ) ;
#169 = DIRECTION ( 'NONE',  ( -0.0000000000000000000, -1.000000000000000000, -0.0000000000000000000 ) ) ;
#170 = CIRCLE ( 'NONE', #181, 31.50000000000000000 ) ;
#171 = DIRECTION ( 'NONE',  ( 1.000000000000000000, 0.0000000000000000000, -1.224646799147353200E-016 ) ) ;
#172 = DIRECTION ( 'NONE',  ( 1.224646799147353200E-016, -0.0000000000000000000, 1.000000000000000000 ) ) ;
#173 = CARTESIAN_POINT ( 'NONE',  ( 0.0000000000000000000, 70.52756794123983800, 0.0000000000000000000 ) ) ;
#174 = AXIS2_PLACEMENT_3D ( 'NONE', #173, #172, #171 ) ;
#175 = AXIS2_PLACEMENT_3D ( 'NONE', #162, #150, #149 ) ;
#176 = CARTESIAN_POINT ( 'NONE',  ( -31.49999999999999300, 8.015569093018692500, 3.857637417314161900E-015 ) ) ;
#177 = CIRCLE ( 'NONE', #160, 16.50000000000000000 ) ;
#178 = CARTESIAN_POINT ( 'NONE',  ( -16.50000000000000000, 2.500000000000002200, 2.939152317953647100E-015 ) ) ;
#179 = DIRECTION ( 'NONE',  ( 1.000000000000000000, 0.0000000000000000000, 0.0000000000000000000 ) ) ;
#180 = DIRECTION ( 'NONE',  ( 0.0000000000000000000, 0.0000000000000000000, 1.000000000000000000 ) ) ;
#181 = AXIS2_PLACEMENT_3D ( 'NONE', #121, #169, #168 ) ;
#182 = CIRCLE ( 'NONE', #174, 70.00000000000000000 ) ;
#183 = FACE_OUTER_BOUND ( 'NONE', #50, .T. ) ;
#184 =( GEOMETRIC_REPRESENTATION_CONTEXT ( 3 ) GLOBAL_UNCERTAINTY_ASSIGNED_CONTEXT ( ( #185 ) ) GLOBAL_UNIT_ASSIGNED_CONTEXT ( ( #188, #187, #186 ) ) REPRESENTATION_CONTEXT ( 'NONE', 'WORKASPACE' ) );
#185 = UNCERTAINTY_MEASURE_WITH_UNIT (LENGTH_MEASURE( 1.000000000000000100E-005 ), #188, 'distance_accuracy_value', 'NONE');
#186 =( NAMED_UNIT ( * ) SI_UNIT ( $, .STERADIAN. ) SOLID_ANGLE_UNIT ( ) );
#187 =( NAMED_UNIT ( * ) PLANE_ANGLE_UNIT ( ) SI_UNIT ( $, .RADIAN. ) );
#188 =( LENGTH_UNIT ( ) NAMED_UNIT ( * ) SI_UNIT ( .MILLI., .METRE. ) );
#189 = MECHANICAL_DESIGN_GEOMETRIC_PRESENTATION_REPRESENTATION (  '', ( #191 ), #184 ) ;
#190 = PRESENTATION_LAYER_ASSIGNMENT (  '', '', ( #191 ) ) ;
#191 = STYLED_ITEM ( 'NONE', ( #192 ), #44 ) ;
#192 = PRESENTATION_STYLE_ASSIGNMENT (( #193 ) ) ;
#193 = SURFACE_STYLE_USAGE ( .BOTH. , #194 ) ;
#194 = SURFACE_SIDE_STYLE ('',( #195 ) ) ;
#195 = SURFACE_STYLE_FILL_AREA ( #120 ) ;
#196 = EDGE_CURVE ( 'NONE', #200, #57, #147, .T. ) ;
#197 = ORIENTED_EDGE ( 'NONE', *, *, #196, .F. ) ;
#198 = EDGE_CURVE ( 'NONE', #200, #31, #148, .T. ) ;
#199 = VERTEX_POINT ( 'NONE', #14 ) ;
#200 = VERTEX_POINT ( 'NONE', #13 ) ;
#201 = VERTEX_POINT ( 'NONE', #10 ) ;
#202 = ORIENTED_EDGE ( 'NONE', *, *, #198, .T. ) ;
#203 = VERTEX_POINT ( 'NONE', #161 ) ;
#204 = ADVANCED_FACE ( 'NONE', ( #82 ), #9, .F. ) ;
#205 = VERTEX_POINT ( 'NONE', #81 ) ;
#206 = ORIENTED_EDGE ( 'NONE', *, *, #208, .F. ) ;
#207 = EDGE_CURVE ( 'NONE', #60, #201, #221, .T. ) ;
#208 = EDGE_CURVE ( 'NONE', #60, #205, #217, .T. ) ;
#209 = ORIENTED_EDGE ( 'NONE', *, *, #59, .T. ) ;
#210 = ORIENTED_EDGE ( 'NONE', *, *, #207, .T. ) ;
#211 = ORIENTED_EDGE ( 'NONE', *, *, #214, .T. ) ;
#212 = ORIENTED_EDGE ( 'NONE', *, *, #53, .F. ) ;
#213 = EDGE_CURVE ( 'NONE', #205, #199, #224, .T. ) ;
#214 = EDGE_CURVE ( 'NONE', #49, #199, #240, .T. ) ;
#215 = ORIENTED_EDGE ( 'NONE', *, *, #207, .F. ) ;
#216 = ADVANCED_FACE ( 'NONE', ( #244, #242 ), #241, .T. ) ;
#217 = CIRCLE ( 'NONE', #80, 16.50000000000000000 ) ;
#218 = DIRECTION ( 'NONE',  ( -0.0000000000000000000, -1.000000000000000000, -0.0000000000000000000 ) ) ;
#219 = VECTOR ( 'NONE', #218, 1000.000000000000000 ) ;
#220 = CARTESIAN_POINT ( 'NONE',  ( 2.020667218593133100E-015, 0.0000000000000000000, 16.50000000000000000 ) ) ;
#221 = LINE ( 'NONE', #220, #219 ) ;
#222 = DIRECTION ( 'NONE',  ( -0.0000000000000000000, -1.000000000000000000, -0.0000000000000000000 ) ) ;
#223 = CARTESIAN_POINT ( 'NONE',  ( 0.0000000000000000000, 10.50000000000000200, 0.0000000000000000000 ) ) ;
#224 = LINE ( 'NONE', #247, #246 ) ;
#225 = CARTESIAN_POINT ( 'NONE',  ( 0.0000000000000000000, 2.500000000000002200, 0.0000000000000000000 ) ) ;
#226 = APPLICATION_PROTOCOL_DEFINITION ( 'draft international standard', 'automotive_design', 1998, #275 ) ;
#227 = AXIS2_PLACEMENT_3D ( 'NONE', #243, #235, #234 ) ;
#228 = FILL_AREA_STYLE ('',( #236 ) ) ;
#229 = AXIS2_PLACEMENT_3D ( 'NONE', #225, #239, #238 ) ;
#230 =( GEOMETRIC_REPRESENTATION_CONTEXT ( 3 ) GLOBAL_UNCERTAINTY_ASSIGNED_CONTEXT ( ( #231 ) ) GLOBAL_UNIT_ASSIGNED_CONTEXT ( ( #237, #233, #232 ) ) REPRESENTATION_CONTEXT ( 'NONE', 'WORKASPACE' ) );
#231 = UNCERTAINTY_MEASURE_WITH_UNIT (LENGTH_MEASURE( 1.000000000000000100E-005 ), #237, 'distance_accuracy_value', 'NONE');
#232 =( NAMED_UNIT ( * ) SI_UNIT ( $, .STERADIAN. ) SOLID_ANGLE_UNIT ( ) );
#233 =( NAMED_UNIT ( * ) PLANE_ANGLE_UNIT ( ) SI_UNIT ( $, .RADIAN. ) );
#234 = DIRECTION ( 'NONE',  ( 0.0000000000000000000, -0.0000000000000000000, 1.000000000000000000 ) ) ;
#235 = DIRECTION ( 'NONE',  ( 0.0000000000000000000, 1.000000000000000000, 0.0000000000000000000 ) ) ;
#236 = FILL_AREA_STYLE_COLOUR ( '', #274 ) ;
#237 =( LENGTH_UNIT ( ) NAMED_UNIT ( * ) SI_UNIT ( .MILLI., .METRE. ) );
#238 = DIRECTION ( 'NONE',  ( 0.0000000000000000000, 0.0000000000000000000, -1.000000000000000000 ) ) ;
#239 = DIRECTION ( 'NONE',  ( -0.0000000000000000000, -1.000000000000000000, -0.0000000000000000000 ) ) ;
#240 = CIRCLE ( 'NONE', #229, 16.50000000000000000 ) ;
#241 = PLANE ( 'NONE',  #227 ) ;
#242 = FACE_OUTER_BOUND ( 'NONE', #4, .T. ) ;
#243 = CARTESIAN_POINT ( 'NONE',  ( 16.50000000000000000, 10.50000000000000200, 0.0000000000000000000 ) ) ;
#244 = FACE_BOUND ( 'NONE', #32, .T. ) ;
#245 = DIRECTION ( 'NONE',  ( -0.0000000000000000000, -1.000000000000000000, -0.0000000000000000000 ) ) ;
#246 = VECTOR ( 'NONE', #245, 1000.000000000000000 ) ;
#247 = CARTESIAN_POINT ( 'NONE',  ( 0.0000000000000000000, 0.0000000000000000000, -16.50000000000000000 ) ) ;
#248 = PRODUCT_DEFINITION_SHAPE ( 'NONE', 'NONE',  #252 ) ;
#249 = PRODUCT_RELATED_PRODUCT_CATEGORY ( 'part', '', ( #256 ) ) ;
#250 = PRODUCT_DEFINITION_FORMATION_WITH_SPECIFIED_SOURCE ( 'ANY', '', #256, .NOT_KNOWN. ) ;
#251 = SHAPE_DEFINITION_REPRESENTATION ( #248, #276 ) ;
#252 = PRODUCT_DEFINITION ( 'UNKNOWN', '', #250, #253 ) ;
#253 = PRODUCT_DEFINITION_CONTEXT ( 'detailed design', #255, 'design' ) ;
#254 = APPLICATION_PROTOCOL_DEFINITION ( 'draft international standard', 'automotive_design', 1998, #255 ) ;
#255 = APPLICATION_CONTEXT ( 'automotive_design' ) ;
#256 = PRODUCT ( 'WDS-401-2105M', 'WDS-401-2105M', '', ( #257 ) ) ;
#257 = PRODUCT_CONTEXT ( 'NONE', #275, 'mechanical' ) ;
#258 = DIRECTION ( 'NONE',  ( 1.000000000000000000, 0.0000000000000000000, 0.0000000000000000000 ) ) ;
#259 = DIRECTION ( 'NONE',  ( 0.0000000000000000000, 0.0000000000000000000, 1.000000000000000000 ) ) ;
#260 = CARTESIAN_POINT ( 'NONE',  ( 0.0000000000000000000, 0.0000000000000000000, 0.0000000000000000000 ) ) ;
#261 = AXIS2_PLACEMENT_3D ( 'NONE', #260, #259, #258 ) ;
#262 =( GEOMETRIC_REPRESENTATION_CONTEXT ( 3 ) GLOBAL_UNCERTAINTY_ASSIGNED_CONTEXT ( ( #263 ) ) GLOBAL_UNIT_ASSIGNED_CONTEXT ( ( #266, #265, #264 ) ) REPRESENTATION_CONTEXT ( 'NONE', 'WORKASPACE' ) );
#263 = UNCERTAINTY_MEASURE_WITH_UNIT (LENGTH_MEASURE( 1.000000000000000100E-005 ), #266, 'distance_accuracy_value', 'NONE');
#264 =( NAMED_UNIT ( * ) SI_UNIT ( $, .STERADIAN. ) SOLID_ANGLE_UNIT ( ) );
#265 =( NAMED_UNIT ( * ) PLANE_ANGLE_UNIT ( ) SI_UNIT ( $, .RADIAN. ) );
#266 =( LENGTH_UNIT ( ) NAMED_UNIT ( * ) SI_UNIT ( .MILLI., .METRE. ) );
#267 = MECHANICAL_DESIGN_GEOMETRIC_PRESENTATION_REPRESENTATION (  '', ( #269 ), #262 ) ;
#268 = PRESENTATION_LAYER_ASSIGNMENT (  '', '', ( #269 ) ) ;
#269 = STYLED_ITEM ( 'NONE', ( #270 ), #276 ) ;
#270 = PRESENTATION_STYLE_ASSIGNMENT (( #271 ) ) ;
#271 = SURFACE_STYLE_USAGE ( .BOTH. , #272 ) ;
#272 = SURFACE_SIDE_STYLE ('',( #273 ) ) ;
#273 = SURFACE_STYLE_FILL_AREA ( #228 ) ;
#274 = COLOUR_RGB ( '',0.7529411764705882200, 0.7529411764705882200, 0.7529411764705882200 ) ;
#275 = APPLICATION_CONTEXT ( 'automotive_design' ) ;
#276 = ADVANCED_BREP_SHAPE_REPRESENTATION ( 'WDS-401-2105M', ( #44, #261 ), #230 ) ;
ENDSEC;
END-ISO-10303-21;
