ISO-10303-21;
HEADER;
FILE_DESCRIPTION (( 'STEP AP214' ),
    '1' );
FILE_NAME ('WDS-401-209M.step',
    '2012-02-06T13:42:57',
    ( 'sysAdmin' ),
    ( 'SolidWorks' ),
    'SwSTEP 2.0',
    'SolidWorks 2012',
    '' );
FILE_SCHEMA (( 'AUTOMOTIVE_DESIGN' ));
ENDSEC;

DATA;
#1 = SURFACE_STYLE_FILL_AREA ( #94 ) ;
#2 = ORIENTED_EDGE ( 'NONE', *, *, #118, .T. ) ;
#3 = ADVANCED_FACE ( 'NONE', ( #6 ), #96, .F. ) ;
#4 = AXIS2_PLACEMENT_3D ( 'NONE', #146, #145, #144 ) ;
#5 = CIRCLE ( 'NONE', #71, 26.50000000000000400 ) ;
#6 = FACE_OUTER_BOUND ( 'NONE', #140, .T. ) ;
#7 = MANIFOLD_SOLID_BREP ( 'Cut-Revolve2', #171 ) ;
#8 = ORIENTED_EDGE ( 'NONE', *, *, #126, .F. ) ;
#9 = DIRECTION ( 'NONE',  ( 0.0000000000000000000, 0.0000000000000000000, -1.000000000000000000 ) ) ;
#10 = DIRECTION ( 'NONE',  ( -0.0000000000000000000, -1.000000000000000000, -0.0000000000000000000 ) ) ;
#11 = CARTESIAN_POINT ( 'NONE',  ( 0.0000000000000000000, 2.100000000000000100, 0.0000000000000000000 ) ) ;
#12 = CIRCLE ( 'NONE', #23, 14.25000000000000200 ) ;
#13 = DIRECTION ( 'NONE',  ( 1.000000000000000000, 0.0000000000000000000, -1.224646799147353200E-016 ) ) ;
#14 = DIRECTION ( 'NONE',  ( 1.224646799147353200E-016, -0.0000000000000000000, 1.000000000000000000 ) ) ;
#15 = CIRCLE ( 'NONE', #173, 64.00000000000000000 ) ;
#16 = DIRECTION ( 'NONE',  ( -1.000000000000000000, 0.0000000000000000000, 0.0000000000000000000 ) ) ;
#17 = DIRECTION ( 'NONE',  ( 0.0000000000000000000, 0.0000000000000000000, -1.000000000000000000 ) ) ;
#18 = CARTESIAN_POINT ( 'NONE',  ( 0.0000000000000000000, 64.49340910705232900, 0.0000000000000000000 ) ) ;
#19 = AXIS2_PLACEMENT_3D ( 'NONE', #18, #17, #16 ) ;
#20 = DIRECTION ( 'NONE',  ( 1.000000000000000000, 0.0000000000000000000, 0.0000000000000000000 ) ) ;
#21 = DIRECTION ( 'NONE',  ( 0.0000000000000000000, 0.0000000000000000000, 1.000000000000000000 ) ) ;
#22 = CIRCLE ( 'NONE', #19, 64.00000000000000000 ) ;
#23 = AXIS2_PLACEMENT_3D ( 'NONE', #11, #10, #9 ) ;
#24 = CARTESIAN_POINT ( 'NONE',  ( 1.745121688784978600E-015, 2.100000000000000100, 14.25000000000000200 ) ) ;
#25 = CARTESIAN_POINT ( 'NONE',  ( -14.25000000000000200, 2.100000000000000100, 2.495217853262732600E-015 ) ) ;
#26 = FACE_OUTER_BOUND ( 'NONE', #112, .T. ) ;
#27 = FACE_OUTER_BOUND ( 'NONE', #98, .T. ) ;
#28 = SPHERICAL_SURFACE ( 'NONE', #164, 64.00000000000000000 ) ;
#29 = DIRECTION ( 'NONE',  ( 0.0000000000000000000, 0.0000000000000000000, -1.000000000000000000 ) ) ;
#30 = CARTESIAN_POINT ( 'NONE',  ( 0.0000000000000000000, 64.49340910705232900, 0.0000000000000000000 ) ) ;
#31 = EDGE_CURVE ( 'NONE', #32, #58, #5, .T. ) ;
#32 = VERTEX_POINT ( 'NONE', #75 ) ;
#33 = ADVANCED_FACE ( 'NONE', ( #93 ), #92, .T. ) ;
#34 = ORIENTED_EDGE ( 'NONE', *, *, #35, .T. ) ;
#35 = EDGE_CURVE ( 'NONE', #128, #53, #170, .T. ) ;
#36 = EDGE_CURVE ( 'NONE', #113, #128, #105, .T. ) ;
#37 = ORIENTED_EDGE ( 'NONE', *, *, #123, .F. ) ;
#38 = ORIENTED_EDGE ( 'NONE', *, *, #42, .F. ) ;
#39 = EDGE_LOOP ( 'NONE', ( #47, #135, #48, #50, #49 ) ) ;
#40 = ORIENTED_EDGE ( 'NONE', *, *, #133, .T. ) ;
#41 = ORIENTED_EDGE ( 'NONE', *, *, #31, .F. ) ;
#42 = EDGE_CURVE ( 'NONE', #113, #32, #159, .T. ) ;
#43 = EDGE_LOOP ( 'NONE', ( #40, #2 ) ) ;
#44 = ORIENTED_EDGE ( 'NONE', *, *, #132, .F. ) ;
#45 = ADVANCED_FACE ( 'NONE', ( #166 ), #158, .T. ) ;
#46 = EDGE_CURVE ( 'NONE', #121, #32, #147, .T. ) ;
#47 = ORIENTED_EDGE ( 'NONE', *, *, #35, .F. ) ;
#48 = ORIENTED_EDGE ( 'NONE', *, *, #42, .T. ) ;
#49 = ORIENTED_EDGE ( 'NONE', *, *, #52, .F. ) ;
#50 = ORIENTED_EDGE ( 'NONE', *, *, #46, .F. ) ;
#51 = ORIENTED_EDGE ( 'NONE', *, *, #36, .F. ) ;
#52 = EDGE_CURVE ( 'NONE', #53, #121, #151, .T. ) ;
#53 = VERTEX_POINT ( 'NONE', #150 ) ;
#54 = VERTEX_POINT ( 'NONE', #143 ) ;
#55 = VERTEX_POINT ( 'NONE', #163 ) ;
#56 = ADVANCED_FACE ( 'NONE', ( #26 ), #28, .T. ) ;
#57 = ORIENTED_EDGE ( 'NONE', *, *, #116, .T. ) ;
#58 = VERTEX_POINT ( 'NONE', #142 ) ;
#59 = VERTEX_POINT ( 'NONE', #25 ) ;
#60 = VERTEX_POINT ( 'NONE', #24 ) ;
#61 = EDGE_CURVE ( 'NONE', #60, #59, #186, .T. ) ;
#62 = ORIENTED_EDGE ( 'NONE', *, *, #123, .T. ) ;
#63 = VERTEX_POINT ( 'NONE', #187 ) ;
#64 = ORIENTED_EDGE ( 'NONE', *, *, #61, .F. ) ;
#65 = DIRECTION ( 'NONE',  ( -0.0000000000000000000, -1.000000000000000000, -0.0000000000000000000 ) ) ;
#66 = CARTESIAN_POINT ( 'NONE',  ( 0.0000000000000000000, 0.0000000000000000000, -26.50000000000000000 ) ) ;
#67 = AXIS2_PLACEMENT_3D ( 'NONE', #73, #162, #161 ) ;
#68 = DIRECTION ( 'NONE',  ( 0.0000000000000000000, 0.0000000000000000000, -1.000000000000000000 ) ) ;
#69 = DIRECTION ( 'NONE',  ( -0.0000000000000000000, -1.000000000000000000, -0.0000000000000000000 ) ) ;
#70 = CARTESIAN_POINT ( 'NONE',  ( 0.0000000000000000000, 6.237508118397110800, 0.0000000000000000000 ) ) ;
#71 = AXIS2_PLACEMENT_3D ( 'NONE', #70, #69, #68 ) ;
#72 = AXIS2_PLACEMENT_3D ( 'NONE', #74, #65, #106 ) ;
#73 = CARTESIAN_POINT ( 'NONE',  ( 0.0000000000000000000, 9.700000000000001100, 0.0000000000000000000 ) ) ;
#74 = CARTESIAN_POINT ( 'NONE',  ( 0.0000000000000000000, 0.0000000000000000000, 0.0000000000000000000 ) ) ;
#75 = CARTESIAN_POINT ( 'NONE',  ( 0.0000000000000000000, 6.237508118397110800, -26.50000000000000400 ) ) ;
#76 =( GEOMETRIC_REPRESENTATION_CONTEXT ( 3 ) GLOBAL_UNCERTAINTY_ASSIGNED_CONTEXT ( ( #77 ) ) GLOBAL_UNIT_ASSIGNED_CONTEXT ( ( #80, #79, #78 ) ) REPRESENTATION_CONTEXT ( 'NONE', 'WORKASPACE' ) );
#77 = UNCERTAINTY_MEASURE_WITH_UNIT (LENGTH_MEASURE( 1.000000000000000100E-005 ), #80, 'distance_accuracy_value', 'NONE');
#78 =( NAMED_UNIT ( * ) SI_UNIT ( $, .STERADIAN. ) SOLID_ANGLE_UNIT ( ) );
#79 =( NAMED_UNIT ( * ) PLANE_ANGLE_UNIT ( ) SI_UNIT ( $, .RADIAN. ) );
#80 =( LENGTH_UNIT ( ) NAMED_UNIT ( * ) SI_UNIT ( .MILLI., .METRE. ) );
#81 = MECHANICAL_DESIGN_GEOMETRIC_PRESENTATION_REPRESENTATION (  '', ( #83 ), #76 ) ;
#82 = PRESENTATION_LAYER_ASSIGNMENT (  '', '', ( #83 ) ) ;
#83 = STYLED_ITEM ( 'NONE', ( #84 ), #7 ) ;
#84 = PRESENTATION_STYLE_ASSIGNMENT (( #85 ) ) ;
#85 = SURFACE_STYLE_USAGE ( .BOTH. , #86 ) ;
#86 = SURFACE_SIDE_STYLE ('',( #1 ) ) ;
#87 = FILL_AREA_STYLE_COLOUR ( '', #95 ) ;
#88 = DIRECTION ( 'NONE',  ( 0.0000000000000000000, 0.0000000000000000000, -1.000000000000000000 ) ) ;
#89 = DIRECTION ( 'NONE',  ( -0.0000000000000000000, -1.000000000000000000, -0.0000000000000000000 ) ) ;
#90 = CARTESIAN_POINT ( 'NONE',  ( 0.0000000000000000000, 0.0000000000000000000, 0.0000000000000000000 ) ) ;
#91 = AXIS2_PLACEMENT_3D ( 'NONE', #90, #89, #88 ) ;
#92 = CYLINDRICAL_SURFACE ( 'NONE', #72, 26.50000000000000000 ) ;
#93 = FACE_OUTER_BOUND ( 'NONE', #134, .T. ) ;
#94 = FILL_AREA_STYLE ('',( #87 ) ) ;
#95 = COLOUR_RGB ( '',0.7529411764705882200, 0.7529411764705882200, 0.7529411764705882200 ) ;
#96 = CYLINDRICAL_SURFACE ( 'NONE', #91, 14.25000000000000200 ) ;
#97 = EDGE_CURVE ( 'NONE', #124, #63, #181, .T. ) ;
#98 = EDGE_LOOP ( 'NONE', ( #103, #99, #102, #108, #101, #109 ) ) ;
#99 = ORIENTED_EDGE ( 'NONE', *, *, #46, .T. ) ;
#100 = ADVANCED_FACE ( 'NONE', ( #27 ), #190, .T. ) ;
#101 = ORIENTED_EDGE ( 'NONE', *, *, #97, .F. ) ;
#102 = ORIENTED_EDGE ( 'NONE', *, *, #31, .T. ) ;
#103 = ORIENTED_EDGE ( 'NONE', *, *, #116, .F. ) ;
#104 = ORIENTED_EDGE ( 'NONE', *, *, #137, .T. ) ;
#105 = CIRCLE ( 'NONE', #67, 26.50000000000000000 ) ;
#106 = DIRECTION ( 'NONE',  ( 0.0000000000000000000, 0.0000000000000000000, -1.000000000000000000 ) ) ;
#107 = ORIENTED_EDGE ( 'NONE', *, *, #117, .T. ) ;
#108 = ORIENTED_EDGE ( 'NONE', *, *, #115, .T. ) ;
#109 = ORIENTED_EDGE ( 'NONE', *, *, #127, .F. ) ;
#110 = ORIENTED_EDGE ( 'NONE', *, *, #97, .T. ) ;
#111 = ORIENTED_EDGE ( 'NONE', *, *, #52, .T. ) ;
#112 = EDGE_LOOP ( 'NONE', ( #111, #57, #64, #114, #122, #62 ) ) ;
#113 = VERTEX_POINT ( 'NONE', #174 ) ;
#114 = ORIENTED_EDGE ( 'NONE', *, *, #117, .F. ) ;
#115 = EDGE_CURVE ( 'NONE', #58, #63, #22, .T. ) ;
#116 = EDGE_CURVE ( 'NONE', #121, #59, #15, .T. ) ;
#117 = EDGE_CURVE ( 'NONE', #63, #60, #12, .T. ) ;
#118 = EDGE_CURVE ( 'NONE', #54, #55, #222, .T. ) ;
#119 = ORIENTED_EDGE ( 'NONE', *, *, #137, .F. ) ;
#120 = EDGE_LOOP ( 'NONE', ( #131, #130, #125, #136, #119 ) ) ;
#121 = VERTEX_POINT ( 'NONE', #275 ) ;
#122 = ORIENTED_EDGE ( 'NONE', *, *, #115, .F. ) ;
#123 = EDGE_CURVE ( 'NONE', #58, #53, #230, .T. ) ;
#124 = VERTEX_POINT ( 'NONE', #276 ) ;
#125 = ORIENTED_EDGE ( 'NONE', *, *, #61, .T. ) ;
#126 = EDGE_CURVE ( 'NONE', #128, #113, #225, .T. ) ;
#127 = EDGE_CURVE ( 'NONE', #59, #124, #263, .T. ) ;
#128 = VERTEX_POINT ( 'NONE', #268 ) ;
#129 = ADVANCED_FACE ( 'NONE', ( #258 ), #223, .F. ) ;
#130 = ORIENTED_EDGE ( 'NONE', *, *, #132, .T. ) ;
#131 = ORIENTED_EDGE ( 'NONE', *, *, #118, .F. ) ;
#132 = EDGE_CURVE ( 'NONE', #54, #60, #252, .T. ) ;
#133 = EDGE_CURVE ( 'NONE', #55, #54, #247, .T. ) ;
#134 = EDGE_LOOP ( 'NONE', ( #138, #34, #37, #41, #38 ) ) ;
#135 = ORIENTED_EDGE ( 'NONE', *, *, #126, .T. ) ;
#136 = ORIENTED_EDGE ( 'NONE', *, *, #127, .T. ) ;
#137 = EDGE_CURVE ( 'NONE', #55, #124, #248, .T. ) ;
#138 = ORIENTED_EDGE ( 'NONE', *, *, #36, .T. ) ;
#139 = ADVANCED_FACE ( 'NONE', ( #264, #243 ), #256, .T. ) ;
#140 = EDGE_LOOP ( 'NONE', ( #44, #172, #104, #110, #107 ) ) ;
#141 = EDGE_LOOP ( 'NONE', ( #51, #8 ) ) ;
#142 = CARTESIAN_POINT ( 'NONE',  ( 26.50000000000001100, 6.237508118397112600, 0.0000000000000000000 ) ) ;
#143 = CARTESIAN_POINT ( 'NONE',  ( 1.745121688784978600E-015, 9.700000000000001100, 14.25000000000000200 ) ) ;
#144 = DIRECTION ( 'NONE',  ( 0.0000000000000000000, 0.0000000000000000000, -1.000000000000000000 ) ) ;
#145 = DIRECTION ( 'NONE',  ( -0.0000000000000000000, -1.000000000000000000, -0.0000000000000000000 ) ) ;
#146 = CARTESIAN_POINT ( 'NONE',  ( 0.0000000000000000000, 6.237508118397110800, 0.0000000000000000000 ) ) ;
#147 = CIRCLE ( 'NONE', #4, 26.50000000000000400 ) ;
#148 = DIRECTION ( 'NONE',  ( -0.0000000000000000000, -1.000000000000000000, -0.0000000000000000000 ) ) ;
#149 = CARTESIAN_POINT ( 'NONE',  ( 0.0000000000000000000, 6.237508118397110800, 0.0000000000000000000 ) ) ;
#150 = CARTESIAN_POINT ( 'NONE',  ( 3.245314017740486600E-015, 6.237508118397110800, 26.50000000000000700 ) ) ;
#151 = CIRCLE ( 'NONE', #157, 26.50000000000000400 ) ;
#152 = DIRECTION ( 'NONE',  ( 0.0000000000000000000, 0.0000000000000000000, -1.000000000000000000 ) ) ;
#153 = CARTESIAN_POINT ( 'NONE',  ( 0.0000000000000000000, 64.49340910705232900, 0.0000000000000000000 ) ) ;
#154 = DIRECTION ( 'NONE',  ( -0.0000000000000000000, -1.000000000000000000, -0.0000000000000000000 ) ) ;
#155 = VECTOR ( 'NONE', #154, 1000.000000000000000 ) ;
#156 = CARTESIAN_POINT ( 'NONE',  ( 0.0000000000000000000, 0.0000000000000000000, 0.0000000000000000000 ) ) ;
#157 = AXIS2_PLACEMENT_3D ( 'NONE', #149, #148, #29 ) ;
#158 = CYLINDRICAL_SURFACE ( 'NONE', #165, 26.50000000000000000 ) ;
#159 = LINE ( 'NONE', #66, #155 ) ;
#160 = DIRECTION ( 'NONE',  ( -0.0000000000000000000, -1.000000000000000000, -0.0000000000000000000 ) ) ;
#161 = DIRECTION ( 'NONE',  ( 0.0000000000000000000, 0.0000000000000000000, -1.000000000000000000 ) ) ;
#162 = DIRECTION ( 'NONE',  ( -0.0000000000000000000, -1.000000000000000000, -0.0000000000000000000 ) ) ;
#163 = CARTESIAN_POINT ( 'NONE',  ( 0.0000000000000000000, 9.700000000000001100, -14.25000000000000200 ) ) ;
#164 = AXIS2_PLACEMENT_3D ( 'NONE', #30, #189, #188 ) ;
#165 = AXIS2_PLACEMENT_3D ( 'NONE', #156, #160, #152 ) ;
#166 = FACE_OUTER_BOUND ( 'NONE', #39, .T. ) ;
#167 = DIRECTION ( 'NONE',  ( -0.0000000000000000000, -1.000000000000000000, -0.0000000000000000000 ) ) ;
#168 = VECTOR ( 'NONE', #167, 1000.000000000000000 ) ;
#169 = CARTESIAN_POINT ( 'NONE',  ( 3.245314017740485800E-015, 0.0000000000000000000, 26.50000000000000000 ) ) ;
#170 = LINE ( 'NONE', #169, #168 ) ;
#171 = CLOSED_SHELL ( 'NONE', ( #56, #129, #33, #45, #139, #3, #100 ) ) ;
#172 = ORIENTED_EDGE ( 'NONE', *, *, #133, .F. ) ;
#173 = AXIS2_PLACEMENT_3D ( 'NONE', #153, #14, #13 ) ;
#174 = CARTESIAN_POINT ( 'NONE',  ( 0.0000000000000000000, 9.700000000000001100, -26.50000000000000000 ) ) ;
#175 = AXIS2_PLACEMENT_3D ( 'NONE', #180, #21, #20 ) ;
#176 = DIRECTION ( 'NONE',  ( 0.0000000000000000000, 0.0000000000000000000, -1.000000000000000000 ) ) ;
#177 = DIRECTION ( 'NONE',  ( -0.0000000000000000000, -1.000000000000000000, -0.0000000000000000000 ) ) ;
#178 = CARTESIAN_POINT ( 'NONE',  ( 0.0000000000000000000, 2.100000000000000100, 0.0000000000000000000 ) ) ;
#179 = AXIS2_PLACEMENT_3D ( 'NONE', #178, #177, #176 ) ;
#180 = CARTESIAN_POINT ( 'NONE',  ( 0.0000000000000000000, 64.49340910705232900, 0.0000000000000000000 ) ) ;
#181 = CIRCLE ( 'NONE', #179, 14.25000000000000200 ) ;
#182 = DIRECTION ( 'NONE',  ( 0.0000000000000000000, 0.0000000000000000000, -1.000000000000000000 ) ) ;
#183 = DIRECTION ( 'NONE',  ( -0.0000000000000000000, -1.000000000000000000, -0.0000000000000000000 ) ) ;
#184 = CARTESIAN_POINT ( 'NONE',  ( 0.0000000000000000000, 2.100000000000000100, 0.0000000000000000000 ) ) ;
#185 = AXIS2_PLACEMENT_3D ( 'NONE', #184, #183, #182 ) ;
#186 = CIRCLE ( 'NONE', #185, 14.25000000000000200 ) ;
#187 = CARTESIAN_POINT ( 'NONE',  ( 14.25000000000000200, 2.100000000000000100, 0.0000000000000000000 ) ) ;
#188 = DIRECTION ( 'NONE',  ( 1.000000000000000000, 0.0000000000000000000, 0.0000000000000000000 ) ) ;
#189 = DIRECTION ( 'NONE',  ( 0.0000000000000000000, 0.0000000000000000000, 1.000000000000000000 ) ) ;
#190 = SPHERICAL_SURFACE ( 'NONE', #175, 64.00000000000000000 ) ;
#191 = PRODUCT_DEFINITION_SHAPE ( 'NONE', 'NONE',  #194 ) ;
#192 = PRODUCT_RELATED_PRODUCT_CATEGORY ( 'part', '', ( #198 ) ) ;
#193 = PRODUCT_DEFINITION_FORMATION_WITH_SPECIFIED_SOURCE ( 'ANY', '', #198, .NOT_KNOWN. ) ;
#194 = PRODUCT_DEFINITION ( 'UNKNOWN', '', #193, #195 ) ;
#195 = PRODUCT_DEFINITION_CONTEXT ( 'detailed design', #197, 'design' ) ;
#196 = APPLICATION_PROTOCOL_DEFINITION ( 'draft international standard', 'automotive_design', 1998, #197 ) ;
#197 = APPLICATION_CONTEXT ( 'automotive_design' ) ;
#198 = PRODUCT ( 'WDS-401-209M', 'WDS-401-209M', '', ( #199 ) ) ;
#199 = PRODUCT_CONTEXT ( 'NONE', #214, 'mechanical' ) ;
#200 = APPLICATION_PROTOCOL_DEFINITION ( 'draft international standard', 'automotive_design', 1998, #214 ) ;
#201 = UNCERTAINTY_MEASURE_WITH_UNIT (LENGTH_MEASURE( 1.000000000000000100E-005 ), #204, 'distance_accuracy_value', 'NONE');
#202 =( NAMED_UNIT ( * ) SI_UNIT ( $, .STERADIAN. ) SOLID_ANGLE_UNIT ( ) );
#203 =( NAMED_UNIT ( * ) PLANE_ANGLE_UNIT ( ) SI_UNIT ( $, .RADIAN. ) );
#204 =( LENGTH_UNIT ( ) NAMED_UNIT ( * ) SI_UNIT ( .MILLI., .METRE. ) );
#205 = MECHANICAL_DESIGN_GEOMETRIC_PRESENTATION_REPRESENTATION (  '', ( #207 ), #273 ) ;
#206 = PRESENTATION_LAYER_ASSIGNMENT (  '', '', ( #207 ) ) ;
#207 = STYLED_ITEM ( 'NONE', ( #208 ), #215 ) ;
#208 = PRESENTATION_STYLE_ASSIGNMENT (( #209 ) ) ;
#209 = SURFACE_STYLE_USAGE ( .BOTH. , #210 ) ;
#210 = SURFACE_SIDE_STYLE ('',( #211 ) ) ;
#211 = SURFACE_STYLE_FILL_AREA ( #238 ) ;
#212 = COLOUR_RGB ( '',0.7529411764705882200, 0.7529411764705882200, 0.7529411764705882200 ) ;
#213 = SHAPE_DEFINITION_REPRESENTATION ( #191, #215 ) ;
#214 = APPLICATION_CONTEXT ( 'automotive_design' ) ;
#215 = ADVANCED_BREP_SHAPE_REPRESENTATION ( 'WDS-401-209M', ( #7, #272 ), #216 ) ;
#216 =( GEOMETRIC_REPRESENTATION_CONTEXT ( 3 ) GLOBAL_UNCERTAINTY_ASSIGNED_CONTEXT ( ( #217 ) ) GLOBAL_UNIT_ASSIGNED_CONTEXT ( ( #233, #232, #231 ) ) REPRESENTATION_CONTEXT ( 'NONE', 'WORKASPACE' ) );
#217 = UNCERTAINTY_MEASURE_WITH_UNIT (LENGTH_MEASURE( 1.000000000000000100E-005 ), #233, 'distance_accuracy_value', 'NONE');
#218 = AXIS2_PLACEMENT_3D ( 'NONE', #267, #266, #265 ) ;
#219 = DIRECTION ( 'NONE',  ( 0.0000000000000000000, 0.0000000000000000000, -1.000000000000000000 ) ) ;
#220 = DIRECTION ( 'NONE',  ( -0.0000000000000000000, -1.000000000000000000, -0.0000000000000000000 ) ) ;
#221 = CARTESIAN_POINT ( 'NONE',  ( 0.0000000000000000000, 9.700000000000001100, 0.0000000000000000000 ) ) ;
#222 = CIRCLE ( 'NONE', #274, 14.25000000000000200 ) ;
#223 = CYLINDRICAL_SURFACE ( 'NONE', #255, 14.25000000000000200 ) ;
#224 = CARTESIAN_POINT ( 'NONE',  ( 0.0000000000000000000, 0.0000000000000000000, 0.0000000000000000000 ) ) ;
#225 = CIRCLE ( 'NONE', #218, 26.50000000000000000 ) ;
#226 = DIRECTION ( 'NONE',  ( 0.0000000000000000000, 0.0000000000000000000, -1.000000000000000000 ) ) ;
#227 = DIRECTION ( 'NONE',  ( -0.0000000000000000000, -1.000000000000000000, -0.0000000000000000000 ) ) ;
#228 = CARTESIAN_POINT ( 'NONE',  ( 0.0000000000000000000, 6.237508118397110800, 0.0000000000000000000 ) ) ;
#229 = AXIS2_PLACEMENT_3D ( 'NONE', #228, #227, #226 ) ;
#230 = CIRCLE ( 'NONE', #229, 26.50000000000000400 ) ;
#231 =( NAMED_UNIT ( * ) SI_UNIT ( $, .STERADIAN. ) SOLID_ANGLE_UNIT ( ) );
#232 =( NAMED_UNIT ( * ) PLANE_ANGLE_UNIT ( ) SI_UNIT ( $, .RADIAN. ) );
#233 =( LENGTH_UNIT ( ) NAMED_UNIT ( * ) SI_UNIT ( .MILLI., .METRE. ) );
#234 = DIRECTION ( 'NONE',  ( 0.0000000000000000000, -0.0000000000000000000, 1.000000000000000000 ) ) ;
#235 = DIRECTION ( 'NONE',  ( 0.0000000000000000000, 1.000000000000000000, 0.0000000000000000000 ) ) ;
#236 = CARTESIAN_POINT ( 'NONE',  ( 14.25000000000000200, 9.700000000000001100, 0.0000000000000000000 ) ) ;
#237 = AXIS2_PLACEMENT_3D ( 'NONE', #236, #235, #234 ) ;
#238 = FILL_AREA_STYLE ('',( #239 ) ) ;
#239 = FILL_AREA_STYLE_COLOUR ( '', #212 ) ;
#240 = DIRECTION ( 'NONE',  ( -0.0000000000000000000, -1.000000000000000000, -0.0000000000000000000 ) ) ;
#241 = VECTOR ( 'NONE', #240, 1000.000000000000000 ) ;
#242 = CARTESIAN_POINT ( 'NONE',  ( 0.0000000000000000000, 0.0000000000000000000, -14.25000000000000200 ) ) ;
#243 = FACE_OUTER_BOUND ( 'NONE', #141, .T. ) ;
#244 = DIRECTION ( 'NONE',  ( 0.0000000000000000000, 0.0000000000000000000, -1.000000000000000000 ) ) ;
#245 = DIRECTION ( 'NONE',  ( -0.0000000000000000000, -1.000000000000000000, -0.0000000000000000000 ) ) ;
#246 = CARTESIAN_POINT ( 'NONE',  ( 0.0000000000000000000, 9.700000000000001100, 0.0000000000000000000 ) ) ;
#247 = CIRCLE ( 'NONE', #257, 14.25000000000000200 ) ;
#248 = LINE ( 'NONE', #242, #241 ) ;
#249 = DIRECTION ( 'NONE',  ( -0.0000000000000000000, -1.000000000000000000, -0.0000000000000000000 ) ) ;
#250 = VECTOR ( 'NONE', #249, 1000.000000000000000 ) ;
#251 = CARTESIAN_POINT ( 'NONE',  ( 1.745121688784978600E-015, 0.0000000000000000000, 14.25000000000000200 ) ) ;
#252 = LINE ( 'NONE', #251, #250 ) ;
#253 = DIRECTION ( 'NONE',  ( 0.0000000000000000000, 0.0000000000000000000, -1.000000000000000000 ) ) ;
#254 = DIRECTION ( 'NONE',  ( -0.0000000000000000000, -1.000000000000000000, -0.0000000000000000000 ) ) ;
#255 = AXIS2_PLACEMENT_3D ( 'NONE', #224, #254, #253 ) ;
#256 = PLANE ( 'NONE',  #237 ) ;
#257 = AXIS2_PLACEMENT_3D ( 'NONE', #246, #245, #244 ) ;
#258 = FACE_OUTER_BOUND ( 'NONE', #120, .T. ) ;
#259 = DIRECTION ( 'NONE',  ( 0.0000000000000000000, 0.0000000000000000000, -1.000000000000000000 ) ) ;
#260 = DIRECTION ( 'NONE',  ( -0.0000000000000000000, -1.000000000000000000, -0.0000000000000000000 ) ) ;
#261 = CARTESIAN_POINT ( 'NONE',  ( 0.0000000000000000000, 2.100000000000000100, 0.0000000000000000000 ) ) ;
#262 = AXIS2_PLACEMENT_3D ( 'NONE', #261, #260, #259 ) ;
#263 = CIRCLE ( 'NONE', #262, 14.25000000000000200 ) ;
#264 = FACE_BOUND ( 'NONE', #43, .T. ) ;
#265 = DIRECTION ( 'NONE',  ( 0.0000000000000000000, 0.0000000000000000000, -1.000000000000000000 ) ) ;
#266 = DIRECTION ( 'NONE',  ( -0.0000000000000000000, -1.000000000000000000, -0.0000000000000000000 ) ) ;
#267 = CARTESIAN_POINT ( 'NONE',  ( 0.0000000000000000000, 9.700000000000001100, 0.0000000000000000000 ) ) ;
#268 = CARTESIAN_POINT ( 'NONE',  ( 3.245314017740485800E-015, 9.700000000000001100, 26.50000000000000000 ) ) ;
#269 = DIRECTION ( 'NONE',  ( 1.000000000000000000, 0.0000000000000000000, 0.0000000000000000000 ) ) ;
#270 = DIRECTION ( 'NONE',  ( 0.0000000000000000000, 0.0000000000000000000, 1.000000000000000000 ) ) ;
#271 = CARTESIAN_POINT ( 'NONE',  ( 0.0000000000000000000, 0.0000000000000000000, 0.0000000000000000000 ) ) ;
#272 = AXIS2_PLACEMENT_3D ( 'NONE', #271, #270, #269 ) ;
#273 =( GEOMETRIC_REPRESENTATION_CONTEXT ( 3 ) GLOBAL_UNCERTAINTY_ASSIGNED_CONTEXT ( ( #201 ) ) GLOBAL_UNIT_ASSIGNED_CONTEXT ( ( #204, #203, #202 ) ) REPRESENTATION_CONTEXT ( 'NONE', 'WORKASPACE' ) );
#274 = AXIS2_PLACEMENT_3D ( 'NONE', #221, #220, #219 ) ;
#275 = CARTESIAN_POINT ( 'NONE',  ( -26.50000000000001100, 6.237508118397112600, 3.245314017740487300E-015 ) ) ;
#276 = CARTESIAN_POINT ( 'NONE',  ( 0.0000000000000000000, 2.100000000000000100, -14.25000000000000200 ) ) ;
ENDSEC;
END-ISO-10303-21;
