ISO-10303-21;
HEADER;
FILE_DESCRIPTION (( 'STEP AP214' ),
    '1' );
FILE_NAME ('WDS-401-208M.step',
    '2012-04-05T09:58:17',
    ( 'SysAdmin' ),
    ( 'SolidWorks' ),
    'SwSTEP 2.0',
    'SolidWorks 2012',
    '' );
FILE_SCHEMA (( 'AUTOMOTIVE_DESIGN' ));
ENDSEC;

DATA;
#1 = ORIENTED_EDGE ( 'NONE', *, *, #119, .F. ) ;
#2 = MANIFOLD_SOLID_BREP ( 'Cut-Revolve2', #3 ) ;
#3 = CLOSED_SHELL ( 'NONE', ( #103, #35, #39, #55, #60, #168, #185 ) ) ;
#4 = COLOUR_RGB ( '',0.7529411764705882200, 0.7529411764705882200, 0.7529411764705882200 ) ;
#5 = ORIENTED_EDGE ( 'NONE', *, *, #116, .T. ) ;
#6 = FACE_OUTER_BOUND ( 'NONE', #172, .T. ) ;
#7 = CARTESIAN_POINT ( 'NONE',  ( 0.0000000000000000000, 58.05571527754818800, 0.0000000000000000000 ) ) ;
#8 = DIRECTION ( 'NONE',  ( -0.0000000000000000000, -1.000000000000000000, -0.0000000000000000000 ) ) ;
#9 = VECTOR ( 'NONE', #8, 1000.000000000000000 ) ;
#10 = CARTESIAN_POINT ( 'NONE',  ( 0.0000000000000000000, 0.0000000000000000000, -24.00000000000000000 ) ) ;
#11 = CIRCLE ( 'NONE', #85, 12.75000000000000000 ) ;
#12 = DIRECTION ( 'NONE',  ( 0.0000000000000000000, 0.0000000000000000000, -1.000000000000000000 ) ) ;
#13 = LINE ( 'NONE', #10, #9 ) ;
#14 = SPHERICAL_SURFACE ( 'NONE', #79, 57.00000000000000000 ) ;
#15 = CARTESIAN_POINT ( 'NONE',  ( 0.0000000000000000000, 8.900000000000002100, 0.0000000000000000000 ) ) ;
#16 = DIRECTION ( 'NONE',  ( -0.0000000000000000000, -1.000000000000000000, -0.0000000000000000000 ) ) ;
#17 = VECTOR ( 'NONE', #16, 1000.000000000000000 ) ;
#18 = CARTESIAN_POINT ( 'NONE',  ( 2.939152317953647900E-015, 0.0000000000000000000, 24.00000000000000000 ) ) ;
#19 = CIRCLE ( 'NONE', #30, 24.00000000000000000 ) ;
#20 = DIRECTION ( 'NONE',  ( 0.0000000000000000000, 0.0000000000000000000, -1.000000000000000000 ) ) ;
#21 = DIRECTION ( 'NONE',  ( -0.0000000000000000000, -1.000000000000000000, -0.0000000000000000000 ) ) ;
#22 = CARTESIAN_POINT ( 'NONE',  ( 0.0000000000000000000, 8.900000000000002100, 0.0000000000000000000 ) ) ;
#23 = AXIS2_PLACEMENT_3D ( 'NONE', #22, #21, #20 ) ;
#24 = CIRCLE ( 'NONE', #23, 24.00000000000000000 ) ;
#25 = LINE ( 'NONE', #18, #17 ) ;
#26 = CARTESIAN_POINT ( 'NONE',  ( 2.939152317953647900E-015, 6.354651458705926200, 24.00000000000000000 ) ) ;
#27 = DIRECTION ( 'NONE',  ( 0.0000000000000000000, -0.0000000000000000000, 1.000000000000000000 ) ) ;
#28 = DIRECTION ( 'NONE',  ( 0.0000000000000000000, 1.000000000000000000, 0.0000000000000000000 ) ) ;
#29 = CARTESIAN_POINT ( 'NONE',  ( 12.75000000000000000, 8.900000000000002100, 0.0000000000000000000 ) ) ;
#30 = AXIS2_PLACEMENT_3D ( 'NONE', #15, #31, #12 ) ;
#31 = DIRECTION ( 'NONE',  ( -0.0000000000000000000, -1.000000000000000000, -0.0000000000000000000 ) ) ;
#32 = DIRECTION ( 'NONE',  ( 0.0000000000000000000, 0.0000000000000000000, -1.000000000000000000 ) ) ;
#33 = FACE_OUTER_BOUND ( 'NONE', #167, .T. ) ;
#34 = FACE_BOUND ( 'NONE', #51, .T. ) ;
#35 = ADVANCED_FACE ( 'NONE', ( #177 ), #86, .T. ) ;
#36 = VERTEX_POINT ( 'NONE', #148 ) ;
#37 = ORIENTED_EDGE ( 'NONE', *, *, #111, .F. ) ;
#38 = VERTEX_POINT ( 'NONE', #151 ) ;
#39 = ADVANCED_FACE ( 'NONE', ( #146 ), #188, .F. ) ;
#40 = VERTEX_POINT ( 'NONE', #138 ) ;
#41 = ORIENTED_EDGE ( 'NONE', *, *, #42, .T. ) ;
#42 = EDGE_CURVE ( 'NONE', #36, #108, #135, .T. ) ;
#43 = EDGE_CURVE ( 'NONE', #110, #47, #153, .T. ) ;
#44 = ORIENTED_EDGE ( 'NONE', *, *, #49, .F. ) ;
#45 = ORIENTED_EDGE ( 'NONE', *, *, #43, .T. ) ;
#46 = EDGE_LOOP ( 'NONE', ( #56, #50, #93, #53, #58 ) ) ;
#47 = VERTEX_POINT ( 'NONE', #147 ) ;
#48 = ORIENTED_EDGE ( 'NONE', *, *, #98, .T. ) ;
#49 = EDGE_CURVE ( 'NONE', #40, #47, #127, .T. ) ;
#50 = ORIENTED_EDGE ( 'NONE', *, *, #98, .F. ) ;
#51 = EDGE_LOOP ( 'NONE', ( #48, #52 ) ) ;
#52 = ORIENTED_EDGE ( 'NONE', *, *, #97, .T. ) ;
#53 = ORIENTED_EDGE ( 'NONE', *, *, #119, .T. ) ;
#54 = VERTEX_POINT ( 'NONE', #142 ) ;
#55 = ADVANCED_FACE ( 'NONE', ( #141 ), #121, .F. ) ;
#56 = ORIENTED_EDGE ( 'NONE', *, *, #42, .F. ) ;
#57 = ORIENTED_EDGE ( 'NONE', *, *, #88, .F. ) ;
#58 = ORIENTED_EDGE ( 'NONE', *, *, #111, .T. ) ;
#59 = EDGE_LOOP ( 'NONE', ( #169, #179, #181, #182, #176 ) ) ;
#60 = ADVANCED_FACE ( 'NONE', ( #34, #33 ), #122, .T. ) ;
#61 = ORIENTED_EDGE ( 'NONE', *, *, #62, .F. ) ;
#62 = EDGE_CURVE ( 'NONE', #113, #114, #24, .T. ) ;
#63 = DIRECTION ( 'NONE',  ( 0.0000000000000000000, 0.0000000000000000000, -1.000000000000000000 ) ) ;
#64 = DIRECTION ( 'NONE',  ( -0.0000000000000000000, -1.000000000000000000, -0.0000000000000000000 ) ) ;
#65 = CARTESIAN_POINT ( 'NONE',  ( 0.0000000000000000000, 2.499999999999999600, 0.0000000000000000000 ) ) ;
#66 = AXIS2_PLACEMENT_3D ( 'NONE', #65, #64, #63 ) ;
#67 = CARTESIAN_POINT ( 'NONE',  ( 1.561424668912875100E-015, 2.499999999999999600, 12.75000000000000000 ) ) ;
#68 = CARTESIAN_POINT ( 'NONE',  ( -12.75000000000000200, 2.499999999999999600, 2.250288493433261500E-015 ) ) ;
#69 = DIRECTION ( 'NONE',  ( 1.000000000000000000, 0.0000000000000000000, 0.0000000000000000000 ) ) ;
#70 = DIRECTION ( 'NONE',  ( 0.0000000000000000000, 0.0000000000000000000, 1.000000000000000000 ) ) ;
#71 = CIRCLE ( 'NONE', #66, 12.75000000000000000 ) ;
#72 = DIRECTION ( 'NONE',  ( 0.0000000000000000000, 0.0000000000000000000, -1.000000000000000000 ) ) ;
#73 = DIRECTION ( 'NONE',  ( -0.0000000000000000000, -1.000000000000000000, -0.0000000000000000000 ) ) ;
#74 = CARTESIAN_POINT ( 'NONE',  ( 0.0000000000000000000, 6.354651458705926200, 0.0000000000000000000 ) ) ;
#75 = AXIS2_PLACEMENT_3D ( 'NONE', #74, #73, #72 ) ;
#76 = DIRECTION ( 'NONE',  ( 0.0000000000000000000, 0.0000000000000000000, -1.000000000000000000 ) ) ;
#77 = DIRECTION ( 'NONE',  ( -0.0000000000000000000, -1.000000000000000000, -0.0000000000000000000 ) ) ;
#78 = CARTESIAN_POINT ( 'NONE',  ( 0.0000000000000000000, 8.900000000000002100, 0.0000000000000000000 ) ) ;
#79 = AXIS2_PLACEMENT_3D ( 'NONE', #7, #70, #69 ) ;
#80 = CIRCLE ( 'NONE', #75, 24.00000000000000000 ) ;
#81 = CIRCLE ( 'NONE', #129, 12.75000000000000000 ) ;
#82 = DIRECTION ( 'NONE',  ( 0.0000000000000000000, 0.0000000000000000000, -1.000000000000000000 ) ) ;
#83 = DIRECTION ( 'NONE',  ( -0.0000000000000000000, -1.000000000000000000, -0.0000000000000000000 ) ) ;
#84 = CARTESIAN_POINT ( 'NONE',  ( 0.0000000000000000000, 8.900000000000002100, 0.0000000000000000000 ) ) ;
#85 = AXIS2_PLACEMENT_3D ( 'NONE', #84, #83, #82 ) ;
#86 = CYLINDRICAL_SURFACE ( 'NONE', #149, 24.00000000000000000 ) ;
#87 = EDGE_CURVE ( 'NONE', #113, #101, #25, .T. ) ;
#88 = EDGE_CURVE ( 'NONE', #114, #113, #19, .T. ) ;
#89 = ORIENTED_EDGE ( 'NONE', *, *, #117, .F. ) ;
#90 = ORIENTED_EDGE ( 'NONE', *, *, #87, .T. ) ;
#91 = ORIENTED_EDGE ( 'NONE', *, *, #94, .F. ) ;
#92 = ORIENTED_EDGE ( 'NONE', *, *, #116, .F. ) ;
#93 = ORIENTED_EDGE ( 'NONE', *, *, #49, .T. ) ;
#94 = EDGE_CURVE ( 'NONE', #114, #120, #13, .T. ) ;
#95 = ORIENTED_EDGE ( 'NONE', *, *, #107, .T. ) ;
#96 = ORIENTED_EDGE ( 'NONE', *, *, #97, .F. ) ;
#97 = EDGE_CURVE ( 'NONE', #36, #40, #11, .T. ) ;
#98 = EDGE_CURVE ( 'NONE', #40, #36, #81, .T. ) ;
#99 = ORIENTED_EDGE ( 'NONE', *, *, #88, .T. ) ;
#100 = EDGE_CURVE ( 'NONE', #101, #54, #80, .T. ) ;
#101 = VERTEX_POINT ( 'NONE', #26 ) ;
#102 = DIRECTION ( 'NONE',  ( 0.0000000000000000000, 0.0000000000000000000, -1.000000000000000000 ) ) ;
#103 = ADVANCED_FACE ( 'NONE', ( #6 ), #14, .T. ) ;
#104 = ORIENTED_EDGE ( 'NONE', *, *, #173, .T. ) ;
#105 = ORIENTED_EDGE ( 'NONE', *, *, #115, .F. ) ;
#106 = ORIENTED_EDGE ( 'NONE', *, *, #107, .F. ) ;
#107 = EDGE_CURVE ( 'NONE', #108, #110, #71, .T. ) ;
#108 = VERTEX_POINT ( 'NONE', #67 ) ;
#109 = EDGE_LOOP ( 'NONE', ( #99, #90, #89, #92, #91 ) ) ;
#110 = VERTEX_POINT ( 'NONE', #68 ) ;
#111 = EDGE_CURVE ( 'NONE', #112, #108, #213, .T. ) ;
#112 = VERTEX_POINT ( 'NONE', #190 ) ;
#113 = VERTEX_POINT ( 'NONE', #189 ) ;
#114 = VERTEX_POINT ( 'NONE', #214 ) ;
#115 = EDGE_CURVE ( 'NONE', #38, #112, #250, .T. ) ;
#116 = EDGE_CURVE ( 'NONE', #120, #38, #198, .T. ) ;
#117 = EDGE_CURVE ( 'NONE', #38, #101, #220, .T. ) ;
#118 = ORIENTED_EDGE ( 'NONE', *, *, #117, .T. ) ;
#119 = EDGE_CURVE ( 'NONE', #47, #112, #193, .T. ) ;
#120 = VERTEX_POINT ( 'NONE', #227 ) ;
#121 = CYLINDRICAL_SURFACE ( 'NONE', #123, 12.75000000000000000 ) ;
#122 = PLANE ( 'NONE',  #136 ) ;
#123 = AXIS2_PLACEMENT_3D ( 'NONE', #128, #137, #32 ) ;
#124 = DIRECTION ( 'NONE',  ( -0.0000000000000000000, -1.000000000000000000, -0.0000000000000000000 ) ) ;
#125 = VECTOR ( 'NONE', #124, 1000.000000000000000 ) ;
#126 = CARTESIAN_POINT ( 'NONE',  ( 0.0000000000000000000, 0.0000000000000000000, -12.75000000000000000 ) ) ;
#127 = LINE ( 'NONE', #126, #125 ) ;
#128 = CARTESIAN_POINT ( 'NONE',  ( 0.0000000000000000000, 0.0000000000000000000, 0.0000000000000000000 ) ) ;
#129 = AXIS2_PLACEMENT_3D ( 'NONE', #78, #77, #76 ) ;
#130 = DIRECTION ( 'NONE',  ( 0.0000000000000000000, 0.0000000000000000000, -1.000000000000000000 ) ) ;
#131 = DIRECTION ( 'NONE',  ( -0.0000000000000000000, -1.000000000000000000, -0.0000000000000000000 ) ) ;
#132 = DIRECTION ( 'NONE',  ( -0.0000000000000000000, -1.000000000000000000, -0.0000000000000000000 ) ) ;
#133 = VECTOR ( 'NONE', #132, 1000.000000000000000 ) ;
#134 = CARTESIAN_POINT ( 'NONE',  ( 1.561424668912875100E-015, 0.0000000000000000000, 12.75000000000000000 ) ) ;
#135 = LINE ( 'NONE', #134, #133 ) ;
#136 = AXIS2_PLACEMENT_3D ( 'NONE', #29, #28, #27 ) ;
#137 = DIRECTION ( 'NONE',  ( -0.0000000000000000000, -1.000000000000000000, -0.0000000000000000000 ) ) ;
#138 = CARTESIAN_POINT ( 'NONE',  ( 0.0000000000000000000, 8.900000000000002100, -12.75000000000000000 ) ) ;
#139 = DIRECTION ( 'NONE',  ( 0.0000000000000000000, 0.0000000000000000000, -1.000000000000000000 ) ) ;
#140 = DIRECTION ( 'NONE',  ( -0.0000000000000000000, -1.000000000000000000, -0.0000000000000000000 ) ) ;
#141 = FACE_OUTER_BOUND ( 'NONE', #46, .T. ) ;
#142 = CARTESIAN_POINT ( 'NONE',  ( -24.00000000000000000, 6.354651458705921700, 2.939152317953647500E-015 ) ) ;
#143 = AXIS2_PLACEMENT_3D ( 'NONE', #150, #131, #130 ) ;
#144 = CARTESIAN_POINT ( 'NONE',  ( 0.0000000000000000000, 0.0000000000000000000, 0.0000000000000000000 ) ) ;
#145 = AXIS2_PLACEMENT_3D ( 'NONE', #144, #140, #139 ) ;
#146 = FACE_OUTER_BOUND ( 'NONE', #171, .T. ) ;
#147 = CARTESIAN_POINT ( 'NONE',  ( 0.0000000000000000000, 2.499999999999999600, -12.75000000000000000 ) ) ;
#148 = CARTESIAN_POINT ( 'NONE',  ( 1.561424668912875100E-015, 8.900000000000002100, 12.75000000000000000 ) ) ;
#149 = AXIS2_PLACEMENT_3D ( 'NONE', #186, #152, #102 ) ;
#150 = CARTESIAN_POINT ( 'NONE',  ( 0.0000000000000000000, 2.499999999999999600, 0.0000000000000000000 ) ) ;
#151 = CARTESIAN_POINT ( 'NONE',  ( 24.00000000000000000, 6.354651458705921700, 0.0000000000000000000 ) ) ;
#152 = DIRECTION ( 'NONE',  ( -0.0000000000000000000, -1.000000000000000000, -0.0000000000000000000 ) ) ;
#153 = CIRCLE ( 'NONE', #143, 12.75000000000000000 ) ;
#154 =( GEOMETRIC_REPRESENTATION_CONTEXT ( 3 ) GLOBAL_UNCERTAINTY_ASSIGNED_CONTEXT ( ( #155 ) ) GLOBAL_UNIT_ASSIGNED_CONTEXT ( ( #158, #157, #156 ) ) REPRESENTATION_CONTEXT ( 'NONE', 'WORKASPACE' ) );
#155 = UNCERTAINTY_MEASURE_WITH_UNIT (LENGTH_MEASURE( 1.000000000000000100E-005 ), #158, 'distance_accuracy_value', 'NONE');
#156 =( NAMED_UNIT ( * ) SI_UNIT ( $, .STERADIAN. ) SOLID_ANGLE_UNIT ( ) );
#157 =( NAMED_UNIT ( * ) PLANE_ANGLE_UNIT ( ) SI_UNIT ( $, .RADIAN. ) );
#158 =( LENGTH_UNIT ( ) NAMED_UNIT ( * ) SI_UNIT ( .MILLI., .METRE. ) );
#159 = MECHANICAL_DESIGN_GEOMETRIC_PRESENTATION_REPRESENTATION (  '', ( #161 ), #154 ) ;
#160 = PRESENTATION_LAYER_ASSIGNMENT (  '', '', ( #161 ) ) ;
#161 = STYLED_ITEM ( 'NONE', ( #162 ), #2 ) ;
#162 = PRESENTATION_STYLE_ASSIGNMENT (( #163 ) ) ;
#163 = SURFACE_STYLE_USAGE ( .BOTH. , #164 ) ;
#164 = SURFACE_SIDE_STYLE ('',( #165 ) ) ;
#165 = SURFACE_STYLE_FILL_AREA ( #166 ) ;
#166 = FILL_AREA_STYLE ('',( #187 ) ) ;
#167 = EDGE_LOOP ( 'NONE', ( #57, #61 ) ) ;
#168 = ADVANCED_FACE ( 'NONE', ( #211 ), #226, .T. ) ;
#169 = ORIENTED_EDGE ( 'NONE', *, *, #87, .F. ) ;
#170 = ORIENTED_EDGE ( 'NONE', *, *, #100, .T. ) ;
#171 = EDGE_LOOP ( 'NONE', ( #96, #41, #95, #45, #44 ) ) ;
#172 = EDGE_LOOP ( 'NONE', ( #170, #104, #106, #37, #105, #118 ) ) ;
#173 = EDGE_CURVE ( 'NONE', #54, #110, #205, .T. ) ;
#174 = ORIENTED_EDGE ( 'NONE', *, *, #115, .T. ) ;
#175 = ORIENTED_EDGE ( 'NONE', *, *, #43, .F. ) ;
#176 = ORIENTED_EDGE ( 'NONE', *, *, #100, .F. ) ;
#177 = FACE_OUTER_BOUND ( 'NONE', #109, .T. ) ;
#178 = EDGE_LOOP ( 'NONE', ( #183, #184, #5, #174, #1, #175 ) ) ;
#179 = ORIENTED_EDGE ( 'NONE', *, *, #62, .T. ) ;
#180 = EDGE_CURVE ( 'NONE', #54, #120, #229, .T. ) ;
#181 = ORIENTED_EDGE ( 'NONE', *, *, #94, .T. ) ;
#182 = ORIENTED_EDGE ( 'NONE', *, *, #180, .F. ) ;
#183 = ORIENTED_EDGE ( 'NONE', *, *, #173, .F. ) ;
#184 = ORIENTED_EDGE ( 'NONE', *, *, #180, .T. ) ;
#185 = ADVANCED_FACE ( 'NONE', ( #194 ), #225, .T. ) ;
#186 = CARTESIAN_POINT ( 'NONE',  ( 0.0000000000000000000, 0.0000000000000000000, 0.0000000000000000000 ) ) ;
#187 = FILL_AREA_STYLE_COLOUR ( '', #4 ) ;
#188 = CYLINDRICAL_SURFACE ( 'NONE', #145, 12.75000000000000000 ) ;
#189 = CARTESIAN_POINT ( 'NONE',  ( 2.939152317953647900E-015, 8.900000000000002100, 24.00000000000000000 ) ) ;
#190 = CARTESIAN_POINT ( 'NONE',  ( 12.75000000000000200, 2.499999999999999600, 0.0000000000000000000 ) ) ;
#191 = DIRECTION ( 'NONE',  ( -0.0000000000000000000, -1.000000000000000000, -0.0000000000000000000 ) ) ;
#192 = CARTESIAN_POINT ( 'NONE',  ( 0.0000000000000000000, 2.499999999999999600, 0.0000000000000000000 ) ) ;
#193 = CIRCLE ( 'NONE', #219, 12.75000000000000000 ) ;
#194 = FACE_OUTER_BOUND ( 'NONE', #178, .T. ) ;
#195 = DIRECTION ( 'NONE',  ( 0.0000000000000000000, 0.0000000000000000000, -1.000000000000000000 ) ) ;
#196 = DIRECTION ( 'NONE',  ( -0.0000000000000000000, -1.000000000000000000, -0.0000000000000000000 ) ) ;
#197 = AXIS2_PLACEMENT_3D ( 'NONE', #224, #196, #195 ) ;
#198 = CIRCLE ( 'NONE', #212, 24.00000000000000000 ) ;
#199 = DIRECTION ( 'NONE',  ( -1.000000000000000000, 0.0000000000000000000, 0.0000000000000000000 ) ) ;
#200 = DIRECTION ( 'NONE',  ( 0.0000000000000000000, 0.0000000000000000000, -1.000000000000000000 ) ) ;
#201 = CARTESIAN_POINT ( 'NONE',  ( 0.0000000000000000000, 58.05571527754818800, 0.0000000000000000000 ) ) ;
#202 = AXIS2_PLACEMENT_3D ( 'NONE', #201, #200, #199 ) ;
#203 = CARTESIAN_POINT ( 'NONE',  ( 0.0000000000000000000, 0.0000000000000000000, 0.0000000000000000000 ) ) ;
#204 = DIRECTION ( 'NONE',  ( 0.0000000000000000000, 0.0000000000000000000, 1.000000000000000000 ) ) ;
#205 = CIRCLE ( 'NONE', #234, 57.00000000000000000 ) ;
#206 = DIRECTION ( 'NONE',  ( 0.0000000000000000000, 0.0000000000000000000, -1.000000000000000000 ) ) ;
#207 = DIRECTION ( 'NONE',  ( 0.0000000000000000000, 0.0000000000000000000, -1.000000000000000000 ) ) ;
#208 = DIRECTION ( 'NONE',  ( -0.0000000000000000000, -1.000000000000000000, -0.0000000000000000000 ) ) ;
#209 = CARTESIAN_POINT ( 'NONE',  ( 0.0000000000000000000, 2.499999999999999600, 0.0000000000000000000 ) ) ;
#210 = AXIS2_PLACEMENT_3D ( 'NONE', #209, #208, #207 ) ;
#211 = FACE_OUTER_BOUND ( 'NONE', #59, .T. ) ;
#212 = AXIS2_PLACEMENT_3D ( 'NONE', #217, #216, #215 ) ;
#213 = CIRCLE ( 'NONE', #210, 12.75000000000000000 ) ;
#214 = CARTESIAN_POINT ( 'NONE',  ( 0.0000000000000000000, 8.900000000000002100, -24.00000000000000000 ) ) ;
#215 = DIRECTION ( 'NONE',  ( 0.0000000000000000000, 0.0000000000000000000, -1.000000000000000000 ) ) ;
#216 = DIRECTION ( 'NONE',  ( -0.0000000000000000000, -1.000000000000000000, -0.0000000000000000000 ) ) ;
#217 = CARTESIAN_POINT ( 'NONE',  ( 0.0000000000000000000, 6.354651458705926200, 0.0000000000000000000 ) ) ;
#218 = AXIS2_PLACEMENT_3D ( 'NONE', #203, #239, #238 ) ;
#219 = AXIS2_PLACEMENT_3D ( 'NONE', #192, #191, #206 ) ;
#220 = CIRCLE ( 'NONE', #197, 24.00000000000000000 ) ;
#221 = SHAPE_DEFINITION_REPRESENTATION ( #251, #240 ) ;
#222 = APPLICATION_CONTEXT ( 'automotive_design' ) ;
#223 = AXIS2_PLACEMENT_3D ( 'NONE', #230, #204, #246 ) ;
#224 = CARTESIAN_POINT ( 'NONE',  ( 0.0000000000000000000, 6.354651458705926200, 0.0000000000000000000 ) ) ;
#225 = SPHERICAL_SURFACE ( 'NONE', #223, 57.00000000000000000 ) ;
#226 = CYLINDRICAL_SURFACE ( 'NONE', #218, 24.00000000000000000 ) ;
#227 = CARTESIAN_POINT ( 'NONE',  ( 0.0000000000000000000, 6.354651458705926200, -24.00000000000000000 ) ) ;
#228 = AXIS2_PLACEMENT_3D ( 'NONE', #262, #261, #263 ) ;
#229 = CIRCLE ( 'NONE', #237, 24.00000000000000000 ) ;
#230 = CARTESIAN_POINT ( 'NONE',  ( 0.0000000000000000000, 58.05571527754818800, 0.0000000000000000000 ) ) ;
#231 = DIRECTION ( 'NONE',  ( 1.000000000000000000, 0.0000000000000000000, -1.224646799147353200E-016 ) ) ;
#232 = DIRECTION ( 'NONE',  ( 1.224646799147353200E-016, -0.0000000000000000000, 1.000000000000000000 ) ) ;
#233 = CARTESIAN_POINT ( 'NONE',  ( 0.0000000000000000000, 58.05571527754818800, 0.0000000000000000000 ) ) ;
#234 = AXIS2_PLACEMENT_3D ( 'NONE', #233, #232, #231 ) ;
#235 = DIRECTION ( 'NONE',  ( -0.0000000000000000000, -1.000000000000000000, -0.0000000000000000000 ) ) ;
#236 = CARTESIAN_POINT ( 'NONE',  ( 0.0000000000000000000, 6.354651458705926200, 0.0000000000000000000 ) ) ;
#237 = AXIS2_PLACEMENT_3D ( 'NONE', #236, #235, #249 ) ;
#238 = DIRECTION ( 'NONE',  ( 0.0000000000000000000, 0.0000000000000000000, -1.000000000000000000 ) ) ;
#239 = DIRECTION ( 'NONE',  ( -0.0000000000000000000, -1.000000000000000000, -0.0000000000000000000 ) ) ;
#240 = ADVANCED_BREP_SHAPE_REPRESENTATION ( 'WDS-401-208M', ( #2, #228 ), #241 ) ;
#241 =( GEOMETRIC_REPRESENTATION_CONTEXT ( 3 ) GLOBAL_UNCERTAINTY_ASSIGNED_CONTEXT ( ( #242 ) ) GLOBAL_UNIT_ASSIGNED_CONTEXT ( ( #245, #244, #243 ) ) REPRESENTATION_CONTEXT ( 'NONE', 'WORKASPACE' ) );
#242 = UNCERTAINTY_MEASURE_WITH_UNIT (LENGTH_MEASURE( 1.000000000000000100E-005 ), #245, 'distance_accuracy_value', 'NONE');
#243 =( NAMED_UNIT ( * ) SI_UNIT ( $, .STERADIAN. ) SOLID_ANGLE_UNIT ( ) );
#244 =( NAMED_UNIT ( * ) PLANE_ANGLE_UNIT ( ) SI_UNIT ( $, .RADIAN. ) );
#245 =( LENGTH_UNIT ( ) NAMED_UNIT ( * ) SI_UNIT ( .MILLI., .METRE. ) );
#246 = DIRECTION ( 'NONE',  ( 1.000000000000000000, 0.0000000000000000000, 0.0000000000000000000 ) ) ;
#247 = FILL_AREA_STYLE ('',( #248 ) ) ;
#248 = FILL_AREA_STYLE_COLOUR ( '', #276 ) ;
#249 = DIRECTION ( 'NONE',  ( 0.0000000000000000000, 0.0000000000000000000, -1.000000000000000000 ) ) ;
#250 = CIRCLE ( 'NONE', #202, 57.00000000000000000 ) ;
#251 = PRODUCT_DEFINITION_SHAPE ( 'NONE', 'NONE',  #254 ) ;
#252 = PRODUCT_RELATED_PRODUCT_CATEGORY ( 'part', '', ( #258 ) ) ;
#253 = PRODUCT_DEFINITION_FORMATION_WITH_SPECIFIED_SOURCE ( 'ANY', '', #258, .NOT_KNOWN. ) ;
#254 = PRODUCT_DEFINITION ( 'UNKNOWN', '', #253, #255 ) ;
#255 = PRODUCT_DEFINITION_CONTEXT ( 'detailed design', #257, 'design' ) ;
#256 = APPLICATION_PROTOCOL_DEFINITION ( 'draft international standard', 'automotive_design', 1998, #257 ) ;
#257 = APPLICATION_CONTEXT ( 'automotive_design' ) ;
#258 = PRODUCT ( 'WDS-401-208M', 'WDS-401-208M', '', ( #259 ) ) ;
#259 = PRODUCT_CONTEXT ( 'NONE', #222, 'mechanical' ) ;
#260 = APPLICATION_PROTOCOL_DEFINITION ( 'draft international standard', 'automotive_design', 1998, #222 ) ;
#261 = DIRECTION ( 'NONE',  ( 0.0000000000000000000, 0.0000000000000000000, 1.000000000000000000 ) ) ;
#262 = CARTESIAN_POINT ( 'NONE',  ( 0.0000000000000000000, 0.0000000000000000000, 0.0000000000000000000 ) ) ;
#263 = DIRECTION ( 'NONE',  ( 1.000000000000000000, 0.0000000000000000000, 0.0000000000000000000 ) ) ;
#264 =( GEOMETRIC_REPRESENTATION_CONTEXT ( 3 ) GLOBAL_UNCERTAINTY_ASSIGNED_CONTEXT ( ( #265 ) ) GLOBAL_UNIT_ASSIGNED_CONTEXT ( ( #268, #267, #266 ) ) REPRESENTATION_CONTEXT ( 'NONE', 'WORKASPACE' ) );
#265 = UNCERTAINTY_MEASURE_WITH_UNIT (LENGTH_MEASURE( 1.000000000000000100E-005 ), #268, 'distance_accuracy_value', 'NONE');
#266 =( NAMED_UNIT ( * ) SI_UNIT ( $, .STERADIAN. ) SOLID_ANGLE_UNIT ( ) );
#267 =( NAMED_UNIT ( * ) PLANE_ANGLE_UNIT ( ) SI_UNIT ( $, .RADIAN. ) );
#268 =( LENGTH_UNIT ( ) NAMED_UNIT ( * ) SI_UNIT ( .MILLI., .METRE. ) );
#269 = MECHANICAL_DESIGN_GEOMETRIC_PRESENTATION_REPRESENTATION (  '', ( #271 ), #264 ) ;
#270 = PRESENTATION_LAYER_ASSIGNMENT (  '', '', ( #271 ) ) ;
#271 = STYLED_ITEM ( 'NONE', ( #272 ), #240 ) ;
#272 = PRESENTATION_STYLE_ASSIGNMENT (( #273 ) ) ;
#273 = SURFACE_STYLE_USAGE ( .BOTH. , #274 ) ;
#274 = SURFACE_SIDE_STYLE ('',( #275 ) ) ;
#275 = SURFACE_STYLE_FILL_AREA ( #247 ) ;
#276 = COLOUR_RGB ( '',0.7529411764705882200, 0.7529411764705882200, 0.7529411764705882200 ) ;
ENDSEC;
END-ISO-10303-21;
