ISO-10303-21;
HEADER;
FILE_DESCRIPTION (( 'STEP AP203' ),
    '1' );
FILE_NAME ('WDS-401-207M.step',
    '2012-03-30T18:03:27',
    ( 'SysAdmin' ),
    ( 'SolidWorks' ),
    'SwSTEP 2.0',
    'SolidWorks 2012',
    '' );
FILE_SCHEMA (( 'CONFIG_CONTROL_DESIGN' ));
ENDSEC;

DATA;
#1 = EDGE_CURVE ( 'NONE', #118, #131, #10, .T. ) ;
#2 = EDGE_CURVE ( 'NONE', #156, #167, #56, .T. ) ;
#3 = EDGE_CURVE ( 'NONE', #131, #144, #120, .T. ) ;
#4 = ADVANCED_FACE ( 'NONE', ( #279 ), #246, .F. ) ;
#5 = EDGE_CURVE ( 'NONE', #152, #144, #39, .T. ) ;
#6 = ADVANCED_FACE ( 'NONE', ( #289, #288 ), #101, .T. ) ;
#7 = EDGE_CURVE ( 'NONE', #130, #152, #35, .T. ) ;
#8 = ADVANCED_FACE ( 'NONE', ( #249 ), #256, .T. ) ;
#9 = ADVANCED_FACE ( 'NONE', ( #243 ), #283, .T. ) ;
#10 = CIRCLE ( 'NONE', #297, 20.00000000000000000 ) ;
#11 = CIRCLE ( 'NONE', #294, 48.00000000000000700 ) ;
#12 = APPROVAL ( #215, 'UNSPECIFIED' ) ;
#13 = ADVANCED_FACE ( 'NONE', ( #267 ), #261, .F. ) ;
#14 = EDGE_CURVE ( 'NONE', #118, #130, #107, .T. ) ;
#15 = EDGE_CURVE ( 'NONE', #144, #169, #36, .T. ) ;
#16 = PRODUCT_RELATED_PRODUCT_CATEGORY ( 'detail', '', ( #311 ) ) ;
#17 = LOCAL_TIME ( 14, 3, 27.00000000000000000, #293 ) ;
#18 = APPROVAL ( #229, 'UNSPECIFIED' ) ;
#19 = CC_DESIGN_DATE_AND_TIME_ASSIGNMENT ( #235, #221, ( #242 ) ) ;
#20 = LOCAL_TIME ( 14, 3, 27.00000000000000000, #292 ) ;
#21 = CC_DESIGN_PERSON_AND_ORGANIZATION_ASSIGNMENT ( #213, #220, ( #242 ) ) ;
#22 = CC_DESIGN_PERSON_AND_ORGANIZATION_ASSIGNMENT ( #218, #234, ( #258 ) ) ;
#23 = CC_DESIGN_PERSON_AND_ORGANIZATION_ASSIGNMENT ( #233, #227, ( #258 ) ) ;
#24 = LOCAL_TIME ( 14, 3, 27.00000000000000000, #298 ) ;
#25 = APPROVAL ( #223, 'UNSPECIFIED' ) ;
#26 = CC_DESIGN_DATE_AND_TIME_ASSIGNMENT ( #214, #228, ( #31 ) ) ;
#27 = LOCAL_TIME ( 14, 3, 27.00000000000000000, #277 ) ;
#28 = CC_DESIGN_PERSON_AND_ORGANIZATION_ASSIGNMENT ( #230, #217, ( #31 ) ) ;
#29 = LOCAL_TIME ( 14, 3, 27.00000000000000000, #271 ) ;
#30 = CC_DESIGN_PERSON_AND_ORGANIZATION_ASSIGNMENT ( #204, #202, ( #311 ) ) ;
#31 = PRODUCT_DEFINITION ( 'UNKNOWN', '', #258, #308 ) ;
#32 = EDGE_CURVE ( 'NONE', #167, #168, #38, .T. ) ;
#33 = EDGE_CURVE ( 'NONE', #168, #158, #34, .T. ) ;
#34 = CIRCLE ( 'NONE', #269, 11.25000000000000000 ) ;
#35 = CIRCLE ( 'NONE', #287, 20.00000000000000400 ) ;
#36 = CIRCLE ( 'NONE', #284, 20.00000000000000400 ) ;
#37 = EDGE_CURVE ( 'NONE', #115, #168, #89, .T. ) ;
#38 = CIRCLE ( 'NONE', #247, 11.25000000000000000 ) ;
#39 = CIRCLE ( 'NONE', #266, 20.00000000000000400 ) ;
#40 = ADVANCED_FACE ( 'NONE', ( #285 ), #248, .T. ) ;
#41 = EDGE_CURVE ( 'NONE', #131, #118, #43, .T. ) ;
#42 = CIRCLE ( 'NONE', #250, 20.00000000000000400 ) ;
#43 = CIRCLE ( 'NONE', #281, 20.00000000000000000 ) ;
#44 = CIRCLE ( 'NONE', #253, 11.25000000000000000 ) ;
#45 = CIRCLE ( 'NONE', #276, 11.25000000000000000 ) ;
#46 = CIRCLE ( 'NONE', #295, 11.25000000000000000 ) ;
#47 = CIRCLE ( 'NONE', #278, 48.00000000000000700 ) ;
#48 = EDGE_CURVE ( 'NONE', #155, #156, #150, .T. ) ;
#49 = EDGE_CURVE ( 'NONE', #169, #130, #42, .T. ) ;
#50 = EDGE_CURVE ( 'NONE', #115, #155, #44, .T. ) ;
#51 = EDGE_CURVE ( 'NONE', #155, #115, #45, .T. ) ;
#52 = EDGE_CURVE ( 'NONE', #158, #156, #46, .T. ) ;
#53 = EDGE_CURVE ( 'NONE', #152, #158, #47, .T. ) ;
#54 = ADVANCED_FACE ( 'NONE', ( #275 ), #255, .T. ) ;
#55 = EDGE_CURVE ( 'NONE', #169, #167, #11, .T. ) ;
#56 = CIRCLE ( 'NONE', #290, 11.25000000000000000 ) ;
#57 = ORIENTED_EDGE ( 'NONE', *, *, #55, .F. ) ;
#58 = ORIENTED_EDGE ( 'NONE', *, *, #52, .F. ) ;
#59 = EDGE_LOOP ( 'NONE', ( #138, #69, #65, #92, #151 ) ) ;
#60 = EDGE_LOOP ( 'NONE', ( #108, #117 ) ) ;
#61 = ORIENTED_EDGE ( 'NONE', *, *, #5, .T. ) ;
#62 = EDGE_LOOP ( 'NONE', ( #135, #157 ) ) ;
#63 = DIRECTION ( 'NONE',  ( -0.0000000000000000000, -1.000000000000000000, -0.0000000000000000000 ) ) ;
#64 = ORIENTED_EDGE ( 'NONE', *, *, #15, .T. ) ;
#65 = ORIENTED_EDGE ( 'NONE', *, *, #5, .F. ) ;
#66 = EDGE_LOOP ( 'NONE', ( #125, #124, #116, #121, #123 ) ) ;
#67 = EDGE_LOOP ( 'NONE', ( #64, #70, #140, #58, #71, #61 ) ) ;
#68 = EDGE_LOOP ( 'NONE', ( #166, #110, #139, #109, #126 ) ) ;
#69 = ORIENTED_EDGE ( 'NONE', *, *, #3, .T. ) ;
#70 = ORIENTED_EDGE ( 'NONE', *, *, #55, .T. ) ;
#71 = ORIENTED_EDGE ( 'NONE', *, *, #53, .F. ) ;
#72 = DIRECTION ( 'NONE',  ( -0.0000000000000000000, -1.000000000000000000, -0.0000000000000000000 ) ) ;
#73 = EDGE_LOOP ( 'NONE', ( #57, #133, #113, #132, #128, #134 ) ) ;
#74 = EDGE_LOOP ( 'NONE', ( #160, #172, #146, #149, #164 ) ) ;
#75 = DIRECTION ( 'NONE',  ( 0.0000000000000000000, -0.0000000000000000000, 1.000000000000000000 ) ) ;
#76 = DIRECTION ( 'NONE',  ( 0.0000000000000000000, 0.0000000000000000000, -1.000000000000000000 ) ) ;
#77 = DIRECTION ( 'NONE',  ( -0.0000000000000000000, -1.000000000000000000, -0.0000000000000000000 ) ) ;
#78 = DIRECTION ( 'NONE',  ( 0.0000000000000000000, 0.0000000000000000000, -1.000000000000000000 ) ) ;
#79 = CARTESIAN_POINT ( 'NONE',  ( 0.0000000000000000000, 4.328172232363989700, 0.0000000000000000000 ) ) ;
#80 = CARTESIAN_POINT ( 'NONE',  ( 0.0000000000000000000, 0.0000000000000000000, 0.0000000000000000000 ) ) ;
#81 = DIRECTION ( 'NONE',  ( 0.0000000000000000000, 0.0000000000000000000, -1.000000000000000000 ) ) ;
#82 = DIRECTION ( 'NONE',  ( 0.0000000000000000000, 0.0000000000000000000, -1.000000000000000000 ) ) ;
#83 = CARTESIAN_POINT ( 'NONE',  ( 0.0000000000000000000, 0.0000000000000000000, 0.0000000000000000000 ) ) ;
#84 = CARTESIAN_POINT ( 'NONE',  ( 0.0000000000000000000, 4.328172232363989700, 0.0000000000000000000 ) ) ;
#85 = DIRECTION ( 'NONE',  ( -0.0000000000000000000, -1.000000000000000000, -0.0000000000000000000 ) ) ;
#86 = CARTESIAN_POINT ( 'NONE',  ( 0.0000000000000000000, 1.300000000000000700, 0.0000000000000000000 ) ) ;
#87 = DIRECTION ( 'NONE',  ( -0.0000000000000000000, -1.000000000000000000, -0.0000000000000000000 ) ) ;
#88 = DIRECTION ( 'NONE',  ( -0.0000000000000000000, -1.000000000000000000, -0.0000000000000000000 ) ) ;
#89 = LINE ( 'NONE', #103, #254 ) ;
#90 = DIRECTION ( 'NONE',  ( 0.0000000000000000000, 0.0000000000000000000, -1.000000000000000000 ) ) ;
#91 = CARTESIAN_POINT ( 'NONE',  ( 0.0000000000000000000, 0.0000000000000000000, 0.0000000000000000000 ) ) ;
#92 = ORIENTED_EDGE ( 'NONE', *, *, #7, .F. ) ;
#93 = CARTESIAN_POINT ( 'NONE',  ( 0.0000000000000000000, 47.96302069090684500, 0.0000000000000000000 ) ) ;
#94 = DIRECTION ( 'NONE',  ( 0.0000000000000000000, 0.0000000000000000000, -1.000000000000000000 ) ) ;
#95 = DIRECTION ( 'NONE',  ( -0.0000000000000000000, -1.000000000000000000, -0.0000000000000000000 ) ) ;
#96 = DIRECTION ( 'NONE',  ( 0.0000000000000000000, 0.0000000000000000000, -1.000000000000000000 ) ) ;
#97 = CARTESIAN_POINT ( 'NONE',  ( 0.0000000000000000000, 1.300000000000000700, 0.0000000000000000000 ) ) ;
#98 = CARTESIAN_POINT ( 'NONE',  ( 0.0000000000000000000, 0.0000000000000000000, -20.00000000000000000 ) ) ;
#99 = DIRECTION ( 'NONE',  ( -0.0000000000000000000, -1.000000000000000000, -0.0000000000000000000 ) ) ;
#100 = DIRECTION ( 'NONE',  ( -0.0000000000000000000, -1.000000000000000000, -0.0000000000000000000 ) ) ;
#101 = PLANE ( 'NONE',  #270 ) ;
#102 = DIRECTION ( 'NONE',  ( 0.0000000000000000000, 0.0000000000000000000, -1.000000000000000000 ) ) ;
#103 = CARTESIAN_POINT ( 'NONE',  ( 0.0000000000000000000, 0.0000000000000000000, -11.25000000000000000 ) ) ;
#104 = DIRECTION ( 'NONE',  ( -0.0000000000000000000, -1.000000000000000000, -0.0000000000000000000 ) ) ;
#105 = DIRECTION ( 'NONE',  ( -0.0000000000000000000, -1.000000000000000000, -0.0000000000000000000 ) ) ;
#106 = CARTESIAN_POINT ( 'NONE',  ( 0.0000000000000000000, 0.0000000000000000000, 0.0000000000000000000 ) ) ;
#107 = LINE ( 'NONE', #98, #262 ) ;
#108 = ORIENTED_EDGE ( 'NONE', *, *, #1, .F. ) ;
#109 = ORIENTED_EDGE ( 'NONE', *, *, #33, .T. ) ;
#110 = ORIENTED_EDGE ( 'NONE', *, *, #50, .F. ) ;
#111 = DIRECTION ( 'NONE',  ( 1.000000000000000000, 0.0000000000000000000, 0.0000000000000000000 ) ) ;
#112 = DIRECTION ( 'NONE',  ( 0.0000000000000000000, 0.0000000000000000000, -1.000000000000000000 ) ) ;
#113 = ORIENTED_EDGE ( 'NONE', *, *, #7, .T. ) ;
#114 = CARTESIAN_POINT ( 'NONE',  ( 0.0000000000000000000, 1.300000000000000700, 0.0000000000000000000 ) ) ;
#115 = VERTEX_POINT ( 'NONE', #185 ) ;
#116 = ORIENTED_EDGE ( 'NONE', *, *, #14, .T. ) ;
#117 = ORIENTED_EDGE ( 'NONE', *, *, #41, .F. ) ;
#118 = VERTEX_POINT ( 'NONE', #181 ) ;
#119 = DIRECTION ( 'NONE',  ( -0.0000000000000000000, -1.000000000000000000, -0.0000000000000000000 ) ) ;
#120 = LINE ( 'NONE', #127, #245 ) ;
#121 = ORIENTED_EDGE ( 'NONE', *, *, #49, .F. ) ;
#122 = DIRECTION ( 'NONE',  ( -0.0000000000000000000, -1.000000000000000000, -0.0000000000000000000 ) ) ;
#123 = ORIENTED_EDGE ( 'NONE', *, *, #15, .F. ) ;
#124 = ORIENTED_EDGE ( 'NONE', *, *, #41, .T. ) ;
#125 = ORIENTED_EDGE ( 'NONE', *, *, #3, .F. ) ;
#126 = ORIENTED_EDGE ( 'NONE', *, *, #52, .T. ) ;
#127 = CARTESIAN_POINT ( 'NONE',  ( 2.449293598294706500E-015, 0.0000000000000000000, 20.00000000000000000 ) ) ;
#128 = ORIENTED_EDGE ( 'NONE', *, *, #33, .F. ) ;
#129 = CARTESIAN_POINT ( 'NONE',  ( 0.0000000000000000000, 4.328172232363989700, 0.0000000000000000000 ) ) ;
#130 = VERTEX_POINT ( 'NONE', #180 ) ;
#131 = VERTEX_POINT ( 'NONE', #196 ) ;
#132 = ORIENTED_EDGE ( 'NONE', *, *, #53, .T. ) ;
#133 = ORIENTED_EDGE ( 'NONE', *, *, #49, .T. ) ;
#134 = ORIENTED_EDGE ( 'NONE', *, *, #32, .F. ) ;
#135 = ORIENTED_EDGE ( 'NONE', *, *, #50, .T. ) ;
#136 = DIRECTION ( 'NONE',  ( 0.0000000000000000000, 0.0000000000000000000, 1.000000000000000000 ) ) ;
#137 = DIRECTION ( 'NONE',  ( 0.0000000000000000000, 0.0000000000000000000, -1.000000000000000000 ) ) ;
#138 = ORIENTED_EDGE ( 'NONE', *, *, #1, .T. ) ;
#139 = ORIENTED_EDGE ( 'NONE', *, *, #37, .T. ) ;
#140 = ORIENTED_EDGE ( 'NONE', *, *, #2, .F. ) ;
#141 = CARTESIAN_POINT ( 'NONE',  ( 1.377727649040772400E-015, 0.0000000000000000000, 11.25000000000000000 ) ) ;
#142 = DIRECTION ( 'NONE',  ( 1.000000000000000000, 0.0000000000000000000, 0.0000000000000000000 ) ) ;
#143 = CARTESIAN_POINT ( 'NONE',  ( 0.0000000000000000000, 7.300000000000000700, 0.0000000000000000000 ) ) ;
#144 = VERTEX_POINT ( 'NONE', #182 ) ;
#145 = CARTESIAN_POINT ( 'NONE',  ( 0.0000000000000000000, 7.300000000000000700, 0.0000000000000000000 ) ) ;
#146 = ORIENTED_EDGE ( 'NONE', *, *, #2, .T. ) ;
#147 = DIRECTION ( 'NONE',  ( -0.0000000000000000000, -1.000000000000000000, -0.0000000000000000000 ) ) ;
#148 = CARTESIAN_POINT ( 'NONE',  ( 0.0000000000000000000, 7.300000000000000700, 0.0000000000000000000 ) ) ;
#149 = ORIENTED_EDGE ( 'NONE', *, *, #32, .T. ) ;
#150 = LINE ( 'NONE', #141, #280 ) ;
#151 = ORIENTED_EDGE ( 'NONE', *, *, #14, .F. ) ;
#152 = VERTEX_POINT ( 'NONE', #197 ) ;
#153 = DIRECTION ( 'NONE',  ( -0.0000000000000000000, -1.000000000000000000, -0.0000000000000000000 ) ) ;
#154 = CARTESIAN_POINT ( 'NONE',  ( 0.0000000000000000000, 4.328172232363989700, 0.0000000000000000000 ) ) ;
#155 = VERTEX_POINT ( 'NONE', #198 ) ;
#156 = VERTEX_POINT ( 'NONE', #183 ) ;
#157 = ORIENTED_EDGE ( 'NONE', *, *, #51, .T. ) ;
#158 = VERTEX_POINT ( 'NONE', #184 ) ;
#159 = DIRECTION ( 'NONE',  ( -0.0000000000000000000, -1.000000000000000000, -0.0000000000000000000 ) ) ;
#160 = ORIENTED_EDGE ( 'NONE', *, *, #51, .F. ) ;
#161 = DIRECTION ( 'NONE',  ( 0.0000000000000000000, 1.000000000000000000, 0.0000000000000000000 ) ) ;
#162 = DIRECTION ( 'NONE',  ( 0.0000000000000000000, 0.0000000000000000000, -1.000000000000000000 ) ) ;
#163 = DIRECTION ( 'NONE',  ( 0.0000000000000000000, 0.0000000000000000000, -1.000000000000000000 ) ) ;
#164 = ORIENTED_EDGE ( 'NONE', *, *, #37, .F. ) ;
#165 = DIRECTION ( 'NONE',  ( 0.0000000000000000000, 0.0000000000000000000, -1.000000000000000000 ) ) ;
#166 = ORIENTED_EDGE ( 'NONE', *, *, #48, .F. ) ;
#167 = VERTEX_POINT ( 'NONE', #174 ) ;
#168 = VERTEX_POINT ( 'NONE', #175 ) ;
#169 = VERTEX_POINT ( 'NONE', #199 ) ;
#170 = CARTESIAN_POINT ( 'NONE',  ( 0.0000000000000000000, 7.300000000000000700, 0.0000000000000000000 ) ) ;
#171 = CARTESIAN_POINT ( 'NONE',  ( 11.25000000000000000, 7.300000000000000700, 0.0000000000000000000 ) ) ;
#172 = ORIENTED_EDGE ( 'NONE', *, *, #48, .T. ) ;
#173 = DIRECTION ( 'NONE',  ( -0.0000000000000000000, -1.000000000000000000, -0.0000000000000000000 ) ) ;
#174 = CARTESIAN_POINT ( 'NONE',  ( -11.25000000000000000, 1.300000000000000700, 1.913510623667739500E-015 ) ) ;
#175 = CARTESIAN_POINT ( 'NONE',  ( 0.0000000000000000000, 1.300000000000000700, -11.25000000000000000 ) ) ;
#176 = CARTESIAN_POINT ( 'NONE',  ( 0.0000000000000000000, 1.300000000000000700, 0.0000000000000000000 ) ) ;
#177 = CARTESIAN_POINT ( 'NONE',  ( 0.0000000000000000000, 47.96302069090684500, 0.0000000000000000000 ) ) ;
#178 = DIRECTION ( 'NONE',  ( -1.000000000000000000, 0.0000000000000000000, 0.0000000000000000000 ) ) ;
#179 = DIRECTION ( 'NONE',  ( -0.0000000000000000000, -1.000000000000000000, -0.0000000000000000000 ) ) ;
#180 = CARTESIAN_POINT ( 'NONE',  ( 0.0000000000000000000, 4.328172232363989700, -20.00000000000000400 ) ) ;
#181 = CARTESIAN_POINT ( 'NONE',  ( 0.0000000000000000000, 7.300000000000000700, -20.00000000000000000 ) ) ;
#182 = CARTESIAN_POINT ( 'NONE',  ( 2.449293598294706900E-015, 4.328172232363989700, 20.00000000000000400 ) ) ;
#183 = CARTESIAN_POINT ( 'NONE',  ( 1.377727649040772400E-015, 1.300000000000000700, 11.25000000000000000 ) ) ;
#184 = CARTESIAN_POINT ( 'NONE',  ( 11.25000000000000000, 1.300000000000000700, 0.0000000000000000000 ) ) ;
#185 = CARTESIAN_POINT ( 'NONE',  ( 0.0000000000000000000, 7.300000000000000700, -11.25000000000000000 ) ) ;
#186 = DIRECTION ( 'NONE',  ( 1.000000000000000000, 0.0000000000000000000, -1.224646799147353200E-016 ) ) ;
#187 = DIRECTION ( 'NONE',  ( 0.0000000000000000000, 0.0000000000000000000, -1.000000000000000000 ) ) ;
#188 = DIRECTION ( 'NONE',  ( 0.0000000000000000000, 0.0000000000000000000, -1.000000000000000000 ) ) ;
#189 = DIRECTION ( 'NONE',  ( 0.0000000000000000000, 0.0000000000000000000, 1.000000000000000000 ) ) ;
#190 = DIRECTION ( 'NONE',  ( 1.224646799147353200E-016, -0.0000000000000000000, 1.000000000000000000 ) ) ;
#191 = DIRECTION ( 'NONE',  ( -0.0000000000000000000, -1.000000000000000000, -0.0000000000000000000 ) ) ;
#192 = DIRECTION ( 'NONE',  ( 0.0000000000000000000, 0.0000000000000000000, -1.000000000000000000 ) ) ;
#193 = DIRECTION ( 'NONE',  ( 0.0000000000000000000, 0.0000000000000000000, -1.000000000000000000 ) ) ;
#194 = CARTESIAN_POINT ( 'NONE',  ( 0.0000000000000000000, 47.96302069090684500, 0.0000000000000000000 ) ) ;
#195 = CARTESIAN_POINT ( 'NONE',  ( 0.0000000000000000000, 47.96302069090684500, 0.0000000000000000000 ) ) ;
#196 = CARTESIAN_POINT ( 'NONE',  ( 2.449293598294706500E-015, 7.300000000000000700, 20.00000000000000000 ) ) ;
#197 = CARTESIAN_POINT ( 'NONE',  ( 20.00000000000001100, 4.328172232363988800, 0.0000000000000000000 ) ) ;
#198 = CARTESIAN_POINT ( 'NONE',  ( 1.377727649040772400E-015, 7.300000000000000700, 11.25000000000000000 ) ) ;
#199 = CARTESIAN_POINT ( 'NONE',  ( -20.00000000000001100, 4.328172232363988800, 2.449293598294707700E-015 ) ) ;
#200 = DIRECTION ( 'NONE',  ( -0.0000000000000000000, -1.000000000000000000, -0.0000000000000000000 ) ) ;
#201 = APPROVAL_DATE_TIME ( #216, #12 ) ;
#202 = PERSON_AND_ORGANIZATION_ROLE ( 'design_owner' ) ;
#203 =( NAMED_UNIT ( * ) SI_UNIT ( $, .STERADIAN. ) SOLID_ANGLE_UNIT ( ) );
#204 = PERSON_AND_ORGANIZATION ( #302, #251 ) ;
#205 = APPLICATION_PROTOCOL_DEFINITION ( 'international standard', 'config_control_design', 1994, #307 ) ;
#206 = MECHANICAL_CONTEXT ( 'NONE', #306, 'mechanical' ) ;
#207 =( LENGTH_UNIT ( ) NAMED_UNIT ( * ) SI_UNIT ( .MILLI., .METRE. ) );
#208 = SHAPE_DEFINITION_REPRESENTATION ( #310, #304 ) ;
#209 = DIRECTION ( 'NONE',  ( 1.000000000000000000, 0.0000000000000000000, 0.0000000000000000000 ) ) ;
#210 = PERSON_AND_ORGANIZATION ( #302, #251 ) ;
#211 = APPLICATION_PROTOCOL_DEFINITION ( 'international standard', 'config_control_design', 1994, #306 ) ;
#212 =( NAMED_UNIT ( * ) PLANE_ANGLE_UNIT ( ) SI_UNIT ( $, .RADIAN. ) );
#213 = PERSON_AND_ORGANIZATION ( #302, #251 ) ;
#214 = DATE_AND_TIME ( #273, #27 ) ;
#215 = APPROVAL_STATUS ( 'not_yet_approved' ) ;
#216 = DATE_AND_TIME ( #252, #29 ) ;
#217 = PERSON_AND_ORGANIZATION_ROLE ( 'creator' ) ;
#218 = PERSON_AND_ORGANIZATION ( #302, #251 ) ;
#219 = SECURITY_CLASSIFICATION_LEVEL ( 'unclassified' ) ;
#220 = PERSON_AND_ORGANIZATION_ROLE ( 'classification_officer' ) ;
#221 = DATE_TIME_ROLE ( 'classification_date' ) ;
#222 = APPROVAL_ROLE ( '' ) ;
#223 = APPROVAL_STATUS ( 'not_yet_approved' ) ;
#224 = APPROVAL_ROLE ( '' ) ;
#225 = APPROVAL_DATE_TIME ( #232, #25 ) ;
#226 = APPROVAL_ROLE ( '' ) ;
#227 = PERSON_AND_ORGANIZATION_ROLE ( 'creator' ) ;
#228 = DATE_TIME_ROLE ( 'creation_date' ) ;
#229 = APPROVAL_STATUS ( 'not_yet_approved' ) ;
#230 = PERSON_AND_ORGANIZATION ( #302, #251 ) ;
#231 = PERSON_AND_ORGANIZATION ( #302, #251 ) ;
#232 = DATE_AND_TIME ( #257, #24 ) ;
#233 = PERSON_AND_ORGANIZATION ( #302, #251 ) ;
#234 = PERSON_AND_ORGANIZATION_ROLE ( 'design_supplier' ) ;
#235 = DATE_AND_TIME ( #301, #20 ) ;
#236 = DIRECTION ( 'NONE',  ( 0.0000000000000000000, 0.0000000000000000000, 1.000000000000000000 ) ) ;
#237 = CARTESIAN_POINT ( 'NONE',  ( 0.0000000000000000000, 0.0000000000000000000, 0.0000000000000000000 ) ) ;
#238 = PERSON_AND_ORGANIZATION ( #302, #251 ) ;
#239 = APPROVAL_DATE_TIME ( #240, #18 ) ;
#240 = DATE_AND_TIME ( #286, #17 ) ;
#241 = APPROVAL_PERSON_ORGANIZATION ( #238, #18, #226 ) ;
#242 = SECURITY_CLASSIFICATION ( '', '', #219 ) ;
#243 = FACE_OUTER_BOUND ( 'NONE', #66, .T. ) ;
#244 = AXIS2_PLACEMENT_3D ( 'NONE', #93, #136, #111 ) ;
#245 = VECTOR ( 'NONE', #119, 1000.000000000000000 ) ;
#246 = CYLINDRICAL_SURFACE ( 'NONE', #268, 11.25000000000000000 ) ;
#247 = AXIS2_PLACEMENT_3D ( 'NONE', #97, #87, #96 ) ;
#248 = CYLINDRICAL_SURFACE ( 'NONE', #260, 20.00000000000000000 ) ;
#249 = FACE_OUTER_BOUND ( 'NONE', #67, .T. ) ;
#250 = AXIS2_PLACEMENT_3D ( 'NONE', #154, #179, #188 ) ;
#251 = ORGANIZATION ( 'UNSPECIFIED', 'UNSPECIFIED', '' ) ;
#252 = CALENDAR_DATE ( 2012, 30, 3 ) ;
#253 = AXIS2_PLACEMENT_3D ( 'NONE', #148, #147, #165 ) ;
#254 = VECTOR ( 'NONE', #63, 1000.000000000000000 ) ;
#255 = SPHERICAL_SURFACE ( 'NONE', #296, 48.00000000000000700 ) ;
#256 = SPHERICAL_SURFACE ( 'NONE', #244, 48.00000000000000700 ) ;
#257 = CALENDAR_DATE ( 2012, 30, 3 ) ;
#258 = PRODUCT_DEFINITION_FORMATION_WITH_SPECIFIED_SOURCE ( 'ANY', '', #311, .NOT_KNOWN. ) ;
#259 = CLOSED_SHELL ( 'NONE', ( #8, #40, #13, #4, #6, #9, #54 ) ) ;
#260 = AXIS2_PLACEMENT_3D ( 'NONE', #80, #72, #162 ) ;
#261 = CYLINDRICAL_SURFACE ( 'NONE', #263, 11.25000000000000000 ) ;
#262 = VECTOR ( 'NONE', #88, 1000.000000000000000 ) ;
#263 = AXIS2_PLACEMENT_3D ( 'NONE', #106, #99, #90 ) ;
#264 = AXIS2_PLACEMENT_3D ( 'NONE', #237, #236, #209 ) ;
#265 = CC_DESIGN_SECURITY_CLASSIFICATION ( #242, ( #258 ) ) ;
#266 = AXIS2_PLACEMENT_3D ( 'NONE', #129, #77, #76 ) ;
#267 = FACE_OUTER_BOUND ( 'NONE', #74, .T. ) ;
#268 = AXIS2_PLACEMENT_3D ( 'NONE', #91, #105, #102 ) ;
#269 = AXIS2_PLACEMENT_3D ( 'NONE', #86, #95, #94 ) ;
#270 = AXIS2_PLACEMENT_3D ( 'NONE', #171, #161, #75 ) ;
#271 = COORDINATED_UNIVERSAL_TIME_OFFSET ( 5, 0, .BEHIND. ) ;
#272 = APPROVAL_PERSON_ORGANIZATION ( #231, #25, #224 ) ;
#273 = CALENDAR_DATE ( 2012, 30, 3 ) ;
#274 = AXIS2_PLACEMENT_3D ( 'NONE', #83, #85, #81 ) ;
#275 = FACE_OUTER_BOUND ( 'NONE', #73, .T. ) ;
#276 = AXIS2_PLACEMENT_3D ( 'NONE', #170, #191, #192 ) ;
#277 = COORDINATED_UNIVERSAL_TIME_OFFSET ( 5, 0, .BEHIND. ) ;
#278 = AXIS2_PLACEMENT_3D ( 'NONE', #177, #193, #178 ) ;
#279 = FACE_OUTER_BOUND ( 'NONE', #68, .T. ) ;
#280 = VECTOR ( 'NONE', #159, 1000.000000000000000 ) ;
#281 = AXIS2_PLACEMENT_3D ( 'NONE', #145, #153, #163 ) ;
#282 = CC_DESIGN_APPROVAL ( #18, ( #242 ) ) ;
#283 = CYLINDRICAL_SURFACE ( 'NONE', #274, 20.00000000000000000 ) ;
#284 = AXIS2_PLACEMENT_3D ( 'NONE', #79, #104, #78 ) ;
#285 = FACE_OUTER_BOUND ( 'NONE', #59, .T. ) ;
#286 = CALENDAR_DATE ( 2012, 30, 3 ) ;
#287 = AXIS2_PLACEMENT_3D ( 'NONE', #84, #100, #82 ) ;
#288 = FACE_OUTER_BOUND ( 'NONE', #60, .T. ) ;
#289 = FACE_BOUND ( 'NONE', #62, .T. ) ;
#290 = AXIS2_PLACEMENT_3D ( 'NONE', #114, #122, #137 ) ;
#291 = CC_DESIGN_APPROVAL ( #25, ( #258 ) ) ;
#292 = COORDINATED_UNIVERSAL_TIME_OFFSET ( 5, 0, .BEHIND. ) ;
#293 = COORDINATED_UNIVERSAL_TIME_OFFSET ( 5, 0, .BEHIND. ) ;
#294 = AXIS2_PLACEMENT_3D ( 'NONE', #195, #190, #186 ) ;
#295 = AXIS2_PLACEMENT_3D ( 'NONE', #176, #200, #187 ) ;
#296 = AXIS2_PLACEMENT_3D ( 'NONE', #194, #189, #142 ) ;
#297 = AXIS2_PLACEMENT_3D ( 'NONE', #143, #173, #112 ) ;
#298 = COORDINATED_UNIVERSAL_TIME_OFFSET ( 5, 0, .BEHIND. ) ;
#299 = CC_DESIGN_APPROVAL ( #12, ( #31 ) ) ;
#300 = APPROVAL_PERSON_ORGANIZATION ( #210, #12, #222 ) ;
#301 = CALENDAR_DATE ( 2012, 30, 3 ) ;
#302 = PERSON ( 'UNSPECIFIED', 'UNSPECIFIED', 'UNSPECIFIED', ('UNSPECIFIED'), ('UNSPECIFIED'), ('UNSPECIFIED') ) ;
#303 = UNCERTAINTY_MEASURE_WITH_UNIT (LENGTH_MEASURE( 1.000000000000000100E-005 ), #207, 'distance_accuracy_value', 'NONE');
#304 = ADVANCED_BREP_SHAPE_REPRESENTATION ( 'WDS-401-207M', ( #309, #264 ), #305 ) ;
#305 =( GEOMETRIC_REPRESENTATION_CONTEXT ( 3 ) GLOBAL_UNCERTAINTY_ASSIGNED_CONTEXT ( ( #303 ) ) GLOBAL_UNIT_ASSIGNED_CONTEXT ( ( #207, #212, #203 ) ) REPRESENTATION_CONTEXT ( 'NONE', 'WORKASPACE' ) );
#306 = APPLICATION_CONTEXT ( 'configuration controlled 3d designs of mechanical parts and assemblies' ) ;
#307 = APPLICATION_CONTEXT ( 'configuration controlled 3d designs of mechanical parts and assemblies' ) ;
#308 = DESIGN_CONTEXT ( 'detailed design', #307, 'design' ) ;
#309 = MANIFOLD_SOLID_BREP ( 'Cut-Revolve2', #259 ) ;
#310 = PRODUCT_DEFINITION_SHAPE ( 'NONE', 'NONE',  #31 ) ;
#311 = PRODUCT ( 'WDS-401-207M', 'WDS-401-207M', '', ( #206 ) ) ;
ENDSEC;
END-ISO-10303-21;
