ISO-10303-21;
HEADER;
FILE_DESCRIPTION (( 'STEP AP203' ),
    '1' );
FILE_NAME ('WDS-401-204M.step',
    '2012-03-30T18:02:12',
    ( 'SysAdmin' ),
    ( 'SolidWorks' ),
    'SwSTEP 2.0',
    'SolidWorks 2012',
    '' );
FILE_SCHEMA (( 'CONFIG_CONTROL_DESIGN' ));
ENDSEC;

DATA;
#1 = APPLICATION_CONTEXT ( 'configuration controlled 3d designs of mechanical parts and assemblies' ) ;
#2 = APPLICATION_CONTEXT ( 'configuration controlled 3d designs of mechanical parts and assemblies' ) ;
#3 = UNCERTAINTY_MEASURE_WITH_UNIT (LENGTH_MEASURE( 1.000000000000000100E-005 ), #32, 'distance_accuracy_value', 'NONE');
#4 = PERSON ( 'UNSPECIFIED', 'UNSPECIFIED', 'UNSPECIFIED', ('UNSPECIFIED'), ('UNSPECIFIED'), ('UNSPECIFIED') ) ;
#5 = ADVANCED_BREP_SHAPE_REPRESENTATION ( 'WDS-401-204M', ( #311, #268 ), #242 ) ;
#6 = DIRECTION ( 'NONE',  ( -0.0000000000000000000, -1.000000000000000000, -0.0000000000000000000 ) ) ;
#7 = DIRECTION ( 'NONE',  ( -0.0000000000000000000, -1.000000000000000000, -0.0000000000000000000 ) ) ;
#8 = DIRECTION ( 'NONE',  ( 0.0000000000000000000, 0.0000000000000000000, -1.000000000000000000 ) ) ;
#9 = PERSON_AND_ORGANIZATION ( #4, #302 ) ;
#10 = DIRECTION ( 'NONE',  ( -0.0000000000000000000, -1.000000000000000000, -0.0000000000000000000 ) ) ;
#11 = CARTESIAN_POINT ( 'NONE',  ( 8.878689293818310100E-016, 0.0000000000000000000, 7.249999999999999100 ) ) ;
#12 = DIRECTION ( 'NONE',  ( 0.0000000000000000000, -0.0000000000000000000, 1.000000000000000000 ) ) ;
#13 = CARTESIAN_POINT ( 'NONE',  ( 0.0000000000000000000, 0.0000000000000000000, -7.249999999999999100 ) ) ;
#14 = DIRECTION ( 'NONE',  ( 1.000000000000000000, 0.0000000000000000000, 0.0000000000000000000 ) ) ;
#15 = CARTESIAN_POINT ( 'NONE',  ( 0.0000000000000000000, 0.0000000000000000000, 0.0000000000000000000 ) ) ;
#16 = CARTESIAN_POINT ( 'NONE',  ( 0.0000000000000000000, 32.46789213277022400, 0.0000000000000000000 ) ) ;
#17 = PERSON_AND_ORGANIZATION ( #4, #302 ) ;
#18 = DIRECTION ( 'NONE',  ( 0.0000000000000000000, 0.0000000000000000000, 1.000000000000000000 ) ) ;
#19 = APPROVAL_STATUS ( 'not_yet_approved' ) ;
#20 = PERSON_AND_ORGANIZATION_ROLE ( 'design_supplier' ) ;
#21 = CARTESIAN_POINT ( 'NONE',  ( 0.0000000000000000000, 6.099999999999997900, 0.0000000000000000000 ) ) ;
#22 = DIRECTION ( 'NONE',  ( 1.000000000000000000, 0.0000000000000000000, -1.224646799147353200E-016 ) ) ;
#23 = DIRECTION ( 'NONE',  ( -0.0000000000000000000, -1.000000000000000000, -0.0000000000000000000 ) ) ;
#24 = CARTESIAN_POINT ( 'NONE',  ( 0.0000000000000000000, 1.299999999999998300, 0.0000000000000000000 ) ) ;
#25 = DIRECTION ( 'NONE',  ( 0.0000000000000000000, 0.0000000000000000000, -1.000000000000000000 ) ) ;
#26 = DIRECTION ( 'NONE',  ( 0.0000000000000000000, 1.000000000000000000, 0.0000000000000000000 ) ) ;
#27 = CARTESIAN_POINT ( 'NONE',  ( 0.0000000000000000000, 0.0000000000000000000, 0.0000000000000000000 ) ) ;
#28 = DIRECTION ( 'NONE',  ( 0.0000000000000000000, 0.0000000000000000000, 1.000000000000000000 ) ) ;
#29 = LINE ( 'NONE', #13, #267 ) ;
#30 = DIRECTION ( 'NONE',  ( -0.0000000000000000000, -1.000000000000000000, -0.0000000000000000000 ) ) ;
#31 = DIRECTION ( 'NONE',  ( -0.0000000000000000000, -1.000000000000000000, -0.0000000000000000000 ) ) ;
#32 =( LENGTH_UNIT ( ) NAMED_UNIT ( * ) SI_UNIT ( .MILLI., .METRE. ) );
#33 = APPROVAL_ROLE ( '' ) ;
#34 = LINE ( 'NONE', #11, #259 ) ;
#35 = CARTESIAN_POINT ( 'NONE',  ( 0.0000000000000000000, 0.0000000000000000000, -14.00000000000000400 ) ) ;
#36 = DIRECTION ( 'NONE',  ( -0.0000000000000000000, -1.000000000000000000, -0.0000000000000000000 ) ) ;
#37 = PERSON_AND_ORGANIZATION_ROLE ( 'design_owner' ) ;
#38 = APPLICATION_PROTOCOL_DEFINITION ( 'international standard', 'config_control_design', 1994, #1 ) ;
#39 = DATE_TIME_ROLE ( 'classification_date' ) ;
#40 = APPROVAL_DATE_TIME ( #63, #214 ) ;
#41 = DIRECTION ( 'NONE',  ( 0.0000000000000000000, 0.0000000000000000000, -1.000000000000000000 ) ) ;
#42 = APPLICATION_PROTOCOL_DEFINITION ( 'international standard', 'config_control_design', 1994, #2 ) ;
#43 = DIRECTION ( 'NONE',  ( 1.224646799147353200E-016, -0.0000000000000000000, 1.000000000000000000 ) ) ;
#44 = PERSON_AND_ORGANIZATION_ROLE ( 'classification_officer' ) ;
#45 = DIRECTION ( 'NONE',  ( 1.000000000000000000, 0.0000000000000000000, 0.0000000000000000000 ) ) ;
#46 = DATE_TIME_ROLE ( 'creation_date' ) ;
#47 = DATE_AND_TIME ( #255, #217 ) ;
#48 = CARTESIAN_POINT ( 'NONE',  ( 0.0000000000000000000, 6.099999999999997900, 0.0000000000000000000 ) ) ;
#49 = DIRECTION ( 'NONE',  ( 0.0000000000000000000, 0.0000000000000000000, -1.000000000000000000 ) ) ;
#50 = CARTESIAN_POINT ( 'NONE',  ( 0.0000000000000000000, 32.46789213277022400, 0.0000000000000000000 ) ) ;
#51 = DATE_AND_TIME ( #251, #222 ) ;
#52 = DIRECTION ( 'NONE',  ( 0.0000000000000000000, 0.0000000000000000000, -1.000000000000000000 ) ) ;
#53 = DIRECTION ( 'NONE',  ( 0.0000000000000000000, 0.0000000000000000000, -1.000000000000000000 ) ) ;
#54 = CARTESIAN_POINT ( 'NONE',  ( 0.0000000000000000000, 3.692902992893909900, 0.0000000000000000000 ) ) ;
#55 = DIRECTION ( 'NONE',  ( 0.0000000000000000000, 0.0000000000000000000, -1.000000000000000000 ) ) ;
#56 = CARTESIAN_POINT ( 'NONE',  ( 0.0000000000000000000, 3.692902992893909900, 0.0000000000000000000 ) ) ;
#57 = SECURITY_CLASSIFICATION_LEVEL ( 'unclassified' ) ;
#58 = DIRECTION ( 'NONE',  ( 0.0000000000000000000, 0.0000000000000000000, 1.000000000000000000 ) ) ;
#59 = PERSON_AND_ORGANIZATION ( #4, #302 ) ;
#60 = SHAPE_DEFINITION_REPRESENTATION ( #309, #5 ) ;
#61 = DIRECTION ( 'NONE',  ( -0.0000000000000000000, -1.000000000000000000, -0.0000000000000000000 ) ) ;
#62 = DIRECTION ( 'NONE',  ( 0.0000000000000000000, 0.0000000000000000000, -1.000000000000000000 ) ) ;
#63 = DATE_AND_TIME ( #287, #215 ) ;
#64 =( NAMED_UNIT ( * ) SI_UNIT ( $, .STERADIAN. ) SOLID_ANGLE_UNIT ( ) );
#65 = CARTESIAN_POINT ( 'NONE',  ( 0.0000000000000000000, 3.692902992893909900, 0.0000000000000000000 ) ) ;
#66 = PLANE ( 'NONE',  #272 ) ;
#67 = PERSON_AND_ORGANIZATION ( #4, #302 ) ;
#68 = DIRECTION ( 'NONE',  ( -0.0000000000000000000, -1.000000000000000000, -0.0000000000000000000 ) ) ;
#69 = DIRECTION ( 'NONE',  ( 1.000000000000000000, 0.0000000000000000000, 0.0000000000000000000 ) ) ;
#70 = DATE_AND_TIME ( #275, #212 ) ;
#71 = MECHANICAL_CONTEXT ( 'NONE', #2, 'mechanical' ) ;
#72 = APPROVAL_DATE_TIME ( #70, #213 ) ;
#73 = PERSON_AND_ORGANIZATION ( #4, #302 ) ;
#74 = LINE ( 'NONE', #89, #270 ) ;
#75 = PERSON_AND_ORGANIZATION_ROLE ( 'creator' ) ;
#76 = DIRECTION ( 'NONE',  ( 0.0000000000000000000, 0.0000000000000000000, -1.000000000000000000 ) ) ;
#77 = CARTESIAN_POINT ( 'NONE',  ( 0.0000000000000000000, 32.46789213277022400, 0.0000000000000000000 ) ) ;
#78 = PERSON_AND_ORGANIZATION ( #4, #302 ) ;
#79 = CARTESIAN_POINT ( 'NONE',  ( 0.0000000000000000000, 6.099999999999997900, 0.0000000000000000000 ) ) ;
#80 = DIRECTION ( 'NONE',  ( -0.0000000000000000000, -1.000000000000000000, -0.0000000000000000000 ) ) ;
#81 = DIRECTION ( 'NONE',  ( -0.0000000000000000000, -1.000000000000000000, -0.0000000000000000000 ) ) ;
#82 = DIRECTION ( 'NONE',  ( -0.0000000000000000000, -1.000000000000000000, -0.0000000000000000000 ) ) ;
#83 = APPROVAL_ROLE ( '' ) ;
#84 = CARTESIAN_POINT ( 'NONE',  ( 0.0000000000000000000, 1.299999999999998300, 0.0000000000000000000 ) ) ;
#85 = DIRECTION ( 'NONE',  ( 0.0000000000000000000, 0.0000000000000000000, -1.000000000000000000 ) ) ;
#86 = CARTESIAN_POINT ( 'NONE',  ( 0.0000000000000000000, 0.0000000000000000000, 0.0000000000000000000 ) ) ;
#87 = DIRECTION ( 'NONE',  ( -0.0000000000000000000, -1.000000000000000000, -0.0000000000000000000 ) ) ;
#88 = DIRECTION ( 'NONE',  ( 0.0000000000000000000, 0.0000000000000000000, -1.000000000000000000 ) ) ;
#89 = CARTESIAN_POINT ( 'NONE',  ( 1.714505518806294800E-015, 0.0000000000000000000, 14.00000000000000400 ) ) ;
#90 = PERSON_AND_ORGANIZATION ( #4, #302 ) ;
#91 = DIRECTION ( 'NONE',  ( -0.0000000000000000000, -1.000000000000000000, -0.0000000000000000000 ) ) ;
#92 = DIRECTION ( 'NONE',  ( -0.0000000000000000000, -1.000000000000000000, -0.0000000000000000000 ) ) ;
#93 = CARTESIAN_POINT ( 'NONE',  ( 0.0000000000000000000, 1.299999999999998300, 0.0000000000000000000 ) ) ;
#94 =( NAMED_UNIT ( * ) PLANE_ANGLE_UNIT ( ) SI_UNIT ( $, .RADIAN. ) );
#95 = PERSON_AND_ORGANIZATION_ROLE ( 'creator' ) ;
#96 = LINE ( 'NONE', #35, #265 ) ;
#97 = DIRECTION ( 'NONE',  ( 0.0000000000000000000, 0.0000000000000000000, -1.000000000000000000 ) ) ;
#98 = DIRECTION ( 'NONE',  ( 0.0000000000000000000, 0.0000000000000000000, -1.000000000000000000 ) ) ;
#99 = APPROVAL_STATUS ( 'not_yet_approved' ) ;
#100 = CARTESIAN_POINT ( 'NONE',  ( 0.0000000000000000000, 0.0000000000000000000, 0.0000000000000000000 ) ) ;
#101 = DIRECTION ( 'NONE',  ( -0.0000000000000000000, -1.000000000000000000, -0.0000000000000000000 ) ) ;
#102 = CARTESIAN_POINT ( 'NONE',  ( 7.250000000000000000, 6.099999999999997900, 0.0000000000000000000 ) ) ;
#103 = PERSON_AND_ORGANIZATION ( #4, #302 ) ;
#104 = EDGE_LOOP ( 'NONE', ( #116, #185 ) ) ;
#105 = ORIENTED_EDGE ( 'NONE', *, *, #223, .F. ) ;
#106 = ORIENTED_EDGE ( 'NONE', *, *, #197, .T. ) ;
#107 = VERTEX_POINT ( 'NONE', #117 ) ;
#108 = CARTESIAN_POINT ( 'NONE',  ( 0.0000000000000000000, 0.0000000000000000000, 0.0000000000000000000 ) ) ;
#109 = ORIENTED_EDGE ( 'NONE', *, *, #238, .T. ) ;
#110 = ORIENTED_EDGE ( 'NONE', *, *, #197, .F. ) ;
#111 = ORIENTED_EDGE ( 'NONE', *, *, #229, .F. ) ;
#112 = CARTESIAN_POINT ( 'NONE',  ( 14.00000000000000700, 3.692902992893910300, 0.0000000000000000000 ) ) ;
#113 = ORIENTED_EDGE ( 'NONE', *, *, #186, .T. ) ;
#114 = EDGE_LOOP ( 'NONE', ( #111, #139, #152, #106, #148 ) ) ;
#115 = CARTESIAN_POINT ( 'NONE',  ( -7.249999999999999100, 1.299999999999998300, 1.301187224094062500E-015 ) ) ;
#116 = ORIENTED_EDGE ( 'NONE', *, *, #230, .F. ) ;
#117 = CARTESIAN_POINT ( 'NONE',  ( 8.878689293818312000E-016, 6.099999999999997900, 7.250000000000000900 ) ) ;
#118 = ORIENTED_EDGE ( 'NONE', *, *, #193, .T. ) ;
#119 = ORIENTED_EDGE ( 'NONE', *, *, #187, .F. ) ;
#120 = VERTEX_POINT ( 'NONE', #160 ) ;
#121 = EDGE_LOOP ( 'NONE', ( #175, #161 ) ) ;
#122 = ORIENTED_EDGE ( 'NONE', *, *, #196, .T. ) ;
#123 = ORIENTED_EDGE ( 'NONE', *, *, #205, .T. ) ;
#124 = DIRECTION ( 'NONE',  ( 0.0000000000000000000, 0.0000000000000000000, -1.000000000000000000 ) ) ;
#125 = DIRECTION ( 'NONE',  ( 0.0000000000000000000, 0.0000000000000000000, -1.000000000000000000 ) ) ;
#126 = VERTEX_POINT ( 'NONE', #153 ) ;
#127 = VERTEX_POINT ( 'NONE', #177 ) ;
#128 = CARTESIAN_POINT ( 'NONE',  ( -14.00000000000000700, 3.692902992893910300, 1.714505518806295200E-015 ) ) ;
#129 = ORIENTED_EDGE ( 'NONE', *, *, #230, .T. ) ;
#130 = EDGE_LOOP ( 'NONE', ( #167, #170, #122, #162, #150 ) ) ;
#131 = CARTESIAN_POINT ( 'NONE',  ( 0.0000000000000000000, 1.299999999999998300, 0.0000000000000000000 ) ) ;
#132 = VERTEX_POINT ( 'NONE', #182 ) ;
#133 = VERTEX_POINT ( 'NONE', #115 ) ;
#134 = CARTESIAN_POINT ( 'NONE',  ( 1.714505518806295200E-015, 3.692902992893909900, 14.00000000000000700 ) ) ;
#135 = ORIENTED_EDGE ( 'NONE', *, *, #196, .F. ) ;
#136 = CARTESIAN_POINT ( 'NONE',  ( 0.0000000000000000000, 6.099999999999997900, 0.0000000000000000000 ) ) ;
#137 = VERTEX_POINT ( 'NONE', #134 ) ;
#138 = ORIENTED_EDGE ( 'NONE', *, *, #193, .F. ) ;
#139 = ORIENTED_EDGE ( 'NONE', *, *, #202, .T. ) ;
#140 = DIRECTION ( 'NONE',  ( -0.0000000000000000000, -1.000000000000000000, -0.0000000000000000000 ) ) ;
#141 = EDGE_LOOP ( 'NONE', ( #172, #109, #113, #173, #154, #110 ) ) ;
#142 = CARTESIAN_POINT ( 'NONE',  ( 7.249999999999999100, 1.299999999999998300, 0.0000000000000000000 ) ) ;
#143 = ORIENTED_EDGE ( 'NONE', *, *, #203, .F. ) ;
#144 = DIRECTION ( 'NONE',  ( -0.0000000000000000000, -1.000000000000000000, -0.0000000000000000000 ) ) ;
#145 = DIRECTION ( 'NONE',  ( 0.0000000000000000000, 0.0000000000000000000, -1.000000000000000000 ) ) ;
#146 = DIRECTION ( 'NONE',  ( -0.0000000000000000000, -1.000000000000000000, -0.0000000000000000000 ) ) ;
#147 = EDGE_LOOP ( 'NONE', ( #129, #157, #143, #179, #135 ) ) ;
#148 = ORIENTED_EDGE ( 'NONE', *, *, #226, .F. ) ;
#149 = CARTESIAN_POINT ( 'NONE',  ( 0.0000000000000000000, 32.46789213277022400, 0.0000000000000000000 ) ) ;
#150 = ORIENTED_EDGE ( 'NONE', *, *, #205, .F. ) ;
#151 = ORIENTED_EDGE ( 'NONE', *, *, #189, .T. ) ;
#152 = ORIENTED_EDGE ( 'NONE', *, *, #201, .T. ) ;
#153 = CARTESIAN_POINT ( 'NONE',  ( 0.0000000000000000000, 3.692902992893909900, -14.00000000000000500 ) ) ;
#154 = ORIENTED_EDGE ( 'NONE', *, *, #189, .F. ) ;
#155 = EDGE_LOOP ( 'NONE', ( #164, #105, #184, #151, #118 ) ) ;
#156 = CARTESIAN_POINT ( 'NONE',  ( 8.878689293818310100E-016, 1.299999999999998300, 7.249999999999999100 ) ) ;
#157 = ORIENTED_EDGE ( 'NONE', *, *, #206, .T. ) ;
#158 = ORIENTED_EDGE ( 'NONE', *, *, #203, .T. ) ;
#159 = ORIENTED_EDGE ( 'NONE', *, *, #201, .F. ) ;
#160 = CARTESIAN_POINT ( 'NONE',  ( 0.0000000000000000000, 6.099999999999997900, -14.00000000000000400 ) ) ;
#161 = ORIENTED_EDGE ( 'NONE', *, *, #229, .T. ) ;
#162 = ORIENTED_EDGE ( 'NONE', *, *, #238, .F. ) ;
#163 = DIRECTION ( 'NONE',  ( -0.0000000000000000000, -1.000000000000000000, -0.0000000000000000000 ) ) ;
#164 = ORIENTED_EDGE ( 'NONE', *, *, #202, .F. ) ;
#165 = VERTEX_POINT ( 'NONE', #128 ) ;
#166 = CARTESIAN_POINT ( 'NONE',  ( 1.714505518806294800E-015, 6.099999999999997900, 14.00000000000000400 ) ) ;
#167 = ORIENTED_EDGE ( 'NONE', *, *, #206, .F. ) ;
#168 = VERTEX_POINT ( 'NONE', #166 ) ;
#169 = CARTESIAN_POINT ( 'NONE',  ( 0.0000000000000000000, 3.692902992893909900, 0.0000000000000000000 ) ) ;
#170 = ORIENTED_EDGE ( 'NONE', *, *, #192, .T. ) ;
#171 = DIRECTION ( 'NONE',  ( -1.000000000000000000, 0.0000000000000000000, 0.0000000000000000000 ) ) ;
#172 = ORIENTED_EDGE ( 'NONE', *, *, #224, .F. ) ;
#173 = ORIENTED_EDGE ( 'NONE', *, *, #187, .T. ) ;
#174 = VERTEX_POINT ( 'NONE', #142 ) ;
#175 = ORIENTED_EDGE ( 'NONE', *, *, #223, .T. ) ;
#176 = VERTEX_POINT ( 'NONE', #112 ) ;
#177 = CARTESIAN_POINT ( 'NONE',  ( 0.0000000000000000000, 1.299999999999998300, -7.249999999999999100 ) ) ;
#178 = ORIENTED_EDGE ( 'NONE', *, *, #224, .T. ) ;
#179 = ORIENTED_EDGE ( 'NONE', *, *, #186, .F. ) ;
#180 = EDGE_LOOP ( 'NONE', ( #123, #178, #159, #138, #119, #158 ) ) ;
#181 = DIRECTION ( 'NONE',  ( 0.0000000000000000000, 0.0000000000000000000, -1.000000000000000000 ) ) ;
#182 = CARTESIAN_POINT ( 'NONE',  ( 0.0000000000000000000, 6.099999999999997900, -7.250000000000000000 ) ) ;
#183 = VERTEX_POINT ( 'NONE', #156 ) ;
#184 = ORIENTED_EDGE ( 'NONE', *, *, #226, .T. ) ;
#185 = ORIENTED_EDGE ( 'NONE', *, *, #192, .F. ) ;
#186 = EDGE_CURVE ( 'NONE', #126, #176, #199, .T. ) ;
#187 = EDGE_CURVE ( 'NONE', #176, #174, #190, .T. ) ;
#188 = ADVANCED_FACE ( 'NONE', ( #257 ), #244, .F. ) ;
#189 = EDGE_CURVE ( 'NONE', #127, #174, #228, .T. ) ;
#190 = CIRCLE ( 'NONE', #247, 32.00000000000000000 ) ;
#191 = CIRCLE ( 'NONE', #250, 7.249999999999999100 ) ;
#192 = EDGE_CURVE ( 'NONE', #168, #120, #232, .T. ) ;
#193 = EDGE_CURVE ( 'NONE', #174, #183, #191, .T. ) ;
#194 = PRODUCT_DEFINITION ( 'UNKNOWN', '', #273, #310 ) ;
#195 = CC_DESIGN_PERSON_AND_ORGANIZATION_ASSIGNMENT ( #9, #37, ( #304 ) ) ;
#196 = EDGE_CURVE ( 'NONE', #120, #126, #96, .T. ) ;
#197 = EDGE_CURVE ( 'NONE', #133, #127, #198, .T. ) ;
#198 = CIRCLE ( 'NONE', #243, 7.249999999999999100 ) ;
#199 = CIRCLE ( 'NONE', #262, 14.00000000000000500 ) ;
#200 = CIRCLE ( 'NONE', #278, 14.00000000000000500 ) ;
#201 = EDGE_CURVE ( 'NONE', #183, #133, #221, .T. ) ;
#202 = EDGE_CURVE ( 'NONE', #107, #183, #34, .T. ) ;
#203 = EDGE_CURVE ( 'NONE', #176, #137, #227, .T. ) ;
#204 = ADVANCED_FACE ( 'NONE', ( #266 ), #291, .F. ) ;
#205 = EDGE_CURVE ( 'NONE', #137, #165, #241, .T. ) ;
#206 = EDGE_CURVE ( 'NONE', #168, #137, #74, .T. ) ;
#207 = CC_DESIGN_PERSON_AND_ORGANIZATION_ASSIGNMENT ( #103, #95, ( #273 ) ) ;
#208 = CC_DESIGN_DATE_AND_TIME_ASSIGNMENT ( #51, #39, ( #283 ) ) ;
#209 = CC_DESIGN_PERSON_AND_ORGANIZATION_ASSIGNMENT ( #73, #20, ( #273 ) ) ;
#210 = PRODUCT_RELATED_PRODUCT_CATEGORY ( 'detail', '', ( #304 ) ) ;
#211 = LOCAL_TIME ( 14, 2, 12.00000000000000000, #295 ) ;
#212 = LOCAL_TIME ( 14, 2, 12.00000000000000000, #261 ) ;
#213 = APPROVAL ( #99, 'UNSPECIFIED' ) ;
#214 = APPROVAL ( #19, 'UNSPECIFIED' ) ;
#215 = LOCAL_TIME ( 14, 2, 12.00000000000000000, #252 ) ;
#216 = CC_DESIGN_PERSON_AND_ORGANIZATION_ASSIGNMENT ( #59, #75, ( #194 ) ) ;
#217 = LOCAL_TIME ( 14, 2, 12.00000000000000000, #282 ) ;
#218 = CC_DESIGN_DATE_AND_TIME_ASSIGNMENT ( #47, #46, ( #194 ) ) ;
#219 = APPROVAL ( #306, 'UNSPECIFIED' ) ;
#220 = ADVANCED_FACE ( 'NONE', ( #298 ), #285, .T. ) ;
#221 = CIRCLE ( 'NONE', #246, 7.249999999999999100 ) ;
#222 = LOCAL_TIME ( 14, 2, 12.00000000000000000, #289 ) ;
#223 = EDGE_CURVE ( 'NONE', #132, #107, #240, .T. ) ;
#224 = EDGE_CURVE ( 'NONE', #165, #133, #233, .T. ) ;
#225 = ADVANCED_FACE ( 'NONE', ( #288 ), #296, .T. ) ;
#226 = EDGE_CURVE ( 'NONE', #132, #127, #29, .T. ) ;
#227 = CIRCLE ( 'NONE', #248, 14.00000000000000500 ) ;
#228 = CIRCLE ( 'NONE', #249, 7.249999999999999100 ) ;
#229 = EDGE_CURVE ( 'NONE', #107, #132, #239, .T. ) ;
#230 = EDGE_CURVE ( 'NONE', #120, #168, #237, .T. ) ;
#231 = CC_DESIGN_PERSON_AND_ORGANIZATION_ASSIGNMENT ( #78, #44, ( #283 ) ) ;
#232 = CIRCLE ( 'NONE', #260, 14.00000000000000400 ) ;
#233 = CIRCLE ( 'NONE', #277, 32.00000000000000000 ) ;
#234 = ADVANCED_FACE ( 'NONE', ( #284 ), #297, .T. ) ;
#235 = ADVANCED_FACE ( 'NONE', ( #303, #293 ), #66, .T. ) ;
#236 = ADVANCED_FACE ( 'NONE', ( #276 ), #256, .T. ) ;
#237 = CIRCLE ( 'NONE', #279, 14.00000000000000400 ) ;
#238 = EDGE_CURVE ( 'NONE', #165, #126, #200, .T. ) ;
#239 = CIRCLE ( 'NONE', #299, 7.250000000000000000 ) ;
#240 = CIRCLE ( 'NONE', #263, 7.250000000000000000 ) ;
#241 = CIRCLE ( 'NONE', #300, 14.00000000000000500 ) ;
#242 =( GEOMETRIC_REPRESENTATION_CONTEXT ( 3 ) GLOBAL_UNCERTAINTY_ASSIGNED_CONTEXT ( ( #3 ) ) GLOBAL_UNIT_ASSIGNED_CONTEXT ( ( #32, #94, #64 ) ) REPRESENTATION_CONTEXT ( 'NONE', 'WORKASPACE' ) );
#243 = AXIS2_PLACEMENT_3D ( 'NONE', #84, #92, #41 ) ;
#244 = CYLINDRICAL_SURFACE ( 'NONE', #271, 7.249999999999999100 ) ;
#245 = CLOSED_SHELL ( 'NONE', ( #220, #204, #234, #225, #235, #188, #236 ) ) ;
#246 = AXIS2_PLACEMENT_3D ( 'NONE', #24, #30, #53 ) ;
#247 = AXIS2_PLACEMENT_3D ( 'NONE', #149, #125, #171 ) ;
#248 = AXIS2_PLACEMENT_3D ( 'NONE', #65, #10, #49 ) ;
#249 = AXIS2_PLACEMENT_3D ( 'NONE', #131, #146, #181 ) ;
#250 = AXIS2_PLACEMENT_3D ( 'NONE', #93, #87, #97 ) ;
#251 = CALENDAR_DATE ( 2012, 30, 3 ) ;
#252 = COORDINATED_UNIVERSAL_TIME_OFFSET ( 5, 0, .BEHIND. ) ;
#253 = AXIS2_PLACEMENT_3D ( 'NONE', #15, #101, #62 ) ;
#254 = CC_DESIGN_APPROVAL ( #219, ( #283 ) ) ;
#255 = CALENDAR_DATE ( 2012, 30, 3 ) ;
#256 = SPHERICAL_SURFACE ( 'NONE', #286, 32.00000000000000000 ) ;
#257 = FACE_OUTER_BOUND ( 'NONE', #155, .T. ) ;
#258 = AXIS2_PLACEMENT_3D ( 'NONE', #86, #68, #85 ) ;
#259 = VECTOR ( 'NONE', #61, 1000.000000000000000 ) ;
#260 = AXIS2_PLACEMENT_3D ( 'NONE', #136, #144, #55 ) ;
#261 = COORDINATED_UNIVERSAL_TIME_OFFSET ( 5, 0, .BEHIND. ) ;
#262 = AXIS2_PLACEMENT_3D ( 'NONE', #169, #163, #124 ) ;
#263 = AXIS2_PLACEMENT_3D ( 'NONE', #79, #36, #88 ) ;
#264 = CC_DESIGN_SECURITY_CLASSIFICATION ( #283, ( #273 ) ) ;
#265 = VECTOR ( 'NONE', #91, 1000.000000000000000 ) ;
#266 = FACE_OUTER_BOUND ( 'NONE', #114, .T. ) ;
#267 = VECTOR ( 'NONE', #81, 1000.000000000000000 ) ;
#268 = AXIS2_PLACEMENT_3D ( 'NONE', #27, #28, #69 ) ;
#269 = APPROVAL_PERSON_ORGANIZATION ( #17, #213, #83 ) ;
#270 = VECTOR ( 'NONE', #6, 1000.000000000000000 ) ;
#271 = AXIS2_PLACEMENT_3D ( 'NONE', #108, #140, #145 ) ;
#272 = AXIS2_PLACEMENT_3D ( 'NONE', #102, #26, #12 ) ;
#273 = PRODUCT_DEFINITION_FORMATION_WITH_SPECIFIED_SOURCE ( 'ANY', '', #304, .NOT_KNOWN. ) ;
#274 = AXIS2_PLACEMENT_3D ( 'NONE', #100, #31, #25 ) ;
#275 = CALENDAR_DATE ( 2012, 30, 3 ) ;
#276 = FACE_OUTER_BOUND ( 'NONE', #141, .T. ) ;
#277 = AXIS2_PLACEMENT_3D ( 'NONE', #16, #43, #22 ) ;
#278 = AXIS2_PLACEMENT_3D ( 'NONE', #54, #7, #98 ) ;
#279 = AXIS2_PLACEMENT_3D ( 'NONE', #48, #23, #76 ) ;
#280 = APPROVAL_PERSON_ORGANIZATION ( #67, #214, #33 ) ;
#281 = APPROVAL_PERSON_ORGANIZATION ( #90, #219, #308 ) ;
#282 = COORDINATED_UNIVERSAL_TIME_OFFSET ( 5, 0, .BEHIND. ) ;
#283 = SECURITY_CLASSIFICATION ( '', '', #57 ) ;
#284 = FACE_OUTER_BOUND ( 'NONE', #147, .T. ) ;
#285 = SPHERICAL_SURFACE ( 'NONE', #301, 32.00000000000000000 ) ;
#286 = AXIS2_PLACEMENT_3D ( 'NONE', #77, #58, #14 ) ;
#287 = CALENDAR_DATE ( 2012, 30, 3 ) ;
#288 = FACE_OUTER_BOUND ( 'NONE', #130, .T. ) ;
#289 = COORDINATED_UNIVERSAL_TIME_OFFSET ( 5, 0, .BEHIND. ) ;
#290 = CALENDAR_DATE ( 2012, 30, 3 ) ;
#291 = CYLINDRICAL_SURFACE ( 'NONE', #253, 7.249999999999999100 ) ;
#292 = CC_DESIGN_APPROVAL ( #213, ( #273 ) ) ;
#293 = FACE_OUTER_BOUND ( 'NONE', #104, .T. ) ;
#294 = CC_DESIGN_APPROVAL ( #214, ( #194 ) ) ;
#295 = COORDINATED_UNIVERSAL_TIME_OFFSET ( 5, 0, .BEHIND. ) ;
#296 = CYLINDRICAL_SURFACE ( 'NONE', #274, 14.00000000000000400 ) ;
#297 = CYLINDRICAL_SURFACE ( 'NONE', #258, 14.00000000000000400 ) ;
#298 = FACE_OUTER_BOUND ( 'NONE', #180, .T. ) ;
#299 = AXIS2_PLACEMENT_3D ( 'NONE', #21, #80, #8 ) ;
#300 = AXIS2_PLACEMENT_3D ( 'NONE', #56, #82, #52 ) ;
#301 = AXIS2_PLACEMENT_3D ( 'NONE', #50, #18, #45 ) ;
#302 = ORGANIZATION ( 'UNSPECIFIED', 'UNSPECIFIED', '' ) ;
#303 = FACE_BOUND ( 'NONE', #121, .T. ) ;
#304 = PRODUCT ( 'WDS-401-204M', 'WDS-401-204M', '', ( #71 ) ) ;
#305 = DATE_AND_TIME ( #290, #211 ) ;
#306 = APPROVAL_STATUS ( 'not_yet_approved' ) ;
#307 = APPROVAL_DATE_TIME ( #305, #219 ) ;
#308 = APPROVAL_ROLE ( '' ) ;
#309 = PRODUCT_DEFINITION_SHAPE ( 'NONE', 'NONE',  #194 ) ;
#310 = DESIGN_CONTEXT ( 'detailed design', #1, 'design' ) ;
#311 = MANIFOLD_SOLID_BREP ( 'Cut-Revolve2', #245 ) ;
ENDSEC;
END-ISO-10303-21;
