ISO-10303-21;
HEADER;
FILE_DESCRIPTION (( 'STEP AP203' ),
    '1' );
FILE_NAME ('WDS-401-202M.step',
    '2012-03-30T18:01:07',
    ( 'sysAdmin' ),
    ( 'SolidWorks' ),
    'SwSTEP 2.0',
    'SolidWorks 2012',
    '' );
FILE_SCHEMA (( 'CONFIG_CONTROL_DESIGN' ));
ENDSEC;

DATA;
#1 = VECTOR ( 'NONE', #115, 1000.000000000000000 ) ;
#2 = AXIS2_PLACEMENT_3D ( 'NONE', #118, #114, #201 ) ;
#3 = FACE_OUTER_BOUND ( 'NONE', #193, .T. ) ;
#4 = CYLINDRICAL_SURFACE ( 'NONE', #13, 4.999999999999999100 ) ;
#5 = FACE_OUTER_BOUND ( 'NONE', #162, .T. ) ;
#6 = AXIS2_PLACEMENT_3D ( 'NONE', #116, #200, #198 ) ;
#7 = VECTOR ( 'NONE', #147, 1000.000000000000000 ) ;
#8 = AXIS2_PLACEMENT_3D ( 'NONE', #142, #140, #141 ) ;
#9 = CYLINDRICAL_SURFACE ( 'NONE', #10, 4.999999999999999100 ) ;
#10 = AXIS2_PLACEMENT_3D ( 'NONE', #159, #145, #146 ) ;
#11 = AXIS2_PLACEMENT_3D ( 'NONE', #143, #138, #137 ) ;
#12 = SPHERICAL_SURFACE ( 'NONE', #6, 18.99999999999999600 ) ;
#13 = AXIS2_PLACEMENT_3D ( 'NONE', #136, #134, #135 ) ;
#14 = AXIS2_PLACEMENT_3D ( 'NONE', #132, #131, #133 ) ;
#15 = AXIS2_PLACEMENT_3D ( 'NONE', #123, #120, #121 ) ;
#16 = VECTOR ( 'NONE', #122, 1000.000000000000000 ) ;
#17 = AXIS2_PLACEMENT_3D ( 'NONE', #202, #203, #204 ) ;
#18 = AXIS2_PLACEMENT_3D ( 'NONE', #205, #206, #207 ) ;
#19 = AXIS2_PLACEMENT_3D ( 'NONE', #129, #127, #126 ) ;
#20 = CYLINDRICAL_SURFACE ( 'NONE', #19, 9.500000000000001800 ) ;
#21 = CYLINDRICAL_SURFACE ( 'NONE', #17, 9.500000000000001800 ) ;
#22 = FACE_OUTER_BOUND ( 'NONE', #178, .T. ) ;
#23 = AXIS2_PLACEMENT_3D ( 'NONE', #139, #130, #128 ) ;
#24 = FACE_OUTER_BOUND ( 'NONE', #172, .T. ) ;
#25 = EDGE_CURVE ( 'NONE', #192, #165, #35, .T. ) ;
#26 = EDGE_CURVE ( 'NONE', #164, #169, #47, .T. ) ;
#27 = ADVANCED_FACE ( 'NONE', ( #88 ), #86, .T. ) ;
#28 = CIRCLE ( 'NONE', #289, 9.500000000000001800 ) ;
#29 = CIRCLE ( 'NONE', #288, 9.500000000000001800 ) ;
#30 = EDGE_CURVE ( 'NONE', #164, #180, #149, .T. ) ;
#31 = CIRCLE ( 'NONE', #283, 9.500000000000001800 ) ;
#32 = CC_DESIGN_PERSON_AND_ORGANIZATION_ASSIGNMENT ( #251, #252, ( #282 ) ) ;
#33 = ADVANCED_FACE ( 'NONE', ( #84 ), #9, .F. ) ;
#34 = ADVANCED_FACE ( 'NONE', ( #3 ), #12, .T. ) ;
#35 = CIRCLE ( 'NONE', #89, 4.999999999999999100 ) ;
#36 = EDGE_CURVE ( 'NONE', #113, #160, #57, .T. ) ;
#37 = EDGE_CURVE ( 'NONE', #180, #192, #58, .T. ) ;
#38 = ADVANCED_FACE ( 'NONE', ( #5 ), #4, .F. ) ;
#39 = EDGE_CURVE ( 'NONE', #160, #180, #60, .T. ) ;
#40 = EDGE_CURVE ( 'NONE', #176, #188, #61, .T. ) ;
#41 = ADVANCED_FACE ( 'NONE', ( #24 ), #20, .T. ) ;
#42 = EDGE_CURVE ( 'NONE', #169, #165, #124, .T. ) ;
#43 = EDGE_CURVE ( 'NONE', #169, #164, #54, .T. ) ;
#44 = EDGE_CURVE ( 'NONE', #187, #197, #119, .T. ) ;
#45 = EDGE_CURVE ( 'NONE', #113, #176, #62, .T. ) ;
#46 = ADVANCED_FACE ( 'NONE', ( #22 ), #21, .T. ) ;
#47 = CIRCLE ( 'NONE', #85, 5.000000000000000000 ) ;
#48 = EDGE_CURVE ( 'NONE', #165, #160, #52, .T. ) ;
#49 = EDGE_CURVE ( 'NONE', #184, #176, #209, .T. ) ;
#50 = CIRCLE ( 'NONE', #284, 9.500000000000001800 ) ;
#51 = EDGE_CURVE ( 'NONE', #188, #192, #53, .T. ) ;
#52 = CIRCLE ( 'NONE', #18, 4.999999999999999100 ) ;
#53 = CIRCLE ( 'NONE', #285, 18.99999999999999600 ) ;
#54 = CIRCLE ( 'NONE', #15, 5.000000000000000000 ) ;
#55 = EDGE_CURVE ( 'NONE', #188, #197, #50, .T. ) ;
#56 = ADVANCED_FACE ( 'NONE', ( #91, #287 ), #217, .T. ) ;
#57 = CIRCLE ( 'NONE', #8, 18.99999999999999600 ) ;
#58 = CIRCLE ( 'NONE', #11, 4.999999999999999100 ) ;
#59 = EDGE_CURVE ( 'NONE', #197, #113, #28, .T. ) ;
#60 = CIRCLE ( 'NONE', #14, 4.999999999999999100 ) ;
#61 = CIRCLE ( 'NONE', #23, 9.500000000000001800 ) ;
#62 = CIRCLE ( 'NONE', #2, 9.500000000000001800 ) ;
#63 = EDGE_CURVE ( 'NONE', #184, #187, #29, .T. ) ;
#64 = EDGE_CURVE ( 'NONE', #187, #184, #31, .T. ) ;
#65 = PRODUCT_DEFINITION ( 'UNKNOWN', '', #299, #82 ) ;
#66 = APPROVAL ( #255, 'UNSPECIFIED' ) ;
#67 = LOCAL_TIME ( 14, 1, 7.000000000000000000, #294 ) ;
#68 = CC_DESIGN_PERSON_AND_ORGANIZATION_ASSIGNMENT ( #259, #260, ( #65 ) ) ;
#69 = LOCAL_TIME ( 14, 1, 7.000000000000000000, #297 ) ;
#70 = CC_DESIGN_DATE_AND_TIME_ASSIGNMENT ( #261, #262, ( #65 ) ) ;
#71 = APPROVAL ( #264, 'UNSPECIFIED' ) ;
#72 = LOCAL_TIME ( 14, 1, 7.000000000000000000, #301 ) ;
#73 = CC_DESIGN_PERSON_AND_ORGANIZATION_ASSIGNMENT ( #268, #269, ( #299 ) ) ;
#74 = CC_DESIGN_PERSON_AND_ORGANIZATION_ASSIGNMENT ( #270, #271, ( #299 ) ) ;
#75 = CC_DESIGN_PERSON_AND_ORGANIZATION_ASSIGNMENT ( #273, #274, ( #304 ) ) ;
#76 = LOCAL_TIME ( 14, 1, 7.000000000000000000, #305 ) ;
#77 = CC_DESIGN_DATE_AND_TIME_ASSIGNMENT ( #275, #276, ( #304 ) ) ;
#78 = APPROVAL ( #278, 'UNSPECIFIED' ) ;
#79 = LOCAL_TIME ( 14, 1, 7.000000000000000000, #308 ) ;
#80 = PRODUCT_RELATED_PRODUCT_CATEGORY ( 'detail', '', ( #282 ) ) ;
#81 = PRODUCT_DEFINITION_SHAPE ( 'NONE', 'NONE',  #65 ) ;
#82 = DESIGN_CONTEXT ( 'detailed design', #97, 'design' ) ;
#83 = MANIFOLD_SOLID_BREP ( 'Cut-Revolve2', #90 ) ;
#84 = FACE_OUTER_BOUND ( 'NONE', #194, .T. ) ;
#85 = AXIS2_PLACEMENT_3D ( 'NONE', #155, #154, #153 ) ;
#86 = SPHERICAL_SURFACE ( 'NONE', #87, 18.99999999999999600 ) ;
#87 = AXIS2_PLACEMENT_3D ( 'NONE', #152, #151, #150 ) ;
#88 = FACE_OUTER_BOUND ( 'NONE', #199, .T. ) ;
#89 = AXIS2_PLACEMENT_3D ( 'NONE', #189, #182, #156 ) ;
#90 = CLOSED_SHELL ( 'NONE', ( #27, #33, #41, #46, #56, #38, #34 ) ) ;
#91 = FACE_BOUND ( 'NONE', #163, .T. ) ;
#92 = PERSON ( 'UNSPECIFIED', 'UNSPECIFIED', 'UNSPECIFIED', ('UNSPECIFIED'), ('UNSPECIFIED'), ('UNSPECIFIED') ) ;
#93 = UNCERTAINTY_MEASURE_WITH_UNIT (LENGTH_MEASURE( 1.000000000000000100E-005 ), #242, 'distance_accuracy_value', 'NONE');
#94 = ADVANCED_BREP_SHAPE_REPRESENTATION ( 'WDS-401-202M', ( #83, #291 ), #95 ) ;
#95 =( GEOMETRIC_REPRESENTATION_CONTEXT ( 3 ) GLOBAL_UNCERTAINTY_ASSIGNED_CONTEXT ( ( #93 ) ) GLOBAL_UNIT_ASSIGNED_CONTEXT ( ( #242, #243, #244 ) ) REPRESENTATION_CONTEXT ( 'NONE', 'WORKASPACE' ) );
#96 = APPLICATION_CONTEXT ( 'configuration controlled 3d designs of mechanical parts and assemblies' ) ;
#97 = APPLICATION_CONTEXT ( 'configuration controlled 3d designs of mechanical parts and assemblies' ) ;
#98 = ORIENTED_EDGE ( 'NONE', *, *, #37, .T. ) ;
#99 = ORIENTED_EDGE ( 'NONE', *, *, #36, .F. ) ;
#100 = ORIENTED_EDGE ( 'NONE', *, *, #40, .T. ) ;
#101 = ORIENTED_EDGE ( 'NONE', *, *, #26, .F. ) ;
#102 = ORIENTED_EDGE ( 'NONE', *, *, #45, .T. ) ;
#103 = ORIENTED_EDGE ( 'NONE', *, *, #37, .F. ) ;
#104 = ORIENTED_EDGE ( 'NONE', *, *, #39, .F. ) ;
#105 = ORIENTED_EDGE ( 'NONE', *, *, #51, .T. ) ;
#106 = ORIENTED_EDGE ( 'NONE', *, *, #30, .T. ) ;
#107 = ORIENTED_EDGE ( 'NONE', *, *, #64, .T. ) ;
#108 = ORIENTED_EDGE ( 'NONE', *, *, #49, .T. ) ;
#109 = ORIENTED_EDGE ( 'NONE', *, *, #42, .F. ) ;
#110 = ORIENTED_EDGE ( 'NONE', *, *, #25, .T. ) ;
#111 = ORIENTED_EDGE ( 'NONE', *, *, #45, .F. ) ;
#112 = ORIENTED_EDGE ( 'NONE', *, *, #59, .F. ) ;
#113 = VERTEX_POINT ( 'NONE', #230 ) ;
#114 = DIRECTION ( 'NONE',  ( -0.0000000000000000000, -1.000000000000000000, -0.0000000000000000000 ) ) ;
#115 = DIRECTION ( 'NONE',  ( -0.0000000000000000000, -1.000000000000000000, -0.0000000000000000000 ) ) ;
#116 = CARTESIAN_POINT ( 'NONE',  ( 0.0000000000000000000, 18.83030277982335200, 0.0000000000000000000 ) ) ;
#117 = CARTESIAN_POINT ( 'NONE',  ( 0.0000000000000000000, 0.0000000000000000000, -9.500000000000001800 ) ) ;
#118 = CARTESIAN_POINT ( 'NONE',  ( 0.0000000000000000000, 2.375820107919022700, 0.0000000000000000000 ) ) ;
#119 = LINE ( 'NONE', #117, #1 ) ;
#120 = DIRECTION ( 'NONE',  ( -0.0000000000000000000, -1.000000000000000000, -0.0000000000000000000 ) ) ;
#121 = DIRECTION ( 'NONE',  ( 0.0000000000000000000, 0.0000000000000000000, -1.000000000000000000 ) ) ;
#122 = DIRECTION ( 'NONE',  ( -0.0000000000000000000, -1.000000000000000000, -0.0000000000000000000 ) ) ;
#123 = CARTESIAN_POINT ( 'NONE',  ( 0.0000000000000000000, 4.499999999999999100, 0.0000000000000000000 ) ) ;
#124 = LINE ( 'NONE', #125, #16 ) ;
#125 = CARTESIAN_POINT ( 'NONE',  ( 0.0000000000000000000, 0.0000000000000000000, -4.999999999999999100 ) ) ;
#126 = DIRECTION ( 'NONE',  ( 0.0000000000000000000, 0.0000000000000000000, -1.000000000000000000 ) ) ;
#127 = DIRECTION ( 'NONE',  ( -0.0000000000000000000, -1.000000000000000000, -0.0000000000000000000 ) ) ;
#128 = DIRECTION ( 'NONE',  ( 0.0000000000000000000, 0.0000000000000000000, -1.000000000000000000 ) ) ;
#129 = CARTESIAN_POINT ( 'NONE',  ( 0.0000000000000000000, 0.0000000000000000000, 0.0000000000000000000 ) ) ;
#130 = DIRECTION ( 'NONE',  ( -0.0000000000000000000, -1.000000000000000000, -0.0000000000000000000 ) ) ;
#131 = DIRECTION ( 'NONE',  ( -0.0000000000000000000, -1.000000000000000000, -0.0000000000000000000 ) ) ;
#132 = CARTESIAN_POINT ( 'NONE',  ( 0.0000000000000000000, 0.4999999999999987200, 0.0000000000000000000 ) ) ;
#133 = DIRECTION ( 'NONE',  ( 0.0000000000000000000, 0.0000000000000000000, -1.000000000000000000 ) ) ;
#134 = DIRECTION ( 'NONE',  ( -0.0000000000000000000, -1.000000000000000000, -0.0000000000000000000 ) ) ;
#135 = DIRECTION ( 'NONE',  ( 0.0000000000000000000, 0.0000000000000000000, -1.000000000000000000 ) ) ;
#136 = CARTESIAN_POINT ( 'NONE',  ( 0.0000000000000000000, 0.0000000000000000000, 0.0000000000000000000 ) ) ;
#137 = DIRECTION ( 'NONE',  ( 0.0000000000000000000, 0.0000000000000000000, -1.000000000000000000 ) ) ;
#138 = DIRECTION ( 'NONE',  ( -0.0000000000000000000, -1.000000000000000000, -0.0000000000000000000 ) ) ;
#139 = CARTESIAN_POINT ( 'NONE',  ( 0.0000000000000000000, 2.375820107919022700, 0.0000000000000000000 ) ) ;
#140 = DIRECTION ( 'NONE',  ( 0.0000000000000000000, 0.0000000000000000000, -1.000000000000000000 ) ) ;
#141 = DIRECTION ( 'NONE',  ( -1.000000000000000000, 0.0000000000000000000, 0.0000000000000000000 ) ) ;
#142 = CARTESIAN_POINT ( 'NONE',  ( 0.0000000000000000000, 18.83030277982335200, 0.0000000000000000000 ) ) ;
#143 = CARTESIAN_POINT ( 'NONE',  ( 0.0000000000000000000, 0.4999999999999987200, 0.0000000000000000000 ) ) ;
#144 = ORIENTED_EDGE ( 'NONE', *, *, #44, .T. ) ;
#145 = DIRECTION ( 'NONE',  ( -0.0000000000000000000, -1.000000000000000000, -0.0000000000000000000 ) ) ;
#146 = DIRECTION ( 'NONE',  ( 0.0000000000000000000, 0.0000000000000000000, -1.000000000000000000 ) ) ;
#147 = DIRECTION ( 'NONE',  ( -0.0000000000000000000, -1.000000000000000000, -0.0000000000000000000 ) ) ;
#148 = CARTESIAN_POINT ( 'NONE',  ( 6.123233995736765300E-016, 0.0000000000000000000, 4.999999999999999100 ) ) ;
#149 = LINE ( 'NONE', #148, #7 ) ;
#150 = DIRECTION ( 'NONE',  ( 1.000000000000000000, 0.0000000000000000000, 0.0000000000000000000 ) ) ;
#151 = DIRECTION ( 'NONE',  ( 0.0000000000000000000, 0.0000000000000000000, 1.000000000000000000 ) ) ;
#152 = CARTESIAN_POINT ( 'NONE',  ( 0.0000000000000000000, 18.83030277982335200, 0.0000000000000000000 ) ) ;
#153 = DIRECTION ( 'NONE',  ( 0.0000000000000000000, 0.0000000000000000000, -1.000000000000000000 ) ) ;
#154 = DIRECTION ( 'NONE',  ( -0.0000000000000000000, -1.000000000000000000, -0.0000000000000000000 ) ) ;
#155 = CARTESIAN_POINT ( 'NONE',  ( 0.0000000000000000000, 4.499999999999999100, 0.0000000000000000000 ) ) ;
#156 = DIRECTION ( 'NONE',  ( 0.0000000000000000000, 0.0000000000000000000, -1.000000000000000000 ) ) ;
#157 = ORIENTED_EDGE ( 'NONE', *, *, #44, .F. ) ;
#158 = ORIENTED_EDGE ( 'NONE', *, *, #49, .F. ) ;
#159 = CARTESIAN_POINT ( 'NONE',  ( 0.0000000000000000000, 0.0000000000000000000, 0.0000000000000000000 ) ) ;
#160 = VERTEX_POINT ( 'NONE', #231 ) ;
#161 = EDGE_LOOP ( 'NONE', ( #190, #181 ) ) ;
#162 = EDGE_LOOP ( 'NONE', ( #177, #179, #174, #186, #173 ) ) ;
#163 = EDGE_LOOP ( 'NONE', ( #185, #183 ) ) ;
#164 = VERTEX_POINT ( 'NONE', #232 ) ;
#165 = VERTEX_POINT ( 'NONE', #233 ) ;
#166 = ORIENTED_EDGE ( 'NONE', *, *, #25, .F. ) ;
#167 = ORIENTED_EDGE ( 'NONE', *, *, #59, .T. ) ;
#168 = ORIENTED_EDGE ( 'NONE', *, *, #48, .F. ) ;
#169 = VERTEX_POINT ( 'NONE', #234 ) ;
#170 = ORIENTED_EDGE ( 'NONE', *, *, #55, .T. ) ;
#171 = ORIENTED_EDGE ( 'NONE', *, *, #51, .F. ) ;
#172 = EDGE_LOOP ( 'NONE', ( #107, #108, #111, #112, #157 ) ) ;
#173 = ORIENTED_EDGE ( 'NONE', *, *, #39, .T. ) ;
#174 = ORIENTED_EDGE ( 'NONE', *, *, #42, .T. ) ;
#175 = ORIENTED_EDGE ( 'NONE', *, *, #36, .T. ) ;
#176 = VERTEX_POINT ( 'NONE', #235 ) ;
#177 = ORIENTED_EDGE ( 'NONE', *, *, #30, .F. ) ;
#178 = EDGE_LOOP ( 'NONE', ( #158, #195, #144, #196, #191 ) ) ;
#179 = ORIENTED_EDGE ( 'NONE', *, *, #43, .F. ) ;
#180 = VERTEX_POINT ( 'NONE', #236 ) ;
#181 = ORIENTED_EDGE ( 'NONE', *, *, #63, .F. ) ;
#182 = DIRECTION ( 'NONE',  ( -0.0000000000000000000, -1.000000000000000000, -0.0000000000000000000 ) ) ;
#183 = ORIENTED_EDGE ( 'NONE', *, *, #26, .T. ) ;
#184 = VERTEX_POINT ( 'NONE', #237 ) ;
#185 = ORIENTED_EDGE ( 'NONE', *, *, #43, .T. ) ;
#186 = ORIENTED_EDGE ( 'NONE', *, *, #48, .T. ) ;
#187 = VERTEX_POINT ( 'NONE', #238 ) ;
#188 = VERTEX_POINT ( 'NONE', #239 ) ;
#189 = CARTESIAN_POINT ( 'NONE',  ( 0.0000000000000000000, 0.4999999999999987200, 0.0000000000000000000 ) ) ;
#190 = ORIENTED_EDGE ( 'NONE', *, *, #64, .F. ) ;
#191 = ORIENTED_EDGE ( 'NONE', *, *, #40, .F. ) ;
#192 = VERTEX_POINT ( 'NONE', #240 ) ;
#193 = EDGE_LOOP ( 'NONE', ( #171, #170, #167, #175, #168, #166 ) ) ;
#194 = EDGE_LOOP ( 'NONE', ( #101, #106, #98, #110, #109 ) ) ;
#195 = ORIENTED_EDGE ( 'NONE', *, *, #63, .T. ) ;
#196 = ORIENTED_EDGE ( 'NONE', *, *, #55, .F. ) ;
#197 = VERTEX_POINT ( 'NONE', #241 ) ;
#198 = DIRECTION ( 'NONE',  ( 1.000000000000000000, 0.0000000000000000000, 0.0000000000000000000 ) ) ;
#199 = EDGE_LOOP ( 'NONE', ( #100, #105, #103, #104, #99, #102 ) ) ;
#200 = DIRECTION ( 'NONE',  ( 0.0000000000000000000, 0.0000000000000000000, 1.000000000000000000 ) ) ;
#201 = DIRECTION ( 'NONE',  ( 0.0000000000000000000, 0.0000000000000000000, -1.000000000000000000 ) ) ;
#202 = CARTESIAN_POINT ( 'NONE',  ( 0.0000000000000000000, 0.0000000000000000000, 0.0000000000000000000 ) ) ;
#203 = DIRECTION ( 'NONE',  ( -0.0000000000000000000, -1.000000000000000000, -0.0000000000000000000 ) ) ;
#204 = DIRECTION ( 'NONE',  ( 0.0000000000000000000, 0.0000000000000000000, -1.000000000000000000 ) ) ;
#205 = CARTESIAN_POINT ( 'NONE',  ( 0.0000000000000000000, 0.4999999999999987200, 0.0000000000000000000 ) ) ;
#206 = DIRECTION ( 'NONE',  ( -0.0000000000000000000, -1.000000000000000000, -0.0000000000000000000 ) ) ;
#207 = DIRECTION ( 'NONE',  ( 0.0000000000000000000, 0.0000000000000000000, -1.000000000000000000 ) ) ;
#208 = CARTESIAN_POINT ( 'NONE',  ( 0.0000000000000000000, 18.83030277982335200, 0.0000000000000000000 ) ) ;
#209 = LINE ( 'NONE', #210, #286 ) ;
#210 = CARTESIAN_POINT ( 'NONE',  ( 1.163414459189985700E-015, 0.0000000000000000000, 9.500000000000001800 ) ) ;
#211 = DIRECTION ( 'NONE',  ( -0.0000000000000000000, -1.000000000000000000, -0.0000000000000000000 ) ) ;
#212 = DIRECTION ( 'NONE',  ( 1.224646799147353200E-016, -0.0000000000000000000, 1.000000000000000000 ) ) ;
#213 = DIRECTION ( 'NONE',  ( 1.000000000000000000, 0.0000000000000000000, -1.224646799147353200E-016 ) ) ;
#214 = CARTESIAN_POINT ( 'NONE',  ( 0.0000000000000000000, 2.375820107919022700, 0.0000000000000000000 ) ) ;
#215 = DIRECTION ( 'NONE',  ( -0.0000000000000000000, -1.000000000000000000, -0.0000000000000000000 ) ) ;
#216 = DIRECTION ( 'NONE',  ( 0.0000000000000000000, 0.0000000000000000000, -1.000000000000000000 ) ) ;
#217 = PLANE ( 'NONE',  #290 ) ;
#218 = CARTESIAN_POINT ( 'NONE',  ( 5.000000000000000000, 4.499999999999999100, 0.0000000000000000000 ) ) ;
#219 = DIRECTION ( 'NONE',  ( 0.0000000000000000000, 1.000000000000000000, 0.0000000000000000000 ) ) ;
#220 = DIRECTION ( 'NONE',  ( 0.0000000000000000000, -0.0000000000000000000, 1.000000000000000000 ) ) ;
#221 = CARTESIAN_POINT ( 'NONE',  ( 0.0000000000000000000, 2.375820107919022700, 0.0000000000000000000 ) ) ;
#222 = DIRECTION ( 'NONE',  ( -0.0000000000000000000, -1.000000000000000000, -0.0000000000000000000 ) ) ;
#223 = DIRECTION ( 'NONE',  ( 0.0000000000000000000, 0.0000000000000000000, -1.000000000000000000 ) ) ;
#224 = CARTESIAN_POINT ( 'NONE',  ( 0.0000000000000000000, 4.499999999999999100, 0.0000000000000000000 ) ) ;
#225 = DIRECTION ( 'NONE',  ( -0.0000000000000000000, -1.000000000000000000, -0.0000000000000000000 ) ) ;
#226 = DIRECTION ( 'NONE',  ( 0.0000000000000000000, 0.0000000000000000000, -1.000000000000000000 ) ) ;
#227 = CARTESIAN_POINT ( 'NONE',  ( 0.0000000000000000000, 4.499999999999999100, 0.0000000000000000000 ) ) ;
#228 = DIRECTION ( 'NONE',  ( -0.0000000000000000000, -1.000000000000000000, -0.0000000000000000000 ) ) ;
#229 = DIRECTION ( 'NONE',  ( 0.0000000000000000000, 0.0000000000000000000, -1.000000000000000000 ) ) ;
#230 = CARTESIAN_POINT ( 'NONE',  ( 9.499999999999998200, 2.375820107919020400, 0.0000000000000000000 ) ) ;
#231 = CARTESIAN_POINT ( 'NONE',  ( 4.999999999999999100, 0.4999999999999987200, 0.0000000000000000000 ) ) ;
#232 = CARTESIAN_POINT ( 'NONE',  ( 6.123233995736766300E-016, 4.499999999999999100, 5.000000000000000000 ) ) ;
#233 = CARTESIAN_POINT ( 'NONE',  ( 0.0000000000000000000, 0.4999999999999987200, -4.999999999999999100 ) ) ;
#234 = CARTESIAN_POINT ( 'NONE',  ( 0.0000000000000000000, 4.499999999999999100, -5.000000000000000000 ) ) ;
#235 = CARTESIAN_POINT ( 'NONE',  ( 1.163414459189985700E-015, 2.375820107919022700, 9.500000000000001800 ) ) ;
#236 = CARTESIAN_POINT ( 'NONE',  ( 6.123233995736765300E-016, 0.4999999999999987200, 4.999999999999999100 ) ) ;
#237 = CARTESIAN_POINT ( 'NONE',  ( 1.163414459189985700E-015, 4.499999999999999100, 9.500000000000001800 ) ) ;
#238 = CARTESIAN_POINT ( 'NONE',  ( 0.0000000000000000000, 4.499999999999999100, -9.500000000000001800 ) ) ;
#239 = CARTESIAN_POINT ( 'NONE',  ( -9.499999999999998200, 2.375820107919020400, 1.163414459189985300E-015 ) ) ;
#240 = CARTESIAN_POINT ( 'NONE',  ( -4.999999999999999100, 0.4999999999999987200, 8.878689293818308100E-016 ) ) ;
#241 = CARTESIAN_POINT ( 'NONE',  ( 0.0000000000000000000, 2.375820107919022700, -9.500000000000001800 ) ) ;
#242 =( LENGTH_UNIT ( ) NAMED_UNIT ( * ) SI_UNIT ( .MILLI., .METRE. ) );
#243 =( NAMED_UNIT ( * ) PLANE_ANGLE_UNIT ( ) SI_UNIT ( $, .RADIAN. ) );
#244 =( NAMED_UNIT ( * ) SI_UNIT ( $, .STERADIAN. ) SOLID_ANGLE_UNIT ( ) );
#245 = SHAPE_DEFINITION_REPRESENTATION ( #81, #94 ) ;
#246 = CARTESIAN_POINT ( 'NONE',  ( 0.0000000000000000000, 0.0000000000000000000, 0.0000000000000000000 ) ) ;
#247 = DIRECTION ( 'NONE',  ( 0.0000000000000000000, 0.0000000000000000000, 1.000000000000000000 ) ) ;
#248 = DIRECTION ( 'NONE',  ( 1.000000000000000000, 0.0000000000000000000, 0.0000000000000000000 ) ) ;
#249 = APPLICATION_PROTOCOL_DEFINITION ( 'international standard', 'config_control_design', 1994, #96 ) ;
#250 = MECHANICAL_CONTEXT ( 'NONE', #96, 'mechanical' ) ;
#251 = PERSON_AND_ORGANIZATION ( #92, #292 ) ;
#252 = PERSON_AND_ORGANIZATION_ROLE ( 'design_owner' ) ;
#253 = APPLICATION_PROTOCOL_DEFINITION ( 'international standard', 'config_control_design', 1994, #97 ) ;
#254 = PERSON_AND_ORGANIZATION ( #92, #292 ) ;
#255 = APPROVAL_STATUS ( 'not_yet_approved' ) ;
#256 = APPROVAL_ROLE ( '' ) ;
#257 = DATE_AND_TIME ( #295, #67 ) ;
#258 = APPROVAL_DATE_TIME ( #257, #66 ) ;
#259 = PERSON_AND_ORGANIZATION ( #92, #292 ) ;
#260 = PERSON_AND_ORGANIZATION_ROLE ( 'creator' ) ;
#261 = DATE_AND_TIME ( #298, #69 ) ;
#262 = DATE_TIME_ROLE ( 'creation_date' ) ;
#263 = PERSON_AND_ORGANIZATION ( #92, #292 ) ;
#264 = APPROVAL_STATUS ( 'not_yet_approved' ) ;
#265 = APPROVAL_ROLE ( '' ) ;
#266 = DATE_AND_TIME ( #302, #72 ) ;
#267 = APPROVAL_DATE_TIME ( #266, #71 ) ;
#268 = PERSON_AND_ORGANIZATION ( #92, #292 ) ;
#269 = PERSON_AND_ORGANIZATION_ROLE ( 'creator' ) ;
#270 = PERSON_AND_ORGANIZATION ( #92, #292 ) ;
#271 = PERSON_AND_ORGANIZATION_ROLE ( 'design_supplier' ) ;
#272 = SECURITY_CLASSIFICATION_LEVEL ( 'unclassified' ) ;
#273 = PERSON_AND_ORGANIZATION ( #92, #292 ) ;
#274 = PERSON_AND_ORGANIZATION_ROLE ( 'classification_officer' ) ;
#275 = DATE_AND_TIME ( #306, #76 ) ;
#276 = DATE_TIME_ROLE ( 'classification_date' ) ;
#277 = PERSON_AND_ORGANIZATION ( #92, #292 ) ;
#278 = APPROVAL_STATUS ( 'not_yet_approved' ) ;
#279 = APPROVAL_ROLE ( '' ) ;
#280 = DATE_AND_TIME ( #309, #79 ) ;
#281 = APPROVAL_DATE_TIME ( #280, #78 ) ;
#282 = PRODUCT ( 'WDS-401-202M', 'WDS-401-202M', '', ( #250 ) ) ;
#283 = AXIS2_PLACEMENT_3D ( 'NONE', #227, #228, #229 ) ;
#284 = AXIS2_PLACEMENT_3D ( 'NONE', #214, #215, #216 ) ;
#285 = AXIS2_PLACEMENT_3D ( 'NONE', #208, #212, #213 ) ;
#286 = VECTOR ( 'NONE', #211, 1000.000000000000000 ) ;
#287 = FACE_OUTER_BOUND ( 'NONE', #161, .T. ) ;
#288 = AXIS2_PLACEMENT_3D ( 'NONE', #224, #225, #226 ) ;
#289 = AXIS2_PLACEMENT_3D ( 'NONE', #221, #222, #223 ) ;
#290 = AXIS2_PLACEMENT_3D ( 'NONE', #218, #219, #220 ) ;
#291 = AXIS2_PLACEMENT_3D ( 'NONE', #246, #247, #248 ) ;
#292 = ORGANIZATION ( 'UNSPECIFIED', 'UNSPECIFIED', '' ) ;
#293 = APPROVAL_PERSON_ORGANIZATION ( #254, #66, #256 ) ;
#294 = COORDINATED_UNIVERSAL_TIME_OFFSET ( 5, 0, .BEHIND. ) ;
#295 = CALENDAR_DATE ( 2012, 30, 3 ) ;
#296 = CC_DESIGN_APPROVAL ( #66, ( #65 ) ) ;
#297 = COORDINATED_UNIVERSAL_TIME_OFFSET ( 5, 0, .BEHIND. ) ;
#298 = CALENDAR_DATE ( 2012, 30, 3 ) ;
#299 = PRODUCT_DEFINITION_FORMATION_WITH_SPECIFIED_SOURCE ( 'ANY', '', #282, .NOT_KNOWN. ) ;
#300 = APPROVAL_PERSON_ORGANIZATION ( #263, #71, #265 ) ;
#301 = COORDINATED_UNIVERSAL_TIME_OFFSET ( 5, 0, .BEHIND. ) ;
#302 = CALENDAR_DATE ( 2012, 30, 3 ) ;
#303 = CC_DESIGN_APPROVAL ( #71, ( #299 ) ) ;
#304 = SECURITY_CLASSIFICATION ( '', '', #272 ) ;
#305 = COORDINATED_UNIVERSAL_TIME_OFFSET ( 5, 0, .BEHIND. ) ;
#306 = CALENDAR_DATE ( 2012, 30, 3 ) ;
#307 = APPROVAL_PERSON_ORGANIZATION ( #277, #78, #279 ) ;
#308 = COORDINATED_UNIVERSAL_TIME_OFFSET ( 5, 0, .BEHIND. ) ;
#309 = CALENDAR_DATE ( 2012, 30, 3 ) ;
#310 = CC_DESIGN_APPROVAL ( #78, ( #304 ) ) ;
#311 = CC_DESIGN_SECURITY_CLASSIFICATION ( #304, ( #299 ) ) ;
ENDSEC;
END-ISO-10303-21;
