ISO-10303-21;
HEADER;
FILE_DESCRIPTION (( 'STEP AP203' ),
    '1' );
FILE_NAME ('WDS-401-2005M.step',
    '2012-03-30T17:59:58',
    ( 'SysAdmin' ),
    ( 'SolidWorks' ),
    'SwSTEP 2.0',
    'SolidWorks 2012',
    '' );
FILE_SCHEMA (( 'CONFIG_CONTROL_DESIGN' ));
ENDSEC;

DATA;
#1 = DIRECTION ( 'NONE',  ( 0.0000000000000000000, 0.0000000000000000000, -1.000000000000000000 ) ) ;
#2 = DIRECTION ( 'NONE',  ( -1.000000000000000000, 0.0000000000000000000, 0.0000000000000000000 ) ) ;
#3 = DIRECTION ( 'NONE',  ( -0.0000000000000000000, -1.000000000000000000, -0.0000000000000000000 ) ) ;
#4 = AXIS2_PLACEMENT_3D ( 'NONE', #5, #1, #2 ) ;
#5 = CARTESIAN_POINT ( 'NONE',  ( 0.0000000000000000000, 13.08719587517410300, 0.0000000000000000000 ) ) ;
#6 = CIRCLE ( 'NONE', #4, 12.99999999999999800 ) ;
#7 = CARTESIAN_POINT ( 'NONE',  ( 0.0000000000000000000, 3.299999999999998900, 0.0000000000000000000 ) ) ;
#8 = CIRCLE ( 'NONE', #9, 3.249999999999999600 ) ;
#9 = AXIS2_PLACEMENT_3D ( 'NONE', #7, #3, #81 ) ;
#10 = CIRCLE ( 'NONE', #107, 3.249999999999999600 ) ;
#11 = CARTESIAN_POINT ( 'NONE',  ( 3.980102097228897200E-016, 3.299999999999998900, 3.249999999999999600 ) ) ;
#12 = CARTESIAN_POINT ( 'NONE',  ( 7.347880794884119700E-016, 3.299999999999998900, 6.000000000000000000 ) ) ;
#13 = CARTESIAN_POINT ( 'NONE',  ( 0.0000000000000000000, 0.4999999999999991700, 0.0000000000000000000 ) ) ;
#14 = DIRECTION ( 'NONE',  ( 1.000000000000000000, 0.0000000000000000000, -1.224646799147353200E-016 ) ) ;
#15 = DIRECTION ( 'NONE',  ( 1.224646799147353200E-016, -0.0000000000000000000, 1.000000000000000000 ) ) ;
#16 = CARTESIAN_POINT ( 'NONE',  ( 0.0000000000000000000, 3.299999999999998900, -6.000000000000000000 ) ) ;
#17 = AXIS2_PLACEMENT_3D ( 'NONE', #20, #15, #14 ) ;
#18 = DIRECTION ( 'NONE',  ( -0.0000000000000000000, -1.000000000000000000, -0.0000000000000000000 ) ) ;
#19 = VECTOR ( 'NONE', #18, 1000.000000000000000 ) ;
#20 = CARTESIAN_POINT ( 'NONE',  ( 0.0000000000000000000, 13.08719587517410300, 0.0000000000000000000 ) ) ;
#21 = AXIS2_PLACEMENT_3D ( 'NONE', #79, #78, #77 ) ;
#22 = CARTESIAN_POINT ( 'NONE',  ( 0.0000000000000000000, 0.0000000000000000000, -3.249999999999999600 ) ) ;
#23 = LINE ( 'NONE', #22, #19 ) ;
#24 = DIRECTION ( 'NONE',  ( -0.0000000000000000000, -1.000000000000000000, -0.0000000000000000000 ) ) ;
#25 = CIRCLE ( 'NONE', #17, 12.99999999999999800 ) ;
#26 = VECTOR ( 'NONE', #24, 1000.000000000000000 ) ;
#27 = CARTESIAN_POINT ( 'NONE',  ( 3.980102097228897200E-016, 0.0000000000000000000, 3.249999999999999600 ) ) ;
#28 = CIRCLE ( 'NONE', #21, 3.249999999999999600 ) ;
#29 = DIRECTION ( 'NONE',  ( 0.0000000000000000000, 0.0000000000000000000, -1.000000000000000000 ) ) ;
#30 = DIRECTION ( 'NONE',  ( -0.0000000000000000000, -1.000000000000000000, -0.0000000000000000000 ) ) ;
#31 = DIRECTION ( 'NONE',  ( 0.0000000000000000000, 1.000000000000000000, 0.0000000000000000000 ) ) ;
#32 = CLOSED_SHELL ( 'NONE', ( #143, #159, #138, #47, #57, #145, #55 ) ) ;
#33 = DIRECTION ( 'NONE',  ( 0.0000000000000000000, 0.0000000000000000000, -1.000000000000000000 ) ) ;
#34 = DIRECTION ( 'NONE',  ( -0.0000000000000000000, -1.000000000000000000, -0.0000000000000000000 ) ) ;
#35 = CARTESIAN_POINT ( 'NONE',  ( 0.0000000000000000000, 0.0000000000000000000, 0.0000000000000000000 ) ) ;
#36 = AXIS2_PLACEMENT_3D ( 'NONE', #125, #124, #123 ) ;
#37 = AXIS2_PLACEMENT_3D ( 'NONE', #121, #31, #115 ) ;
#38 = CIRCLE ( 'NONE', #106, 3.249999999999999600 ) ;
#39 = SPHERICAL_SURFACE ( 'NONE', #42, 12.99999999999999800 ) ;
#40 = EDGE_LOOP ( 'NONE', ( #85, #144, #99, #94, #155, #157 ) ) ;
#41 = CARTESIAN_POINT ( 'NONE',  ( 0.0000000000000000000, 13.08719587517410300, 0.0000000000000000000 ) ) ;
#42 = AXIS2_PLACEMENT_3D ( 'NONE', #41, #119, #118 ) ;
#43 = FACE_OUTER_BOUND ( 'NONE', #59, .T. ) ;
#44 = ORIENTED_EDGE ( 'NONE', *, *, #48, .F. ) ;
#45 = ORIENTED_EDGE ( 'NONE', *, *, #151, .T. ) ;
#46 = ORIENTED_EDGE ( 'NONE', *, *, #164, .T. ) ;
#47 = ADVANCED_FACE ( 'NONE', ( #43 ), #150, .F. ) ;
#48 = EDGE_CURVE ( 'NONE', #64, #91, #126, .T. ) ;
#49 = ORIENTED_EDGE ( 'NONE', *, *, #69, .F. ) ;
#50 = ORIENTED_EDGE ( 'NONE', *, *, #61, .F. ) ;
#51 = ORIENTED_EDGE ( 'NONE', *, *, #92, .T. ) ;
#52 = ORIENTED_EDGE ( 'NONE', *, *, #48, .T. ) ;
#53 = ORIENTED_EDGE ( 'NONE', *, *, #140, .T. ) ;
#54 = EDGE_LOOP ( 'NONE', ( #147, #149, #132, #74, #148 ) ) ;
#55 = ADVANCED_FACE ( 'NONE', ( #142 ), #39, .T. ) ;
#56 = ORIENTED_EDGE ( 'NONE', *, *, #86, .F. ) ;
#57 = ADVANCED_FACE ( 'NONE', ( #127, #122 ), #120, .T. ) ;
#58 = EDGE_CURVE ( 'NONE', #95, #90, #116, .T. ) ;
#59 = EDGE_LOOP ( 'NONE', ( #49, #50, #71, #52, #51 ) ) ;
#60 = EDGE_CURVE ( 'NONE', #153, #64, #38, .T. ) ;
#61 = EDGE_CURVE ( 'NONE', #158, #93, #102, .T. ) ;
#62 = EDGE_LOOP ( 'NONE', ( #68, #53 ) ) ;
#63 = ORIENTED_EDGE ( 'NONE', *, *, #69, .T. ) ;
#64 = VERTEX_POINT ( 'NONE', #101 ) ;
#65 = ORIENTED_EDGE ( 'NONE', *, *, #72, .F. ) ;
#66 = EDGE_LOOP ( 'NONE', ( #73, #75 ) ) ;
#67 = ORIENTED_EDGE ( 'NONE', *, *, #89, .T. ) ;
#68 = ORIENTED_EDGE ( 'NONE', *, *, #61, .T. ) ;
#69 = EDGE_CURVE ( 'NONE', #93, #88, #108, .T. ) ;
#70 = ORIENTED_EDGE ( 'NONE', *, *, #60, .T. ) ;
#71 = ORIENTED_EDGE ( 'NONE', *, *, #72, .T. ) ;
#72 = EDGE_CURVE ( 'NONE', #158, #64, #23, .T. ) ;
#73 = ORIENTED_EDGE ( 'NONE', *, *, #163, .F. ) ;
#74 = ORIENTED_EDGE ( 'NONE', *, *, #151, .F. ) ;
#75 = ORIENTED_EDGE ( 'NONE', *, *, #58, .F. ) ;
#76 = AXIS2_PLACEMENT_3D ( 'NONE', #130, #129, #128 ) ;
#77 = DIRECTION ( 'NONE',  ( 0.0000000000000000000, 0.0000000000000000000, -1.000000000000000000 ) ) ;
#78 = DIRECTION ( 'NONE',  ( -0.0000000000000000000, -1.000000000000000000, -0.0000000000000000000 ) ) ;
#79 = CARTESIAN_POINT ( 'NONE',  ( 0.0000000000000000000, 0.4999999999999991700, 0.0000000000000000000 ) ) ;
#80 = CIRCLE ( 'NONE', #76, 5.999999999999998200 ) ;
#81 = DIRECTION ( 'NONE',  ( 0.0000000000000000000, 0.0000000000000000000, -1.000000000000000000 ) ) ;
#82 = FACE_OUTER_BOUND ( 'NONE', #152, .T. ) ;
#83 = DIRECTION ( 'NONE',  ( 0.0000000000000000000, 0.0000000000000000000, -1.000000000000000000 ) ) ;
#84 = DIRECTION ( 'NONE',  ( -0.0000000000000000000, -1.000000000000000000, -0.0000000000000000000 ) ) ;
#85 = ORIENTED_EDGE ( 'NONE', *, *, #96, .T. ) ;
#86 = EDGE_CURVE ( 'NONE', #135, #153, #25, .T. ) ;
#87 = EDGE_LOOP ( 'NONE', ( #161, #160, #165, #136, #166 ) ) ;
#88 = VERTEX_POINT ( 'NONE', #113 ) ;
#89 = EDGE_CURVE ( 'NONE', #88, #153, #10, .T. ) ;
#90 = VERTEX_POINT ( 'NONE', #16 ) ;
#91 = VERTEX_POINT ( 'NONE', #117 ) ;
#92 = EDGE_CURVE ( 'NONE', #91, #88, #28, .T. ) ;
#93 = VERTEX_POINT ( 'NONE', #11 ) ;
#94 = ORIENTED_EDGE ( 'NONE', *, *, #92, .F. ) ;
#95 = VERTEX_POINT ( 'NONE', #12 ) ;
#96 = EDGE_CURVE ( 'NONE', #97, #135, #80, .T. ) ;
#97 = VERTEX_POINT ( 'NONE', #131 ) ;
#98 = EDGE_CURVE ( 'NONE', #154, #91, #6, .T. ) ;
#99 = ORIENTED_EDGE ( 'NONE', *, *, #89, .F. ) ;
#100 = AXIS2_PLACEMENT_3D ( 'NONE', #114, #30, #29 ) ;
#101 = CARTESIAN_POINT ( 'NONE',  ( 0.0000000000000000000, 0.4999999999999991700, -3.249999999999999600 ) ) ;
#102 = CIRCLE ( 'NONE', #100, 3.249999999999999600 ) ;
#103 = DIRECTION ( 'NONE',  ( 0.0000000000000000000, 0.0000000000000000000, -1.000000000000000000 ) ) ;
#104 = DIRECTION ( 'NONE',  ( -0.0000000000000000000, -1.000000000000000000, -0.0000000000000000000 ) ) ;
#105 = CARTESIAN_POINT ( 'NONE',  ( 0.0000000000000000000, 0.4999999999999991700, 0.0000000000000000000 ) ) ;
#106 = AXIS2_PLACEMENT_3D ( 'NONE', #105, #104, #103 ) ;
#107 = AXIS2_PLACEMENT_3D ( 'NONE', #13, #84, #83 ) ;
#108 = LINE ( 'NONE', #27, #26 ) ;
#109 = DIRECTION ( 'NONE',  ( 0.0000000000000000000, 0.0000000000000000000, -1.000000000000000000 ) ) ;
#110 = DIRECTION ( 'NONE',  ( -0.0000000000000000000, -1.000000000000000000, -0.0000000000000000000 ) ) ;
#111 = CARTESIAN_POINT ( 'NONE',  ( 0.0000000000000000000, 3.299999999999998900, 0.0000000000000000000 ) ) ;
#112 = AXIS2_PLACEMENT_3D ( 'NONE', #111, #110, #109 ) ;
#113 = CARTESIAN_POINT ( 'NONE',  ( 3.980102097228897200E-016, 0.4999999999999991700, 3.249999999999999600 ) ) ;
#114 = CARTESIAN_POINT ( 'NONE',  ( 0.0000000000000000000, 3.299999999999998900, 0.0000000000000000000 ) ) ;
#115 = DIRECTION ( 'NONE',  ( 0.0000000000000000000, -0.0000000000000000000, 1.000000000000000000 ) ) ;
#116 = CIRCLE ( 'NONE', #112, 6.000000000000000000 ) ;
#117 = CARTESIAN_POINT ( 'NONE',  ( 3.249999999999999600, 0.4999999999999991700, 0.0000000000000000000 ) ) ;
#118 = DIRECTION ( 'NONE',  ( 1.000000000000000000, 0.0000000000000000000, 0.0000000000000000000 ) ) ;
#119 = DIRECTION ( 'NONE',  ( 0.0000000000000000000, 0.0000000000000000000, 1.000000000000000000 ) ) ;
#120 = PLANE ( 'NONE',  #37 ) ;
#121 = CARTESIAN_POINT ( 'NONE',  ( 3.249999999999999600, 3.299999999999998900, 0.0000000000000000000 ) ) ;
#122 = FACE_OUTER_BOUND ( 'NONE', #66, .T. ) ;
#123 = DIRECTION ( 'NONE',  ( 0.0000000000000000000, 0.0000000000000000000, -1.000000000000000000 ) ) ;
#124 = DIRECTION ( 'NONE',  ( -0.0000000000000000000, -1.000000000000000000, -0.0000000000000000000 ) ) ;
#125 = CARTESIAN_POINT ( 'NONE',  ( 0.0000000000000000000, 0.4999999999999991700, 0.0000000000000000000 ) ) ;
#126 = CIRCLE ( 'NONE', #36, 3.249999999999999600 ) ;
#127 = FACE_BOUND ( 'NONE', #62, .T. ) ;
#128 = DIRECTION ( 'NONE',  ( 0.0000000000000000000, 0.0000000000000000000, -1.000000000000000000 ) ) ;
#129 = DIRECTION ( 'NONE',  ( -0.0000000000000000000, -1.000000000000000000, -0.0000000000000000000 ) ) ;
#130 = CARTESIAN_POINT ( 'NONE',  ( 0.0000000000000000000, 1.554633280503308700, 0.0000000000000000000 ) ) ;
#131 = CARTESIAN_POINT ( 'NONE',  ( 7.347880794884118800E-016, 1.554633280503308700, 5.999999999999998200 ) ) ;
#132 = ORIENTED_EDGE ( 'NONE', *, *, #137, .T. ) ;
#133 = MANIFOLD_SOLID_BREP ( 'Cut-Revolve2', #32 ) ;
#134 = VERTEX_POINT ( 'NONE', #171 ) ;
#135 = VERTEX_POINT ( 'NONE', #170 ) ;
#136 = ORIENTED_EDGE ( 'NONE', *, *, #164, .F. ) ;
#137 = EDGE_CURVE ( 'NONE', #90, #134, #178, .T. ) ;
#138 = ADVANCED_FACE ( 'NONE', ( #82 ), #175, .F. ) ;
#139 = ORIENTED_EDGE ( 'NONE', *, *, #140, .F. ) ;
#140 = EDGE_CURVE ( 'NONE', #93, #158, #8, .T. ) ;
#141 = AXIS2_PLACEMENT_3D ( 'NONE', #35, #34, #33 ) ;
#142 = FACE_OUTER_BOUND ( 'NONE', #146, .T. ) ;
#143 = ADVANCED_FACE ( 'NONE', ( #180 ), #311, .T. ) ;
#144 = ORIENTED_EDGE ( 'NONE', *, *, #86, .T. ) ;
#145 = ADVANCED_FACE ( 'NONE', ( #309 ), #310, .T. ) ;
#146 = EDGE_LOOP ( 'NONE', ( #56, #45, #46, #167, #44, #168 ) ) ;
#147 = ORIENTED_EDGE ( 'NONE', *, *, #162, .F. ) ;
#148 = ORIENTED_EDGE ( 'NONE', *, *, #96, .F. ) ;
#149 = ORIENTED_EDGE ( 'NONE', *, *, #58, .T. ) ;
#150 = CYLINDRICAL_SURFACE ( 'NONE', #141, 3.249999999999999600 ) ;
#151 = EDGE_CURVE ( 'NONE', #135, #134, #284, .T. ) ;
#152 = EDGE_LOOP ( 'NONE', ( #139, #63, #67, #70, #65 ) ) ;
#153 = VERTEX_POINT ( 'NONE', #285 ) ;
#154 = VERTEX_POINT ( 'NONE', #215 ) ;
#155 = ORIENTED_EDGE ( 'NONE', *, *, #98, .F. ) ;
#156 = EDGE_CURVE ( 'NONE', #154, #97, #278, .T. ) ;
#157 = ORIENTED_EDGE ( 'NONE', *, *, #156, .T. ) ;
#158 = VERTEX_POINT ( 'NONE', #274 ) ;
#159 = ADVANCED_FACE ( 'NONE', ( #279 ), #277, .T. ) ;
#160 = ORIENTED_EDGE ( 'NONE', *, *, #162, .T. ) ;
#161 = ORIENTED_EDGE ( 'NONE', *, *, #163, .T. ) ;
#162 = EDGE_CURVE ( 'NONE', #95, #97, #269, .T. ) ;
#163 = EDGE_CURVE ( 'NONE', #90, #95, #275, .T. ) ;
#164 = EDGE_CURVE ( 'NONE', #134, #154, #256, .T. ) ;
#165 = ORIENTED_EDGE ( 'NONE', *, *, #156, .F. ) ;
#166 = ORIENTED_EDGE ( 'NONE', *, *, #137, .F. ) ;
#167 = ORIENTED_EDGE ( 'NONE', *, *, #98, .T. ) ;
#168 = ORIENTED_EDGE ( 'NONE', *, *, #60, .F. ) ;
#169 = CARTESIAN_POINT ( 'NONE',  ( 0.0000000000000000000, 0.0000000000000000000, -6.000000000000000000 ) ) ;
#170 = CARTESIAN_POINT ( 'NONE',  ( -5.999999999999996400, 1.554633280503308300, 7.347880794884116800E-016 ) ) ;
#171 = CARTESIAN_POINT ( 'NONE',  ( 0.0000000000000000000, 1.554633280503308700, -5.999999999999998200 ) ) ;
#172 = AXIS2_PLACEMENT_3D ( 'NONE', #177, #173, #174 ) ;
#173 = DIRECTION ( 'NONE',  ( -0.0000000000000000000, -1.000000000000000000, -0.0000000000000000000 ) ) ;
#174 = DIRECTION ( 'NONE',  ( 0.0000000000000000000, 0.0000000000000000000, -1.000000000000000000 ) ) ;
#175 = CYLINDRICAL_SURFACE ( 'NONE', #172, 3.249999999999999600 ) ;
#176 = DIRECTION ( 'NONE',  ( -0.0000000000000000000, -1.000000000000000000, -0.0000000000000000000 ) ) ;
#177 = CARTESIAN_POINT ( 'NONE',  ( 0.0000000000000000000, 0.0000000000000000000, 0.0000000000000000000 ) ) ;
#178 = LINE ( 'NONE', #169, #179 ) ;
#179 = VECTOR ( 'NONE', #176, 1000.000000000000000 ) ;
#180 = FACE_OUTER_BOUND ( 'NONE', #40, .T. ) ;
#181 = MECHANICAL_CONTEXT ( 'NONE', #247, 'mechanical' ) ;
#182 = APPLICATION_PROTOCOL_DEFINITION ( 'international standard', 'config_control_design', 1994, #247 ) ;
#183 = CARTESIAN_POINT ( 'NONE',  ( 0.0000000000000000000, 0.0000000000000000000, 0.0000000000000000000 ) ) ;
#184 = DIRECTION ( 'NONE',  ( 0.0000000000000000000, 0.0000000000000000000, 1.000000000000000000 ) ) ;
#185 = CARTESIAN_POINT ( 'NONE',  ( 0.0000000000000000000, 13.08719587517410300, 0.0000000000000000000 ) ) ;
#186 = AXIS2_PLACEMENT_3D ( 'NONE', #185, #217, #216 ) ;
#187 = COORDINATED_UNIVERSAL_TIME_OFFSET ( 5, 0, .BEHIND. ) ;
#188 = CC_DESIGN_PERSON_AND_ORGANIZATION_ASSIGNMENT ( #190, #189, ( #202 ) ) ;
#189 = PERSON_AND_ORGANIZATION_ROLE ( 'creator' ) ;
#190 = PERSON_AND_ORGANIZATION ( #210, #209 ) ;
#191 = CC_DESIGN_APPROVAL ( #199, ( #202 ) ) ;
#192 = APPROVAL_DATE_TIME ( #193, #199 ) ;
#193 = DATE_AND_TIME ( #194, #195 ) ;
#194 = CALENDAR_DATE ( 2012, 30, 3 ) ;
#195 = LOCAL_TIME ( 13, 59, 58.00000000000000000, #196 ) ;
#196 = COORDINATED_UNIVERSAL_TIME_OFFSET ( 5, 0, .BEHIND. ) ;
#197 = APPROVAL_PERSON_ORGANIZATION ( #201, #199, #198 ) ;
#198 = APPROVAL_ROLE ( '' ) ;
#199 = APPROVAL ( #200, 'UNSPECIFIED' ) ;
#200 = APPROVAL_STATUS ( 'not_yet_approved' ) ;
#201 = PERSON_AND_ORGANIZATION ( #210, #209 ) ;
#202 = PRODUCT_DEFINITION ( 'UNKNOWN', '', #302, #203 ) ;
#203 = DESIGN_CONTEXT ( 'detailed design', #205, 'design' ) ;
#204 = APPLICATION_PROTOCOL_DEFINITION ( 'international standard', 'config_control_design', 1994, #205 ) ;
#205 = APPLICATION_CONTEXT ( 'configuration controlled 3d designs of mechanical parts and assemblies' ) ;
#206 = CC_DESIGN_PERSON_AND_ORGANIZATION_ASSIGNMENT ( #208, #207, ( #211 ) ) ;
#207 = PERSON_AND_ORGANIZATION_ROLE ( 'design_owner' ) ;
#208 = PERSON_AND_ORGANIZATION ( #210, #209 ) ;
#209 = ORGANIZATION ( 'UNSPECIFIED', 'UNSPECIFIED', '' ) ;
#210 = PERSON ( 'UNSPECIFIED', 'UNSPECIFIED', 'UNSPECIFIED', ('UNSPECIFIED'), ('UNSPECIFIED'), ('UNSPECIFIED') ) ;
#211 = PRODUCT ( 'WDS-401-2005M', 'WDS-401-2005M', '', ( #181 ) ) ;
#212 = DIRECTION ( 'NONE',  ( -0.0000000000000000000, -1.000000000000000000, -0.0000000000000000000 ) ) ;
#213 = CARTESIAN_POINT ( 'NONE',  ( 0.0000000000000000000, 0.0000000000000000000, 0.0000000000000000000 ) ) ;
#214 = AXIS2_PLACEMENT_3D ( 'NONE', #213, #212, #286 ) ;
#215 = CARTESIAN_POINT ( 'NONE',  ( 5.999999999999996400, 1.554633280503308300, 0.0000000000000000000 ) ) ;
#216 = DIRECTION ( 'NONE',  ( 1.000000000000000000, 0.0000000000000000000, 0.0000000000000000000 ) ) ;
#217 = DIRECTION ( 'NONE',  ( 0.0000000000000000000, 0.0000000000000000000, 1.000000000000000000 ) ) ;
#218 = LOCAL_TIME ( 13, 59, 58.00000000000000000, #219 ) ;
#219 = COORDINATED_UNIVERSAL_TIME_OFFSET ( 5, 0, .BEHIND. ) ;
#220 = APPROVAL_PERSON_ORGANIZATION ( #224, #222, #221 ) ;
#221 = APPROVAL_ROLE ( '' ) ;
#222 = APPROVAL ( #223, 'UNSPECIFIED' ) ;
#223 = APPROVAL_STATUS ( 'not_yet_approved' ) ;
#224 = PERSON_AND_ORGANIZATION ( #210, #209 ) ;
#225 = CC_DESIGN_DATE_AND_TIME_ASSIGNMENT ( #227, #226, ( #234 ) ) ;
#226 = DATE_TIME_ROLE ( 'classification_date' ) ;
#227 = DATE_AND_TIME ( #228, #229 ) ;
#228 = CALENDAR_DATE ( 2012, 30, 3 ) ;
#229 = LOCAL_TIME ( 13, 59, 58.00000000000000000, #230 ) ;
#230 = COORDINATED_UNIVERSAL_TIME_OFFSET ( 5, 0, .BEHIND. ) ;
#231 = CC_DESIGN_PERSON_AND_ORGANIZATION_ASSIGNMENT ( #233, #232, ( #234 ) ) ;
#232 = PERSON_AND_ORGANIZATION_ROLE ( 'classification_officer' ) ;
#233 = PERSON_AND_ORGANIZATION ( #210, #209 ) ;
#234 = SECURITY_CLASSIFICATION ( '', '', #235 ) ;
#235 = SECURITY_CLASSIFICATION_LEVEL ( 'unclassified' ) ;
#236 = CC_DESIGN_PERSON_AND_ORGANIZATION_ASSIGNMENT ( #238, #237, ( #302 ) ) ;
#237 = PERSON_AND_ORGANIZATION_ROLE ( 'design_supplier' ) ;
#238 = PERSON_AND_ORGANIZATION ( #210, #209 ) ;
#239 = CC_DESIGN_PERSON_AND_ORGANIZATION_ASSIGNMENT ( #241, #240, ( #302 ) ) ;
#240 = PERSON_AND_ORGANIZATION_ROLE ( 'creator' ) ;
#241 = PERSON_AND_ORGANIZATION ( #210, #209 ) ;
#242 = CC_DESIGN_APPROVAL ( #299, ( #302 ) ) ;
#243 = APPROVAL_DATE_TIME ( #244, #299 ) ;
#244 = DATE_AND_TIME ( #294, #295 ) ;
#245 = DIRECTION ( 'NONE',  ( 1.000000000000000000, 0.0000000000000000000, 0.0000000000000000000 ) ) ;
#246 = AXIS2_PLACEMENT_3D ( 'NONE', #183, #184, #245 ) ;
#247 = APPLICATION_CONTEXT ( 'configuration controlled 3d designs of mechanical parts and assemblies' ) ;
#248 = ADVANCED_BREP_SHAPE_REPRESENTATION ( 'WDS-401-2005M', ( #133, #246 ), #249 ) ;
#249 =( GEOMETRIC_REPRESENTATION_CONTEXT ( 3 ) GLOBAL_UNCERTAINTY_ASSIGNED_CONTEXT ( ( #250 ) ) GLOBAL_UNIT_ASSIGNED_CONTEXT ( ( #257, #252, #251 ) ) REPRESENTATION_CONTEXT ( 'NONE', 'WORKASPACE' ) );
#250 = UNCERTAINTY_MEASURE_WITH_UNIT (LENGTH_MEASURE( 1.000000000000000100E-005 ), #257, 'distance_accuracy_value', 'NONE');
#251 =( NAMED_UNIT ( * ) SI_UNIT ( $, .STERADIAN. ) SOLID_ANGLE_UNIT ( ) );
#252 =( NAMED_UNIT ( * ) PLANE_ANGLE_UNIT ( ) SI_UNIT ( $, .RADIAN. ) );
#253 = DIRECTION ( 'NONE',  ( 0.0000000000000000000, 0.0000000000000000000, -1.000000000000000000 ) ) ;
#254 = DIRECTION ( 'NONE',  ( -0.0000000000000000000, -1.000000000000000000, -0.0000000000000000000 ) ) ;
#255 = CARTESIAN_POINT ( 'NONE',  ( 0.0000000000000000000, 1.554633280503308700, 0.0000000000000000000 ) ) ;
#256 = CIRCLE ( 'NONE', #266, 5.999999999999998200 ) ;
#257 =( LENGTH_UNIT ( ) NAMED_UNIT ( * ) SI_UNIT ( .MILLI., .METRE. ) );
#258 = DIRECTION ( 'NONE',  ( 0.0000000000000000000, 0.0000000000000000000, -1.000000000000000000 ) ) ;
#259 = DIRECTION ( 'NONE',  ( -0.0000000000000000000, -1.000000000000000000, -0.0000000000000000000 ) ) ;
#260 = CARTESIAN_POINT ( 'NONE',  ( 0.0000000000000000000, 3.299999999999998900, 0.0000000000000000000 ) ) ;
#261 = DIRECTION ( 'NONE',  ( -0.0000000000000000000, -1.000000000000000000, -0.0000000000000000000 ) ) ;
#262 = VECTOR ( 'NONE', #261, 1000.000000000000000 ) ;
#263 = DIRECTION ( 'NONE',  ( 0.0000000000000000000, 0.0000000000000000000, -1.000000000000000000 ) ) ;
#264 = DIRECTION ( 'NONE',  ( -0.0000000000000000000, -1.000000000000000000, -0.0000000000000000000 ) ) ;
#265 = CARTESIAN_POINT ( 'NONE',  ( 0.0000000000000000000, 0.0000000000000000000, 0.0000000000000000000 ) ) ;
#266 = AXIS2_PLACEMENT_3D ( 'NONE', #255, #254, #253 ) ;
#267 = AXIS2_PLACEMENT_3D ( 'NONE', #260, #259, #258 ) ;
#268 = CARTESIAN_POINT ( 'NONE',  ( 7.347880794884119700E-016, 0.0000000000000000000, 6.000000000000000000 ) ) ;
#269 = LINE ( 'NONE', #268, #262 ) ;
#270 = DIRECTION ( 'NONE',  ( 0.0000000000000000000, 0.0000000000000000000, -1.000000000000000000 ) ) ;
#271 = DIRECTION ( 'NONE',  ( -0.0000000000000000000, -1.000000000000000000, -0.0000000000000000000 ) ) ;
#272 = CARTESIAN_POINT ( 'NONE',  ( 0.0000000000000000000, 1.554633280503308700, 0.0000000000000000000 ) ) ;
#273 = AXIS2_PLACEMENT_3D ( 'NONE', #272, #271, #270 ) ;
#274 = CARTESIAN_POINT ( 'NONE',  ( 0.0000000000000000000, 3.299999999999998900, -3.249999999999999600 ) ) ;
#275 = CIRCLE ( 'NONE', #267, 6.000000000000000000 ) ;
#276 = AXIS2_PLACEMENT_3D ( 'NONE', #265, #264, #263 ) ;
#277 = CYLINDRICAL_SURFACE ( 'NONE', #276, 6.000000000000000000 ) ;
#278 = CIRCLE ( 'NONE', #273, 5.999999999999998200 ) ;
#279 = FACE_OUTER_BOUND ( 'NONE', #87, .T. ) ;
#280 = DIRECTION ( 'NONE',  ( 0.0000000000000000000, 0.0000000000000000000, -1.000000000000000000 ) ) ;
#281 = DIRECTION ( 'NONE',  ( -0.0000000000000000000, -1.000000000000000000, -0.0000000000000000000 ) ) ;
#282 = CARTESIAN_POINT ( 'NONE',  ( 0.0000000000000000000, 1.554633280503308700, 0.0000000000000000000 ) ) ;
#283 = AXIS2_PLACEMENT_3D ( 'NONE', #282, #281, #280 ) ;
#284 = CIRCLE ( 'NONE', #283, 5.999999999999998200 ) ;
#285 = CARTESIAN_POINT ( 'NONE',  ( -3.249999999999999600, 0.4999999999999991700, 5.663991446056507500E-016 ) ) ;
#286 = DIRECTION ( 'NONE',  ( 0.0000000000000000000, 0.0000000000000000000, -1.000000000000000000 ) ) ;
#287 = PRODUCT_DEFINITION_SHAPE ( 'NONE', 'NONE',  #202 ) ;
#288 = PRODUCT_RELATED_PRODUCT_CATEGORY ( 'detail', '', ( #211 ) ) ;
#289 = CC_DESIGN_SECURITY_CLASSIFICATION ( #234, ( #302 ) ) ;
#290 = CC_DESIGN_APPROVAL ( #222, ( #234 ) ) ;
#291 = APPROVAL_DATE_TIME ( #292, #222 ) ;
#292 = DATE_AND_TIME ( #293, #218 ) ;
#293 = CALENDAR_DATE ( 2012, 30, 3 ) ;
#294 = CALENDAR_DATE ( 2012, 30, 3 ) ;
#295 = LOCAL_TIME ( 13, 59, 58.00000000000000000, #296 ) ;
#296 = COORDINATED_UNIVERSAL_TIME_OFFSET ( 5, 0, .BEHIND. ) ;
#297 = APPROVAL_PERSON_ORGANIZATION ( #301, #299, #298 ) ;
#298 = APPROVAL_ROLE ( '' ) ;
#299 = APPROVAL ( #300, 'UNSPECIFIED' ) ;
#300 = APPROVAL_STATUS ( 'not_yet_approved' ) ;
#301 = PERSON_AND_ORGANIZATION ( #210, #209 ) ;
#302 = PRODUCT_DEFINITION_FORMATION_WITH_SPECIFIED_SOURCE ( 'ANY', '', #211, .NOT_KNOWN. ) ;
#303 = SHAPE_DEFINITION_REPRESENTATION ( #287, #248 ) ;
#304 = CC_DESIGN_DATE_AND_TIME_ASSIGNMENT ( #306, #305, ( #202 ) ) ;
#305 = DATE_TIME_ROLE ( 'creation_date' ) ;
#306 = DATE_AND_TIME ( #307, #308 ) ;
#307 = CALENDAR_DATE ( 2012, 30, 3 ) ;
#308 = LOCAL_TIME ( 13, 59, 58.00000000000000000, #187 ) ;
#309 = FACE_OUTER_BOUND ( 'NONE', #54, .T. ) ;
#310 = CYLINDRICAL_SURFACE ( 'NONE', #214, 6.000000000000000000 ) ;
#311 = SPHERICAL_SURFACE ( 'NONE', #186, 12.99999999999999800 ) ;
ENDSEC;
END-ISO-10303-21;
