ISO-10303-21;
HEADER;
FILE_DESCRIPTION (( 'STEP AP203' ),
    '1' );
FILE_NAME ('WDS-401-2004M.step',
    '2012-01-28T08:48:44',
    ( 'SysAdmin' ),
    ( 'SolidWorks' ),
    'SwSTEP 2.0',
    'SolidWorks 2012',
    '' );
FILE_SCHEMA (( 'CONFIG_CONTROL_DESIGN' ));
ENDSEC;

DATA;
#1 = DIRECTION ( 'NONE',  ( -0.0000000000000000000, -1.000000000000000000, -0.0000000000000000000 ) ) ;
#2 = VECTOR ( 'NONE', #1, 1000.000000000000000 ) ;
#3 = DIRECTION ( 'NONE',  ( 0.0000000000000000000, 0.0000000000000000000, -1.000000000000000000 ) ) ;
#4 = LINE ( 'NONE', #6, #2 ) ;
#5 = DIRECTION ( 'NONE',  ( -0.0000000000000000000, -1.000000000000000000, -0.0000000000000000000 ) ) ;
#6 = CARTESIAN_POINT ( 'NONE',  ( 0.0000000000000000000, 0.0000000000000000000, -2.750000000000000400 ) ) ;
#7 = AXIS2_PLACEMENT_3D ( 'NONE', #9, #5, #3 ) ;
#8 = CIRCLE ( 'NONE', #7, 5.999999999999998200 ) ;
#9 = CARTESIAN_POINT ( 'NONE',  ( 0.0000000000000000000, 1.873243164902262900, 0.0000000000000000000 ) ) ;
#10 = CARTESIAN_POINT ( 'NONE',  ( 3.367778697655222500E-016, 0.6999999999999992900, 2.750000000000000900 ) ) ;
#11 = DIRECTION ( 'NONE',  ( 0.0000000000000000000, -0.0000000000000000000, 1.000000000000000000 ) ) ;
#12 = DIRECTION ( 'NONE',  ( 0.0000000000000000000, 1.000000000000000000, 0.0000000000000000000 ) ) ;
#13 = FACE_OUTER_BOUND ( 'NONE', #163, .T. ) ;
#14 = FACE_OUTER_BOUND ( 'NONE', #109, .T. ) ;
#15 = AXIS2_PLACEMENT_3D ( 'NONE', #129, #128, #127 ) ;
#16 = AXIS2_PLACEMENT_3D ( 'NONE', #123, #122, #121 ) ;
#17 = CARTESIAN_POINT ( 'NONE',  ( 0.0000000000000000000, 1.873243164902262900, -5.999999999999998200 ) ) ;
#18 = DIRECTION ( 'NONE',  ( -0.0000000000000000000, -1.000000000000000000, -0.0000000000000000000 ) ) ;
#19 = VECTOR ( 'NONE', #18, 1000.000000000000000 ) ;
#20 = CARTESIAN_POINT ( 'NONE',  ( 0.0000000000000000000, 0.0000000000000000000, -6.000000000000000000 ) ) ;
#21 = AXIS2_PLACEMENT_3D ( 'NONE', #59, #58, #57 ) ;
#22 = CYLINDRICAL_SURFACE ( 'NONE', #15, 6.000000000000000000 ) ;
#23 = PLANE ( 'NONE',  #32 ) ;
#24 = DIRECTION ( 'NONE',  ( 0.0000000000000000000, 0.0000000000000000000, -1.000000000000000000 ) ) ;
#25 = DIRECTION ( 'NONE',  ( -0.0000000000000000000, -1.000000000000000000, -0.0000000000000000000 ) ) ;
#26 = CARTESIAN_POINT ( 'NONE',  ( 0.0000000000000000000, 3.299999999999998900, 0.0000000000000000000 ) ) ;
#27 = AXIS2_PLACEMENT_3D ( 'NONE', #26, #25, #24 ) ;
#28 = FACE_BOUND ( 'NONE', #201, .T. ) ;
#29 = DIRECTION ( 'NONE',  ( 0.0000000000000000000, 0.0000000000000000000, -1.000000000000000000 ) ) ;
#30 = DIRECTION ( 'NONE',  ( -0.0000000000000000000, -1.000000000000000000, -0.0000000000000000000 ) ) ;
#31 = CARTESIAN_POINT ( 'NONE',  ( 0.0000000000000000000, 0.0000000000000000000, 0.0000000000000000000 ) ) ;
#32 = AXIS2_PLACEMENT_3D ( 'NONE', #38, #12, #11 ) ;
#33 = AXIS2_PLACEMENT_3D ( 'NONE', #31, #30, #29 ) ;
#34 = LINE ( 'NONE', #20, #19 ) ;
#35 = DIRECTION ( 'NONE',  ( 1.000000000000000000, 0.0000000000000000000, 0.0000000000000000000 ) ) ;
#36 = DIRECTION ( 'NONE',  ( 0.0000000000000000000, 0.0000000000000000000, 1.000000000000000000 ) ) ;
#37 = CARTESIAN_POINT ( 'NONE',  ( 0.0000000000000000000, 13.40580575957305800, 0.0000000000000000000 ) ) ;
#38 = CARTESIAN_POINT ( 'NONE',  ( 2.750000000000000000, 3.299999999999998900, 0.0000000000000000000 ) ) ;
#39 = FACE_OUTER_BOUND ( 'NONE', #100, .T. ) ;
#40 = DIRECTION ( 'NONE',  ( 0.0000000000000000000, 0.0000000000000000000, -1.000000000000000000 ) ) ;
#41 = DIRECTION ( 'NONE',  ( -0.0000000000000000000, -1.000000000000000000, -0.0000000000000000000 ) ) ;
#42 = CARTESIAN_POINT ( 'NONE',  ( 0.0000000000000000000, 0.6999999999999992900, 0.0000000000000000000 ) ) ;
#43 = DIRECTION ( 'NONE',  ( 0.0000000000000000000, 0.0000000000000000000, -1.000000000000000000 ) ) ;
#44 = DIRECTION ( 'NONE',  ( -0.0000000000000000000, -1.000000000000000000, -0.0000000000000000000 ) ) ;
#45 = CIRCLE ( 'NONE', #66, 2.750000000000000900 ) ;
#46 = CARTESIAN_POINT ( 'NONE',  ( 3.367778697655221500E-016, 3.299999999999998900, 2.750000000000000000 ) ) ;
#47 = DIRECTION ( 'NONE',  ( -0.0000000000000000000, -1.000000000000000000, -0.0000000000000000000 ) ) ;
#48 = VECTOR ( 'NONE', #47, 1000.000000000000000 ) ;
#49 = CARTESIAN_POINT ( 'NONE',  ( 3.367778697655221500E-016, 0.0000000000000000000, 2.750000000000000400 ) ) ;
#50 = LINE ( 'NONE', #49, #48 ) ;
#51 = CARTESIAN_POINT ( 'NONE',  ( 0.0000000000000000000, 3.299999999999998900, -2.750000000000000000 ) ) ;
#52 = CARTESIAN_POINT ( 'NONE',  ( 0.0000000000000000000, 13.40580575957305800, 0.0000000000000000000 ) ) ;
#53 = AXIS2_PLACEMENT_3D ( 'NONE', #77, #76, #75 ) ;
#54 = AXIS2_PLACEMENT_3D ( 'NONE', #189, #188, #187 ) ;
#55 = CIRCLE ( 'NONE', #83, 2.750000000000000900 ) ;
#56 = CYLINDRICAL_SURFACE ( 'NONE', #54, 2.750000000000000400 ) ;
#57 = DIRECTION ( 'NONE',  ( 0.0000000000000000000, 0.0000000000000000000, -1.000000000000000000 ) ) ;
#58 = DIRECTION ( 'NONE',  ( -0.0000000000000000000, -1.000000000000000000, -0.0000000000000000000 ) ) ;
#59 = CARTESIAN_POINT ( 'NONE',  ( 0.0000000000000000000, 1.873243164902262900, 0.0000000000000000000 ) ) ;
#60 = CARTESIAN_POINT ( 'NONE',  ( 0.0000000000000000000, 0.6999999999999992900, -2.750000000000000900 ) ) ;
#61 = FACE_OUTER_BOUND ( 'NONE', #140, .T. ) ;
#62 = DIRECTION ( 'NONE',  ( 0.0000000000000000000, 0.0000000000000000000, -1.000000000000000000 ) ) ;
#63 = DIRECTION ( 'NONE',  ( -0.0000000000000000000, -1.000000000000000000, -0.0000000000000000000 ) ) ;
#64 = CARTESIAN_POINT ( 'NONE',  ( 0.0000000000000000000, 1.873243164902262900, 0.0000000000000000000 ) ) ;
#65 = CIRCLE ( 'NONE', #72, 5.999999999999998200 ) ;
#66 = AXIS2_PLACEMENT_3D ( 'NONE', #42, #41, #40 ) ;
#67 = CARTESIAN_POINT ( 'NONE',  ( 7.347880794884118800E-016, 1.873243164902262900, 5.999999999999998200 ) ) ;
#68 = DIRECTION ( 'NONE',  ( -1.000000000000000000, 0.0000000000000000000, 0.0000000000000000000 ) ) ;
#69 = DIRECTION ( 'NONE',  ( 0.0000000000000000000, 0.0000000000000000000, -1.000000000000000000 ) ) ;
#70 = CARTESIAN_POINT ( 'NONE',  ( 0.0000000000000000000, 13.40580575957305800, 0.0000000000000000000 ) ) ;
#71 = CIRCLE ( 'NONE', #73, 12.99999999999999800 ) ;
#72 = AXIS2_PLACEMENT_3D ( 'NONE', #64, #63, #62 ) ;
#73 = AXIS2_PLACEMENT_3D ( 'NONE', #70, #69, #68 ) ;
#74 = CARTESIAN_POINT ( 'NONE',  ( 0.0000000000000000000, 3.299999999999998900, 0.0000000000000000000 ) ) ;
#75 = DIRECTION ( 'NONE',  ( 0.0000000000000000000, 0.0000000000000000000, -1.000000000000000000 ) ) ;
#76 = DIRECTION ( 'NONE',  ( -0.0000000000000000000, -1.000000000000000000, -0.0000000000000000000 ) ) ;
#77 = CARTESIAN_POINT ( 'NONE',  ( 0.0000000000000000000, 0.6999999999999992900, 0.0000000000000000000 ) ) ;
#78 = CARTESIAN_POINT ( 'NONE',  ( 0.0000000000000000000, 3.299999999999998900, -6.000000000000000000 ) ) ;
#79 = CIRCLE ( 'NONE', #53, 2.750000000000000900 ) ;
#80 = DIRECTION ( 'NONE',  ( 0.0000000000000000000, 0.0000000000000000000, -1.000000000000000000 ) ) ;
#81 = DIRECTION ( 'NONE',  ( -0.0000000000000000000, -1.000000000000000000, -0.0000000000000000000 ) ) ;
#82 = CARTESIAN_POINT ( 'NONE',  ( 0.0000000000000000000, 0.6999999999999992900, 0.0000000000000000000 ) ) ;
#83 = AXIS2_PLACEMENT_3D ( 'NONE', #82, #81, #80 ) ;
#84 = CARTESIAN_POINT ( 'NONE',  ( 2.750000000000000900, 0.6999999999999992900, 0.0000000000000000000 ) ) ;
#85 = CARTESIAN_POINT ( 'NONE',  ( -5.999999999999996400, 1.873243164902262500, 7.347880794884116800E-016 ) ) ;
#86 = DIRECTION ( 'NONE',  ( 1.000000000000000000, 0.0000000000000000000, -1.224646799147353200E-016 ) ) ;
#87 = DIRECTION ( 'NONE',  ( 1.224646799147353200E-016, -0.0000000000000000000, 1.000000000000000000 ) ) ;
#88 = CARTESIAN_POINT ( 'NONE',  ( 0.0000000000000000000, 13.40580575957305800, 0.0000000000000000000 ) ) ;
#89 = AXIS2_PLACEMENT_3D ( 'NONE', #88, #87, #86 ) ;
#90 = CIRCLE ( 'NONE', #89, 12.99999999999999800 ) ;
#91 = DIRECTION ( 'NONE',  ( 1.000000000000000000, 0.0000000000000000000, 0.0000000000000000000 ) ) ;
#92 = ADVANCED_FACE ( 'NONE', ( #194 ), #193, .T. ) ;
#93 = ORIENTED_EDGE ( 'NONE', *, *, #144, .T. ) ;
#94 = ORIENTED_EDGE ( 'NONE', *, *, #161, .T. ) ;
#95 = ORIENTED_EDGE ( 'NONE', *, *, #160, .F. ) ;
#96 = EDGE_LOOP ( 'NONE', ( #95, #114, #106, #185, #93 ) ) ;
#97 = ORIENTED_EDGE ( 'NONE', *, *, #119, .F. ) ;
#98 = ORIENTED_EDGE ( 'NONE', *, *, #103, .T. ) ;
#99 = ORIENTED_EDGE ( 'NONE', *, *, #139, .F. ) ;
#100 = EDGE_LOOP ( 'NONE', ( #102, #97 ) ) ;
#101 = ADVANCED_FACE ( 'NONE', ( #177 ), #192, .F. ) ;
#102 = ORIENTED_EDGE ( 'NONE', *, *, #175, .F. ) ;
#103 = EDGE_CURVE ( 'NONE', #168, #164, #169, .T. ) ;
#104 = ORIENTED_EDGE ( 'NONE', *, *, #116, .F. ) ;
#105 = EDGE_CURVE ( 'NONE', #145, #107, #34, .T. ) ;
#106 = ORIENTED_EDGE ( 'NONE', *, *, #171, .T. ) ;
#107 = VERTEX_POINT ( 'NONE', #17 ) ;
#108 = ORIENTED_EDGE ( 'NONE', *, *, #198, .F. ) ;
#109 = EDGE_LOOP ( 'NONE', ( #108, #110, #113, #112, #111 ) ) ;
#110 = ORIENTED_EDGE ( 'NONE', *, *, #119, .T. ) ;
#111 = ORIENTED_EDGE ( 'NONE', *, *, #166, .F. ) ;
#112 = ORIENTED_EDGE ( 'NONE', *, *, #120, .F. ) ;
#113 = ORIENTED_EDGE ( 'NONE', *, *, #105, .T. ) ;
#114 = ORIENTED_EDGE ( 'NONE', *, *, #103, .F. ) ;
#115 = ADVANCED_FACE ( 'NONE', ( #28, #39 ), #23, .T. ) ;
#116 = EDGE_CURVE ( 'NONE', #107, #196, #135, .T. ) ;
#117 = ORIENTED_EDGE ( 'NONE', *, *, #105, .F. ) ;
#118 = ADVANCED_FACE ( 'NONE', ( #14 ), #22, .T. ) ;
#119 = EDGE_CURVE ( 'NONE', #173, #145, #124, .T. ) ;
#120 = EDGE_CURVE ( 'NONE', #151, #107, #126, .T. ) ;
#121 = DIRECTION ( 'NONE',  ( 0.0000000000000000000, 0.0000000000000000000, -1.000000000000000000 ) ) ;
#122 = DIRECTION ( 'NONE',  ( -0.0000000000000000000, -1.000000000000000000, -0.0000000000000000000 ) ) ;
#123 = CARTESIAN_POINT ( 'NONE',  ( 0.0000000000000000000, 3.299999999999998900, 0.0000000000000000000 ) ) ;
#124 = CIRCLE ( 'NONE', #16, 6.000000000000000000 ) ;
#125 = DIRECTION ( 'NONE',  ( 0.0000000000000000000, 0.0000000000000000000, 1.000000000000000000 ) ) ;
#126 = CIRCLE ( 'NONE', #21, 5.999999999999998200 ) ;
#127 = DIRECTION ( 'NONE',  ( 0.0000000000000000000, 0.0000000000000000000, -1.000000000000000000 ) ) ;
#128 = DIRECTION ( 'NONE',  ( -0.0000000000000000000, -1.000000000000000000, -0.0000000000000000000 ) ) ;
#129 = CARTESIAN_POINT ( 'NONE',  ( 0.0000000000000000000, 0.0000000000000000000, 0.0000000000000000000 ) ) ;
#130 = SPHERICAL_SURFACE ( 'NONE', #136, 12.99999999999999800 ) ;
#131 = DIRECTION ( 'NONE',  ( 0.0000000000000000000, 0.0000000000000000000, -1.000000000000000000 ) ) ;
#132 = DIRECTION ( 'NONE',  ( -0.0000000000000000000, -1.000000000000000000, -0.0000000000000000000 ) ) ;
#133 = CARTESIAN_POINT ( 'NONE',  ( 0.0000000000000000000, 1.873243164902262900, 0.0000000000000000000 ) ) ;
#134 = AXIS2_PLACEMENT_3D ( 'NONE', #133, #132, #131 ) ;
#135 = CIRCLE ( 'NONE', #134, 5.999999999999998200 ) ;
#136 = AXIS2_PLACEMENT_3D ( 'NONE', #52, #125, #91 ) ;
#137 = ADVANCED_FACE ( 'NONE', ( #13 ), #130, .T. ) ;
#138 = VERTEX_POINT ( 'NONE', #10 ) ;
#139 = EDGE_CURVE ( 'NONE', #151, #195, #90, .T. ) ;
#140 = EDGE_LOOP ( 'NONE', ( #159, #158, #155, #154, #153 ) ) ;
#141 = ORIENTED_EDGE ( 'NONE', *, *, #139, .T. ) ;
#142 = EDGE_CURVE ( 'NONE', #138, #195, #55, .T. ) ;
#143 = VERTEX_POINT ( 'NONE', #84 ) ;
#144 = EDGE_CURVE ( 'NONE', #143, #138, #79, .T. ) ;
#145 = VERTEX_POINT ( 'NONE', #78 ) ;
#146 = VERTEX_POINT ( 'NONE', #60 ) ;
#147 = ORIENTED_EDGE ( 'NONE', *, *, #144, .F. ) ;
#148 = EDGE_CURVE ( 'NONE', #196, #143, #71, .T. ) ;
#149 = ORIENTED_EDGE ( 'NONE', *, *, #148, .F. ) ;
#150 = EDGE_CURVE ( 'NONE', #196, #167, #65, .T. ) ;
#151 = VERTEX_POINT ( 'NONE', #85 ) ;
#152 = ORIENTED_EDGE ( 'NONE', *, *, #166, .T. ) ;
#153 = ORIENTED_EDGE ( 'NONE', *, *, #171, .F. ) ;
#154 = ORIENTED_EDGE ( 'NONE', *, *, #162, .T. ) ;
#155 = ORIENTED_EDGE ( 'NONE', *, *, #142, .T. ) ;
#156 = ORIENTED_EDGE ( 'NONE', *, *, #150, .T. ) ;
#157 = ADVANCED_FACE ( 'NONE', ( #61 ), #56, .F. ) ;
#158 = ORIENTED_EDGE ( 'NONE', *, *, #160, .T. ) ;
#159 = ORIENTED_EDGE ( 'NONE', *, *, #161, .F. ) ;
#160 = EDGE_CURVE ( 'NONE', #164, #138, #50, .T. ) ;
#161 = EDGE_CURVE ( 'NONE', #164, #168, #190, .T. ) ;
#162 = EDGE_CURVE ( 'NONE', #195, #146, #45, .T. ) ;
#163 = EDGE_LOOP ( 'NONE', ( #152, #141, #176, #147, #149, #156 ) ) ;
#164 = VERTEX_POINT ( 'NONE', #46 ) ;
#165 = ORIENTED_EDGE ( 'NONE', *, *, #175, .T. ) ;
#166 = EDGE_CURVE ( 'NONE', #167, #151, #8, .T. ) ;
#167 = VERTEX_POINT ( 'NONE', #67 ) ;
#168 = VERTEX_POINT ( 'NONE', #51 ) ;
#169 = CIRCLE ( 'NONE', #27, 2.750000000000000000 ) ;
#170 = EDGE_LOOP ( 'NONE', ( #165, #174, #197, #104, #117 ) ) ;
#171 = EDGE_CURVE ( 'NONE', #168, #146, #4, .T. ) ;
#172 = ADVANCED_FACE ( 'NONE', ( #288 ), #287, .T. ) ;
#173 = VERTEX_POINT ( 'NONE', #282 ) ;
#174 = ORIENTED_EDGE ( 'NONE', *, *, #198, .T. ) ;
#175 = EDGE_CURVE ( 'NONE', #145, #173, #266, .T. ) ;
#176 = ORIENTED_EDGE ( 'NONE', *, *, #142, .F. ) ;
#177 = FACE_OUTER_BOUND ( 'NONE', #96, .T. ) ;
#178 = ORIENTED_EDGE ( 'NONE', *, *, #162, .F. ) ;
#179 = ORIENTED_EDGE ( 'NONE', *, *, #183, .F. ) ;
#180 = ORIENTED_EDGE ( 'NONE', *, *, #148, .T. ) ;
#181 = ORIENTED_EDGE ( 'NONE', *, *, #116, .T. ) ;
#182 = EDGE_LOOP ( 'NONE', ( #99, #184, #181, #180, #179, #178 ) ) ;
#183 = EDGE_CURVE ( 'NONE', #146, #143, #289, .T. ) ;
#184 = ORIENTED_EDGE ( 'NONE', *, *, #120, .T. ) ;
#185 = ORIENTED_EDGE ( 'NONE', *, *, #183, .T. ) ;
#186 = MANIFOLD_SOLID_BREP ( 'Cut-Revolve2', #200 ) ;
#187 = DIRECTION ( 'NONE',  ( 0.0000000000000000000, 0.0000000000000000000, -1.000000000000000000 ) ) ;
#188 = DIRECTION ( 'NONE',  ( -0.0000000000000000000, -1.000000000000000000, -0.0000000000000000000 ) ) ;
#189 = CARTESIAN_POINT ( 'NONE',  ( 0.0000000000000000000, 0.0000000000000000000, 0.0000000000000000000 ) ) ;
#190 = CIRCLE ( 'NONE', #191, 2.750000000000000000 ) ;
#191 = AXIS2_PLACEMENT_3D ( 'NONE', #74, #44, #43 ) ;
#192 = CYLINDRICAL_SURFACE ( 'NONE', #33, 2.750000000000000400 ) ;
#193 = SPHERICAL_SURFACE ( 'NONE', #199, 12.99999999999999800 ) ;
#194 = FACE_OUTER_BOUND ( 'NONE', #182, .T. ) ;
#195 = VERTEX_POINT ( 'NONE', #284 ) ;
#196 = VERTEX_POINT ( 'NONE', #206 ) ;
#197 = ORIENTED_EDGE ( 'NONE', *, *, #150, .F. ) ;
#198 = EDGE_CURVE ( 'NONE', #173, #167, #271, .T. ) ;
#199 = AXIS2_PLACEMENT_3D ( 'NONE', #37, #36, #35 ) ;
#200 = CLOSED_SHELL ( 'NONE', ( #137, #157, #172, #118, #115, #101, #92 ) ) ;
#201 = EDGE_LOOP ( 'NONE', ( #98, #94 ) ) ;
#202 = DIRECTION ( 'NONE',  ( 0.0000000000000000000, 0.0000000000000000000, -1.000000000000000000 ) ) ;
#203 = DIRECTION ( 'NONE',  ( -0.0000000000000000000, -1.000000000000000000, -0.0000000000000000000 ) ) ;
#204 = CARTESIAN_POINT ( 'NONE',  ( 0.0000000000000000000, 0.6999999999999992900, 0.0000000000000000000 ) ) ;
#205 = AXIS2_PLACEMENT_3D ( 'NONE', #204, #203, #202 ) ;
#206 = CARTESIAN_POINT ( 'NONE',  ( 5.999999999999996400, 1.873243164902262500, 0.0000000000000000000 ) ) ;
#207 = PERSON_AND_ORGANIZATION ( #265, #264 ) ;
#208 = CC_DESIGN_DATE_AND_TIME_ASSIGNMENT ( #210, #209, ( #217 ) ) ;
#209 = DATE_TIME_ROLE ( 'classification_date' ) ;
#210 = DATE_AND_TIME ( #211, #212 ) ;
#211 = CALENDAR_DATE ( 2012, 28, 1 ) ;
#212 = LOCAL_TIME ( 3, 48, 44.00000000000000000, #213 ) ;
#213 = COORDINATED_UNIVERSAL_TIME_OFFSET ( 5, 0, .BEHIND. ) ;
#214 = CC_DESIGN_PERSON_AND_ORGANIZATION_ASSIGNMENT ( #216, #215, ( #217 ) ) ;
#215 = PERSON_AND_ORGANIZATION_ROLE ( 'classification_officer' ) ;
#216 = PERSON_AND_ORGANIZATION ( #265, #264 ) ;
#217 = SECURITY_CLASSIFICATION ( '', '', #218 ) ;
#218 = SECURITY_CLASSIFICATION_LEVEL ( 'unclassified' ) ;
#219 = CC_DESIGN_PERSON_AND_ORGANIZATION_ASSIGNMENT ( #221, #220, ( #236 ) ) ;
#220 = PERSON_AND_ORGANIZATION_ROLE ( 'design_supplier' ) ;
#221 = PERSON_AND_ORGANIZATION ( #265, #264 ) ;
#222 = CC_DESIGN_PERSON_AND_ORGANIZATION_ASSIGNMENT ( #224, #223, ( #236 ) ) ;
#223 = PERSON_AND_ORGANIZATION_ROLE ( 'creator' ) ;
#224 = PERSON_AND_ORGANIZATION ( #265, #264 ) ;
#225 = CC_DESIGN_APPROVAL ( #233, ( #236 ) ) ;
#226 = APPROVAL_DATE_TIME ( #227, #233 ) ;
#227 = DATE_AND_TIME ( #228, #229 ) ;
#228 = CALENDAR_DATE ( 2012, 28, 1 ) ;
#229 = LOCAL_TIME ( 3, 48, 44.00000000000000000, #230 ) ;
#230 = COORDINATED_UNIVERSAL_TIME_OFFSET ( 5, 0, .BEHIND. ) ;
#231 = APPROVAL_PERSON_ORGANIZATION ( #235, #233, #232 ) ;
#232 = APPROVAL_ROLE ( '' ) ;
#233 = APPROVAL ( #234, 'UNSPECIFIED' ) ;
#234 = APPROVAL_STATUS ( 'not_yet_approved' ) ;
#235 = PERSON_AND_ORGANIZATION ( #265, #264 ) ;
#236 = PRODUCT_DEFINITION_FORMATION_WITH_SPECIFIED_SOURCE ( 'ANY', '', #278, .NOT_KNOWN. ) ;
#237 = CC_DESIGN_DATE_AND_TIME_ASSIGNMENT ( #239, #238, ( #257 ) ) ;
#238 = DATE_TIME_ROLE ( 'creation_date' ) ;
#239 = DATE_AND_TIME ( #240, #241 ) ;
#240 = CALENDAR_DATE ( 2012, 28, 1 ) ;
#241 = LOCAL_TIME ( 3, 48, 44.00000000000000000, #242 ) ;
#242 = COORDINATED_UNIVERSAL_TIME_OFFSET ( 5, 0, .BEHIND. ) ;
#243 = CC_DESIGN_PERSON_AND_ORGANIZATION_ASSIGNMENT ( #245, #244, ( #257 ) ) ;
#244 = PERSON_AND_ORGANIZATION_ROLE ( 'creator' ) ;
#245 = PERSON_AND_ORGANIZATION ( #265, #264 ) ;
#246 = CC_DESIGN_APPROVAL ( #254, ( #257 ) ) ;
#247 = APPROVAL_DATE_TIME ( #248, #254 ) ;
#248 = DATE_AND_TIME ( #249, #250 ) ;
#249 = CALENDAR_DATE ( 2012, 28, 1 ) ;
#250 = LOCAL_TIME ( 3, 48, 44.00000000000000000, #251 ) ;
#251 = COORDINATED_UNIVERSAL_TIME_OFFSET ( 5, 0, .BEHIND. ) ;
#252 = APPROVAL_PERSON_ORGANIZATION ( #256, #254, #253 ) ;
#253 = APPROVAL_ROLE ( '' ) ;
#254 = APPROVAL ( #255, 'UNSPECIFIED' ) ;
#255 = APPROVAL_STATUS ( 'not_yet_approved' ) ;
#256 = PERSON_AND_ORGANIZATION ( #265, #264 ) ;
#257 = PRODUCT_DEFINITION ( 'UNKNOWN', '', #236, #258 ) ;
#258 = DESIGN_CONTEXT ( 'detailed design', #260, 'design' ) ;
#259 = APPLICATION_PROTOCOL_DEFINITION ( 'international standard', 'config_control_design', 1994, #260 ) ;
#260 = APPLICATION_CONTEXT ( 'configuration controlled 3d designs of mechanical parts and assemblies' ) ;
#261 = CC_DESIGN_PERSON_AND_ORGANIZATION_ASSIGNMENT ( #263, #262, ( #278 ) ) ;
#262 = PERSON_AND_ORGANIZATION_ROLE ( 'design_owner' ) ;
#263 = PERSON_AND_ORGANIZATION ( #265, #264 ) ;
#264 = ORGANIZATION ( 'UNSPECIFIED', 'UNSPECIFIED', '' ) ;
#265 = PERSON ( 'UNSPECIFIED', 'UNSPECIFIED', 'UNSPECIFIED', ('UNSPECIFIED'), ('UNSPECIFIED'), ('UNSPECIFIED') ) ;
#266 = CIRCLE ( 'NONE', #293, 6.000000000000000000 ) ;
#267 =( LENGTH_UNIT ( ) NAMED_UNIT ( * ) SI_UNIT ( .MILLI., .METRE. ) );
#268 = DIRECTION ( 'NONE',  ( -0.0000000000000000000, -1.000000000000000000, -0.0000000000000000000 ) ) ;
#269 = VECTOR ( 'NONE', #268, 1000.000000000000000 ) ;
#270 = CARTESIAN_POINT ( 'NONE',  ( 7.347880794884119700E-016, 0.0000000000000000000, 6.000000000000000000 ) ) ;
#271 = LINE ( 'NONE', #270, #269 ) ;
#272 = AXIS2_PLACEMENT_3D ( 'NONE', #276, #275, #274 ) ;
#273 = SHAPE_DEFINITION_REPRESENTATION ( #294, #307 ) ;
#274 = DIRECTION ( 'NONE',  ( 1.000000000000000000, 0.0000000000000000000, 0.0000000000000000000 ) ) ;
#275 = DIRECTION ( 'NONE',  ( 0.0000000000000000000, 0.0000000000000000000, 1.000000000000000000 ) ) ;
#276 = CARTESIAN_POINT ( 'NONE',  ( 0.0000000000000000000, 0.0000000000000000000, 0.0000000000000000000 ) ) ;
#277 = APPLICATION_CONTEXT ( 'configuration controlled 3d designs of mechanical parts and assemblies' ) ;
#278 = PRODUCT ( 'WDS-401-2004M', 'WDS-401-2004M', '', ( #279 ) ) ;
#279 = MECHANICAL_CONTEXT ( 'NONE', #277, 'mechanical' ) ;
#280 = APPLICATION_PROTOCOL_DEFINITION ( 'international standard', 'config_control_design', 1994, #277 ) ;
#281 = DIRECTION ( 'NONE',  ( 0.0000000000000000000, 0.0000000000000000000, -1.000000000000000000 ) ) ;
#282 = CARTESIAN_POINT ( 'NONE',  ( 7.347880794884119700E-016, 3.299999999999998900, 6.000000000000000000 ) ) ;
#283 = AXIS2_PLACEMENT_3D ( 'NONE', #286, #285, #281 ) ;
#284 = CARTESIAN_POINT ( 'NONE',  ( -2.750000000000000900, 0.6999999999999992900, 5.357829746269668600E-016 ) ) ;
#285 = DIRECTION ( 'NONE',  ( -0.0000000000000000000, -1.000000000000000000, -0.0000000000000000000 ) ) ;
#286 = CARTESIAN_POINT ( 'NONE',  ( 0.0000000000000000000, 0.0000000000000000000, 0.0000000000000000000 ) ) ;
#287 = CYLINDRICAL_SURFACE ( 'NONE', #283, 6.000000000000000000 ) ;
#288 = FACE_OUTER_BOUND ( 'NONE', #170, .T. ) ;
#289 = CIRCLE ( 'NONE', #205, 2.750000000000000900 ) ;
#290 = DIRECTION ( 'NONE',  ( 0.0000000000000000000, 0.0000000000000000000, -1.000000000000000000 ) ) ;
#291 = DIRECTION ( 'NONE',  ( -0.0000000000000000000, -1.000000000000000000, -0.0000000000000000000 ) ) ;
#292 = CARTESIAN_POINT ( 'NONE',  ( 0.0000000000000000000, 3.299999999999998900, 0.0000000000000000000 ) ) ;
#293 = AXIS2_PLACEMENT_3D ( 'NONE', #292, #291, #290 ) ;
#294 = PRODUCT_DEFINITION_SHAPE ( 'NONE', 'NONE',  #257 ) ;
#295 = PRODUCT_RELATED_PRODUCT_CATEGORY ( 'detail', '', ( #278 ) ) ;
#296 = CC_DESIGN_SECURITY_CLASSIFICATION ( #217, ( #236 ) ) ;
#297 = CC_DESIGN_APPROVAL ( #305, ( #217 ) ) ;
#298 = APPROVAL_DATE_TIME ( #299, #305 ) ;
#299 = DATE_AND_TIME ( #300, #301 ) ;
#300 = CALENDAR_DATE ( 2012, 28, 1 ) ;
#301 = LOCAL_TIME ( 3, 48, 44.00000000000000000, #302 ) ;
#302 = COORDINATED_UNIVERSAL_TIME_OFFSET ( 5, 0, .BEHIND. ) ;
#303 = APPROVAL_PERSON_ORGANIZATION ( #207, #305, #304 ) ;
#304 = APPROVAL_ROLE ( '' ) ;
#305 = APPROVAL ( #306, 'UNSPECIFIED' ) ;
#306 = APPROVAL_STATUS ( 'not_yet_approved' ) ;
#307 = ADVANCED_BREP_SHAPE_REPRESENTATION ( 'WDS-401-2004M', ( #186, #272 ), #308 ) ;
#308 =( GEOMETRIC_REPRESENTATION_CONTEXT ( 3 ) GLOBAL_UNCERTAINTY_ASSIGNED_CONTEXT ( ( #309 ) ) GLOBAL_UNIT_ASSIGNED_CONTEXT ( ( #267, #311, #310 ) ) REPRESENTATION_CONTEXT ( 'NONE', 'WORKASPACE' ) );
#309 = UNCERTAINTY_MEASURE_WITH_UNIT (LENGTH_MEASURE( 1.000000000000000100E-005 ), #267, 'distance_accuracy_value', 'NONE');
#310 =( NAMED_UNIT ( * ) SI_UNIT ( $, .STERADIAN. ) SOLID_ANGLE_UNIT ( ) );
#311 =( NAMED_UNIT ( * ) PLANE_ANGLE_UNIT ( ) SI_UNIT ( $, .RADIAN. ) );
ENDSEC;
END-ISO-10303-21;
