ISO-10303-21;
HEADER;
FILE_DESCRIPTION( ( '' ), '1' );
FILE_NAME( 'C:/Users/Bollwitte/Desktop/987/K0020.04_0.stp', '2012-10-29T13:02:04', ( '' ), ( '' ), ' ', ' ', ' ' );
FILE_SCHEMA( ( 'CONFIG_CONTROL_DESIGN' ) );
ENDSEC;
DATA;
#1 = DESIGN_CONTEXT( '', #27, 'design' );
#2 = APPLICATION_PROTOCOL_DEFINITION( 'INTERNATIONAL STANDARD', 'config_control_design', 1994, #27 );
#3 = PRODUCT_CATEGORY_RELATIONSHIP( 'NONE', 'NONE', #28, #29 );
#4 = DATE_AND_TIME( #30, #31 );
#5 = DATE_TIME_ROLE( 'creation_date' );
#6 = DATE_TIME_ROLE( 'classification_date' );
#7 = PERSON_AND_ORGANIZATION_ROLE( 'creator' );
#8 = PERSON_AND_ORGANIZATION_ROLE( 'design_supplier' );
#9 = PERSON_AND_ORGANIZATION_ROLE( 'classification_officer' );
#10 = PERSON_AND_ORGANIZATION_ROLE( 'design_owner' );
#11 = APPROVAL_PERSON_ORGANIZATION( #32, #33, #34 );
#12 = APPROVAL_DATE_TIME( #4, #33 );
#13 = CC_DESIGN_APPROVAL( #33, ( #35, #36, #37 ) );
#14 = CC_DESIGN_DATE_AND_TIME_ASSIGNMENT( #4, #5, ( #37 ) );
#15 = CC_DESIGN_DATE_AND_TIME_ASSIGNMENT( #4, #6, ( #35 ) );
#16 = CC_DESIGN_PERSON_AND_ORGANIZATION_ASSIGNMENT( #32, #10, ( #38 ) );
#17 = CC_DESIGN_PERSON_AND_ORGANIZATION_ASSIGNMENT( #32, #7, ( #37 ) );
#18 = CC_DESIGN_PERSON_AND_ORGANIZATION_ASSIGNMENT( #32, #7, ( #36 ) );
#19 = CC_DESIGN_PERSON_AND_ORGANIZATION_ASSIGNMENT( #32, #8, ( #36 ) );
#20 = CC_DESIGN_SECURITY_CLASSIFICATION( #35, ( #36 ) );
#21 = CC_DESIGN_PERSON_AND_ORGANIZATION_ASSIGNMENT( #32, #9, ( #35 ) );
#22 = SHAPE_DEFINITION_REPRESENTATION( #39, #40 );
#23 =  ( GEOMETRIC_REPRESENTATION_CONTEXT( 3 )GLOBAL_UNCERTAINTY_ASSIGNED_CONTEXT( ( #43 ) )GLOBAL_UNIT_ASSIGNED_CONTEXT( ( #45, #46, #47 ) )REPRESENTATION_CONTEXT( 'NONE', 'WORKSPACE' ) );
#27 = APPLICATION_CONTEXT( 'CONFIGURATION CONTROLLED 3D DESIGNS OF MECHANICAL PARTS AND ASSEMBLIES' );
#28 = PRODUCT_CATEGORY( 'part', 'NONE' );
#29 = PRODUCT_RELATED_PRODUCT_CATEGORY( 'detail', ' ', ( #38 ) );
#30 = CALENDAR_DATE( 2012, 29, 9 );
#31 = LOCAL_TIME( 14, 2, 4.00000000000000, #49 );
#32 = PERSON_AND_ORGANIZATION( #50, #51 );
#33 = APPROVAL( #52, 'SOLID MODEL' );
#34 = APPROVAL_ROLE( 'APPROVED' );
#35 = SECURITY_CLASSIFICATION( '', '', #53 );
#36 = PRODUCT_DEFINITION_FORMATION_WITH_SPECIFIED_SOURCE( ' ', 'NONE', #38, .NOT_KNOWN. );
#37 = PRODUCT_DEFINITION( 'NONE', 'NONE', #36, #1 );
#38 = PRODUCT( '1', '1', 'PART-1-DESC', ( #54 ) );
#39 = PRODUCT_DEFINITION_SHAPE( 'NONE', 'NONE', #37 );
#40 = ADVANCED_BREP_SHAPE_REPRESENTATION( '1', ( #55, #56 ), #23 );
#43 = UNCERTAINTY_MEASURE_WITH_UNIT( LENGTH_MEASURE( 1.00000000000000E-006 ), #45, '', '' );
#45 =  ( CONVERSION_BASED_UNIT( 'MILLIMETRE', #59 )LENGTH_UNIT(  )NAMED_UNIT( #62 ) );
#46 =  ( NAMED_UNIT( #64 )PLANE_ANGLE_UNIT(  )SI_UNIT( $, .RADIAN. ) );
#47 =  ( NAMED_UNIT( #64 )SOLID_ANGLE_UNIT(  )SI_UNIT( $, .STERADIAN. ) );
#49 = COORDINATED_UNIVERSAL_TIME_OFFSET( 1, 0, .AHEAD. );
#50 = PERSON( '', 'UNSPECIFIED', $, $, $, $ );
#51 = ORGANIZATION( 'UNSPECIFIED', 'UNSPECIFIED', 'UNSPECIFIED' );
#52 = APPROVAL_STATUS( 'approved' );
#53 = SECURITY_CLASSIFICATION_LEVEL( 'unclassified' );
#54 = MECHANICAL_CONTEXT( '', #27, 'mechanical' );
#55 = MANIFOLD_SOLID_BREP( '1', #70 );
#56 = AXIS2_PLACEMENT_3D( '', #71, #72, #73 );
#59 = LENGTH_MEASURE_WITH_UNIT( LENGTH_MEASURE( 1.00000000000000 ), #74 );
#62 = DIMENSIONAL_EXPONENTS( 1.00000000000000, 0.000000000000000, 0.000000000000000, 0.000000000000000, 0.000000000000000, 0.000000000000000, 0.000000000000000 );
#64 = DIMENSIONAL_EXPONENTS( 0.000000000000000, 0.000000000000000, 0.000000000000000, 0.000000000000000, 0.000000000000000, 0.000000000000000, 0.000000000000000 );
#70 = CLOSED_SHELL( '', ( #75, #76, #77, #78, #79, #80, #81, #82, #83, #84, #85, #86, #87, #88, #89 ) );
#71 = CARTESIAN_POINT( '', ( 0.000000000000000, 0.000000000000000, 0.000000000000000 ) );
#72 = DIRECTION( '', ( 0.000000000000000, 0.000000000000000, 1.00000000000000 ) );
#73 = DIRECTION( '', ( 1.00000000000000, 0.000000000000000, 0.000000000000000 ) );
#74 =  ( NAMED_UNIT( #62 )LENGTH_UNIT(  )SI_UNIT( .MILLI., .METRE. ) );
#75 = ADVANCED_FACE( '', ( #91 ), #92, .T. );
#76 = ADVANCED_FACE( '', ( #93 ), #94, .T. );
#77 = ADVANCED_FACE( '', ( #95 ), #96, .T. );
#78 = ADVANCED_FACE( '', ( #97 ), #98, .F. );
#79 = ADVANCED_FACE( '', ( #99 ), #100, .F. );
#80 = ADVANCED_FACE( '', ( #101 ), #102, .F. );
#81 = ADVANCED_FACE( '', ( #103 ), #104, .F. );
#82 = ADVANCED_FACE( '', ( #105 ), #106, .F. );
#83 = ADVANCED_FACE( '', ( #107 ), #108, .T. );
#84 = ADVANCED_FACE( '', ( #109 ), #110, .T. );
#85 = ADVANCED_FACE( '', ( #111 ), #112, .T. );
#86 = ADVANCED_FACE( '', ( #113, #114 ), #115, .T. );
#87 = ADVANCED_FACE( '', ( #116 ), #117, .T. );
#88 = ADVANCED_FACE( '', ( #118 ), #119, .T. );
#89 = ADVANCED_FACE( '', ( #120 ), #121, .T. );
#91 = FACE_OUTER_BOUND( '', #122, .T. );
#92 = CONICAL_SURFACE( '', #123, 6.50000000000000, 0.785398163397448 );
#93 = FACE_OUTER_BOUND( '', #124, .T. );
#94 = CYLINDRICAL_SURFACE( '', #125, 7.00000000000000 );
#95 = FACE_OUTER_BOUND( '', #126, .T. );
#96 = CYLINDRICAL_SURFACE( '', #127, 12.0000000000000 );
#97 = FACE_OUTER_BOUND( '', #128, .T. );
#98 = PLANE( '', #129 );
#99 = FACE_OUTER_BOUND( '', #130, .T. );
#100 = PLANE( '', #131 );
#101 = FACE_OUTER_BOUND( '', #132, .T. );
#102 = PLANE( '', #133 );
#103 = FACE_OUTER_BOUND( '', #134, .T. );
#104 = PLANE( '', #135 );
#105 = FACE_OUTER_BOUND( '', #136, .T. );
#106 = PLANE( '', #137 );
#107 = FACE_OUTER_BOUND( '', #138, .T. );
#108 = PLANE( '', #139 );
#109 = FACE_OUTER_BOUND( '', #140, .T. );
#110 = PLANE( '', #141 );
#111 = FACE_OUTER_BOUND( '', #142, .T. );
#112 = CYLINDRICAL_SURFACE( '', #143, 12.0000000000000 );
#113 = FACE_BOUND( '', #144, .T. );
#114 = FACE_OUTER_BOUND( '', #145, .T. );
#115 = PLANE( '', #146 );
#116 = FACE_OUTER_BOUND( '', #147, .T. );
#117 = CYLINDRICAL_SURFACE( '', #148, 7.00000000000000 );
#118 = FACE_OUTER_BOUND( '', #149, .T. );
#119 = CONICAL_SURFACE( '', #150, 6.50000000000000, 0.785398163397448 );
#120 = FACE_OUTER_BOUND( '', #151, .T. );
#121 = PLANE( '', #152 );
#122 = EDGE_LOOP( '', ( #153, #154, #155, #156 ) );
#123 = AXIS2_PLACEMENT_3D( '', #157, #158, #159 );
#124 = EDGE_LOOP( '', ( #160, #161, #162, #163 ) );
#125 = AXIS2_PLACEMENT_3D( '', #164, #165, #166 );
#126 = EDGE_LOOP( '', ( #167, #168, #169, #170, #171, #172, #173, #174, #175, #176 ) );
#127 = AXIS2_PLACEMENT_3D( '', #177, #178, #179 );
#128 = EDGE_LOOP( '', ( #180, #181, #182, #183 ) );
#129 = AXIS2_PLACEMENT_3D( '', #184, #185, #186 );
#130 = EDGE_LOOP( '', ( #187, #188, #189, #190 ) );
#131 = AXIS2_PLACEMENT_3D( '', #191, #192, #193 );
#132 = EDGE_LOOP( '', ( #194, #195, #196, #197 ) );
#133 = AXIS2_PLACEMENT_3D( '', #198, #199, #200 );
#134 = EDGE_LOOP( '', ( #201, #202, #203, #204 ) );
#135 = AXIS2_PLACEMENT_3D( '', #205, #206, #207 );
#136 = EDGE_LOOP( '', ( #208, #209, #210, #211 ) );
#137 = AXIS2_PLACEMENT_3D( '', #212, #213, #214 );
#138 = EDGE_LOOP( '', ( #215, #216, #217 ) );
#139 = AXIS2_PLACEMENT_3D( '', #218, #219, #220 );
#140 = EDGE_LOOP( '', ( #221, #222, #223 ) );
#141 = AXIS2_PLACEMENT_3D( '', #224, #225, #226 );
#142 = EDGE_LOOP( '', ( #227, #228, #229, #230, #231, #232, #233, #234, #235, #236 ) );
#143 = AXIS2_PLACEMENT_3D( '', #237, #238, #239 );
#144 = EDGE_LOOP( '', ( #240, #241 ) );
#145 = EDGE_LOOP( '', ( #242, #243 ) );
#146 = AXIS2_PLACEMENT_3D( '', #244, #245, #246 );
#147 = EDGE_LOOP( '', ( #247, #248, #249, #250 ) );
#148 = AXIS2_PLACEMENT_3D( '', #251, #252, #253 );
#149 = EDGE_LOOP( '', ( #254, #255, #256, #257 ) );
#150 = AXIS2_PLACEMENT_3D( '', #258, #259, #260 );
#151 = EDGE_LOOP( '', ( #261, #262 ) );
#152 = AXIS2_PLACEMENT_3D( '', #263, #264, #265 );
#153 = ORIENTED_EDGE( '', *, *, #266, .F. );
#154 = ORIENTED_EDGE( '', *, *, #267, .T. );
#155 = ORIENTED_EDGE( '', *, *, #268, .F. );
#156 = ORIENTED_EDGE( '', *, *, #269, .F. );
#157 = CARTESIAN_POINT( '', ( 23.5000000000000, -1.43895998899814E-015, 0.000000000000000 ) );
#158 = DIRECTION( '', ( -1.00000000000000, 6.12323399573677E-017, -0.000000000000000 ) );
#159 = DIRECTION( '', ( -6.12323399573677E-017, -1.00000000000000, 0.000000000000000 ) );
#160 = ORIENTED_EDGE( '', *, *, #270, .F. );
#161 = ORIENTED_EDGE( '', *, *, #271, .T. );
#162 = ORIENTED_EDGE( '', *, *, #272, .F. );
#163 = ORIENTED_EDGE( '', *, *, #267, .F. );
#164 = CARTESIAN_POINT( '', ( 11.5000000000000, -7.04171909509728E-016, 0.000000000000000 ) );
#165 = DIRECTION( '', ( -1.00000000000000, 6.12323399573677E-017, -0.000000000000000 ) );
#166 = DIRECTION( '', ( -6.12323399573677E-017, -1.00000000000000, 0.000000000000000 ) );
#167 = ORIENTED_EDGE( '', *, *, #273, .F. );
#168 = ORIENTED_EDGE( '', *, *, #274, .T. );
#169 = ORIENTED_EDGE( '', *, *, #275, .T. );
#170 = ORIENTED_EDGE( '', *, *, #276, .T. );
#171 = ORIENTED_EDGE( '', *, *, #277, .T. );
#172 = ORIENTED_EDGE( '', *, *, #278, .T. );
#173 = ORIENTED_EDGE( '', *, *, #279, .T. );
#174 = ORIENTED_EDGE( '', *, *, #280, .T. );
#175 = ORIENTED_EDGE( '', *, *, #281, .F. );
#176 = ORIENTED_EDGE( '', *, *, #282, .F. );
#177 = CARTESIAN_POINT( '', ( -10.0000000000000, 6.12323399573676E-016, 0.000000000000000 ) );
#178 = DIRECTION( '', ( -1.00000000000000, 6.12323399573677E-017, -0.000000000000000 ) );
#179 = DIRECTION( '', ( -6.12323399573677E-017, -1.00000000000000, 0.000000000000000 ) );
#180 = ORIENTED_EDGE( '', *, *, #279, .F. );
#181 = ORIENTED_EDGE( '', *, *, #283, .F. );
#182 = ORIENTED_EDGE( '', *, *, #284, .F. );
#183 = ORIENTED_EDGE( '', *, *, #285, .F. );
#184 = CARTESIAN_POINT( '', ( -13.0000000000000, 1.50000000000000, 15.0000000000000 ) );
#185 = DIRECTION( '', ( 0.707106781186548, 0.707106781186548, 0.000000000000000 ) );
#186 = DIRECTION( '', ( 0.707106781186548, -0.707106781186548, -0.000000000000000 ) );
#187 = ORIENTED_EDGE( '', *, *, #276, .F. );
#188 = ORIENTED_EDGE( '', *, *, #286, .F. );
#189 = ORIENTED_EDGE( '', *, *, #287, .F. );
#190 = ORIENTED_EDGE( '', *, *, #288, .T. );
#191 = CARTESIAN_POINT( '', ( -13.0000000000000, -1.50000000000000, 15.0000000000000 ) );
#192 = DIRECTION( '', ( -3.33066907387547E-016, -1.00000000000000, -0.000000000000000 ) );
#193 = DIRECTION( '', ( -1.00000000000000, 3.33066907387547E-016, 0.000000000000000 ) );
#194 = ORIENTED_EDGE( '', *, *, #277, .F. );
#195 = ORIENTED_EDGE( '', *, *, #288, .F. );
#196 = ORIENTED_EDGE( '', *, *, #289, .F. );
#197 = ORIENTED_EDGE( '', *, *, #290, .T. );
#198 = CARTESIAN_POINT( '', ( -9.00000000000000, -1.50000000000000, 15.0000000000000 ) );
#199 = DIRECTION( '', ( 1.00000000000000, -0.000000000000000, 0.000000000000000 ) );
#200 = DIRECTION( '', ( -0.000000000000000, -1.00000000000000, -0.000000000000000 ) );
#201 = ORIENTED_EDGE( '', *, *, #278, .F. );
#202 = ORIENTED_EDGE( '', *, *, #290, .F. );
#203 = ORIENTED_EDGE( '', *, *, #291, .F. );
#204 = ORIENTED_EDGE( '', *, *, #283, .T. );
#205 = CARTESIAN_POINT( '', ( -9.00000000000000, 1.50000000000000, 15.0000000000000 ) );
#206 = DIRECTION( '', ( 1.11022302462516E-016, 1.00000000000000, 0.000000000000000 ) );
#207 = DIRECTION( '', ( 1.00000000000000, -1.11022302462516E-016, -0.000000000000000 ) );
#208 = ORIENTED_EDGE( '', *, *, #275, .F. );
#209 = ORIENTED_EDGE( '', *, *, #292, .F. );
#210 = ORIENTED_EDGE( '', *, *, #293, .F. );
#211 = ORIENTED_EDGE( '', *, *, #286, .T. );
#212 = CARTESIAN_POINT( '', ( -26.5000000000000, -15.0000000000000, 15.0000000000000 ) );
#213 = DIRECTION( '', ( 0.707106781186548, -0.707106781186547, 0.000000000000000 ) );
#214 = DIRECTION( '', ( -0.707106781186547, -0.707106781186548, -0.000000000000000 ) );
#215 = ORIENTED_EDGE( '', *, *, #292, .T. );
#216 = ORIENTED_EDGE( '', *, *, #274, .F. );
#217 = ORIENTED_EDGE( '', *, *, #294, .F. );
#218 = CARTESIAN_POINT( '', ( -20.0000000000000, -6.00000000000000, 0.000000000000000 ) );
#219 = DIRECTION( '', ( -1.00000000000000, 0.000000000000000, 0.000000000000000 ) );
#220 = DIRECTION( '', ( 0.000000000000000, 1.00000000000000, 0.000000000000000 ) );
#221 = ORIENTED_EDGE( '', *, *, #285, .T. );
#222 = ORIENTED_EDGE( '', *, *, #295, .F. );
#223 = ORIENTED_EDGE( '', *, *, #280, .F. );
#224 = CARTESIAN_POINT( '', ( -20.0000000000000, -6.00000000000000, 0.000000000000000 ) );
#225 = DIRECTION( '', ( -1.00000000000000, 0.000000000000000, 0.000000000000000 ) );
#226 = DIRECTION( '', ( 0.000000000000000, 1.00000000000000, 0.000000000000000 ) );
#227 = ORIENTED_EDGE( '', *, *, #273, .T. );
#228 = ORIENTED_EDGE( '', *, *, #296, .F. );
#229 = ORIENTED_EDGE( '', *, *, #281, .T. );
#230 = ORIENTED_EDGE( '', *, *, #295, .T. );
#231 = ORIENTED_EDGE( '', *, *, #284, .T. );
#232 = ORIENTED_EDGE( '', *, *, #291, .T. );
#233 = ORIENTED_EDGE( '', *, *, #289, .T. );
#234 = ORIENTED_EDGE( '', *, *, #287, .T. );
#235 = ORIENTED_EDGE( '', *, *, #293, .T. );
#236 = ORIENTED_EDGE( '', *, *, #294, .T. );
#237 = CARTESIAN_POINT( '', ( -10.0000000000000, 6.12323399573676E-016, 0.000000000000000 ) );
#238 = DIRECTION( '', ( -1.00000000000000, 6.12323399573677E-017, -0.000000000000000 ) );
#239 = DIRECTION( '', ( -6.12323399573677E-017, -1.00000000000000, 0.000000000000000 ) );
#240 = ORIENTED_EDGE( '', *, *, #271, .F. );
#241 = ORIENTED_EDGE( '', *, *, #297, .F. );
#242 = ORIENTED_EDGE( '', *, *, #282, .T. );
#243 = ORIENTED_EDGE( '', *, *, #296, .T. );
#244 = CARTESIAN_POINT( '', ( -3.67394039744206E-016, -9.50000000000000, 0.000000000000000 ) );
#245 = DIRECTION( '', ( 1.00000000000000, -1.46957615897682E-016, 0.000000000000000 ) );
#246 = DIRECTION( '', ( -1.46957615897682E-016, -1.00000000000000, 0.000000000000000 ) );
#247 = ORIENTED_EDGE( '', *, *, #270, .T. );
#248 = ORIENTED_EDGE( '', *, *, #298, .F. );
#249 = ORIENTED_EDGE( '', *, *, #272, .T. );
#250 = ORIENTED_EDGE( '', *, *, #297, .T. );
#251 = CARTESIAN_POINT( '', ( 11.5000000000000, -7.04171909509728E-016, 0.000000000000000 ) );
#252 = DIRECTION( '', ( -1.00000000000000, 6.12323399573677E-017, -0.000000000000000 ) );
#253 = DIRECTION( '', ( -6.12323399573677E-017, -1.00000000000000, 0.000000000000000 ) );
#254 = ORIENTED_EDGE( '', *, *, #266, .T. );
#255 = ORIENTED_EDGE( '', *, *, #299, .F. );
#256 = ORIENTED_EDGE( '', *, *, #268, .T. );
#257 = ORIENTED_EDGE( '', *, *, #298, .T. );
#258 = CARTESIAN_POINT( '', ( 23.5000000000000, -1.43895998899814E-015, 0.000000000000000 ) );
#259 = DIRECTION( '', ( -1.00000000000000, 6.12323399573677E-017, -0.000000000000000 ) );
#260 = DIRECTION( '', ( -6.12323399573677E-017, -1.00000000000000, 0.000000000000000 ) );
#261 = ORIENTED_EDGE( '', *, *, #269, .T. );
#262 = ORIENTED_EDGE( '', *, *, #299, .T. );
#263 = CARTESIAN_POINT( '', ( 24.0000000000000, -3.00000000000000, 0.000000000000000 ) );
#264 = DIRECTION( '', ( 1.00000000000000, 0.000000000000000, 0.000000000000000 ) );
#265 = DIRECTION( '', ( 0.000000000000000, -1.00000000000000, 0.000000000000000 ) );
#266 = EDGE_CURVE( '', #300, #301, #302, .T. );
#267 = EDGE_CURVE( '', #300, #303, #304, .T. );
#268 = EDGE_CURVE( '', #305, #303, #306, .T. );
#269 = EDGE_CURVE( '', #301, #305, #307, .T. );
#270 = EDGE_CURVE( '', #308, #300, #309, .T. );
#271 = EDGE_CURVE( '', #308, #310, #311, .T. );
#272 = EDGE_CURVE( '', #303, #310, #312, .T. );
#273 = EDGE_CURVE( '', #313, #314, #315, .T. );
#274 = EDGE_CURVE( '', #313, #316, #317, .T. );
#275 = EDGE_CURVE( '', #316, #318, #319, .T. );
#276 = EDGE_CURVE( '', #318, #320, #321, .T. );
#277 = EDGE_CURVE( '', #320, #322, #323, .T. );
#278 = EDGE_CURVE( '', #322, #324, #325, .T. );
#279 = EDGE_CURVE( '', #324, #326, #327, .T. );
#280 = EDGE_CURVE( '', #326, #328, #329, .T. );
#281 = EDGE_CURVE( '', #330, #328, #331, .T. );
#282 = EDGE_CURVE( '', #314, #330, #332, .T. );
#283 = EDGE_CURVE( '', #333, #324, #334, .T. );
#284 = EDGE_CURVE( '', #335, #333, #336, .T. );
#285 = EDGE_CURVE( '', #326, #335, #337, .T. );
#286 = EDGE_CURVE( '', #338, #318, #339, .T. );
#287 = EDGE_CURVE( '', #340, #338, #341, .T. );
#288 = EDGE_CURVE( '', #340, #320, #342, .T. );
#289 = EDGE_CURVE( '', #343, #340, #344, .T. );
#290 = EDGE_CURVE( '', #343, #322, #345, .T. );
#291 = EDGE_CURVE( '', #333, #343, #346, .T. );
#292 = EDGE_CURVE( '', #347, #316, #348, .T. );
#293 = EDGE_CURVE( '', #338, #347, #349, .T. );
#294 = EDGE_CURVE( '', #347, #313, #350, .T. );
#295 = EDGE_CURVE( '', #328, #335, #351, .T. );
#296 = EDGE_CURVE( '', #330, #314, #352, .T. );
#297 = EDGE_CURVE( '', #310, #308, #353, .T. );
#298 = EDGE_CURVE( '', #303, #300, #354, .T. );
#299 = EDGE_CURVE( '', #305, #301, #355, .T. );
#300 = VERTEX_POINT( '', #356 );
#301 = VERTEX_POINT( '', #357 );
#302 = LINE( '', #358, #359 );
#303 = VERTEX_POINT( '', #360 );
#304 = CIRCLE( '', #361, 7.00000000000000 );
#305 = VERTEX_POINT( '', #362 );
#306 = LINE( '', #363, #364 );
#307 = CIRCLE( '', #365, 6.00000000000000 );
#308 = VERTEX_POINT( '', #366 );
#309 = LINE( '', #367, #368 );
#310 = VERTEX_POINT( '', #369 );
#311 = CIRCLE( '', #370, 7.00000000000000 );
#312 = LINE( '', #371, #372 );
#313 = VERTEX_POINT( '', #373 );
#314 = VERTEX_POINT( '', #374 );
#315 = LINE( '', #375, #376 );
#316 = VERTEX_POINT( '', #377 );
#317 = CIRCLE( '', #378, 12.0000000000000 );
#318 = VERTEX_POINT( '', #379 );
#319 = ELLIPSE( '', #380, 16.9705627484771, 12.0000000000000 );
#320 = VERTEX_POINT( '', #381 );
#321 = LINE( '', #382, #383 );
#322 = VERTEX_POINT( '', #384 );
#323 = CIRCLE( '', #385, 12.0000000000000 );
#324 = VERTEX_POINT( '', #386 );
#325 = LINE( '', #387, #388 );
#326 = VERTEX_POINT( '', #389 );
#327 = ELLIPSE( '', #390, 16.9705627484771, 12.0000000000000 );
#328 = VERTEX_POINT( '', #391 );
#329 = CIRCLE( '', #392, 12.0000000000000 );
#330 = VERTEX_POINT( '', #393 );
#331 = LINE( '', #394, #395 );
#332 = CIRCLE( '', #396, 12.0000000000000 );
#333 = VERTEX_POINT( '', #397 );
#334 = LINE( '', #398, #399 );
#335 = VERTEX_POINT( '', #400 );
#336 = ELLIPSE( '', #401, 16.9705627484771, 12.0000000000000 );
#337 = LINE( '', #402, #403 );
#338 = VERTEX_POINT( '', #404 );
#339 = LINE( '', #405, #406 );
#340 = VERTEX_POINT( '', #407 );
#341 = LINE( '', #408, #409 );
#342 = LINE( '', #410, #411 );
#343 = VERTEX_POINT( '', #412 );
#344 = CIRCLE( '', #413, 12.0000000000000 );
#345 = LINE( '', #414, #415 );
#346 = LINE( '', #416, #417 );
#347 = VERTEX_POINT( '', #418 );
#348 = LINE( '', #419, #420 );
#349 = ELLIPSE( '', #421, 16.9705627484771, 12.0000000000000 );
#350 = CIRCLE( '', #422, 12.0000000000000 );
#351 = CIRCLE( '', #423, 12.0000000000000 );
#352 = CIRCLE( '', #424, 12.0000000000000 );
#353 = CIRCLE( '', #425, 7.00000000000000 );
#354 = CIRCLE( '', #426, 7.00000000000000 );
#355 = CIRCLE( '', #427, 6.00000000000000 );
#356 = CARTESIAN_POINT( '', ( 23.0000000000000, -7.00000000000000, 0.000000000000000 ) );
#357 = CARTESIAN_POINT( '', ( 24.0000000000000, -6.00000000000000, 0.000000000000000 ) );
#358 = CARTESIAN_POINT( '', ( 23.5000000000000, -6.50000000000000, 7.95994129984545E-016 ) );
#359 = VECTOR( '', #428, 1.00000000000000 );
#360 = CARTESIAN_POINT( '', ( 23.0000000000000, 7.00000000000000, -8.57224447675664E-016 ) );
#361 = AXIS2_PLACEMENT_3D( '', #429, #430, #431 );
#362 = CARTESIAN_POINT( '', ( 24.0000000000000, 6.00000000000000, -7.34763812293426E-016 ) );
#363 = CARTESIAN_POINT( '', ( 23.5000000000000, 6.50000000000000, -7.95994129984545E-016 ) );
#364 = VECTOR( '', #432, 1.00000000000000 );
#365 = AXIS2_PLACEMENT_3D( '', #433, #434, #435 );
#366 = CARTESIAN_POINT( '', ( 0.000000000000000, -7.00000000000000, 0.000000000000000 ) );
#367 = CARTESIAN_POINT( '', ( 11.5000000000000, -7.00000000000000, 8.57224447675664E-016 ) );
#368 = VECTOR( '', #436, 1.00000000000000 );
#369 = CARTESIAN_POINT( '', ( 4.28626379701574E-016, 7.00000000000000, -8.57224447675664E-016 ) );
#370 = AXIS2_PLACEMENT_3D( '', #437, #438, #439 );
#371 = CARTESIAN_POINT( '', ( 11.5000000000000, 7.00000000000000, -8.57224447675664E-016 ) );
#372 = VECTOR( '', #440, 1.00000000000000 );
#373 = CARTESIAN_POINT( '', ( -20.0000000000000, -12.0000000000000, 1.46952762458685E-015 ) );
#374 = CARTESIAN_POINT( '', ( -7.34788079488412E-016, -12.0000000000000, 0.000000000000000 ) );
#375 = CARTESIAN_POINT( '', ( -10.0000000000000, -12.0000000000000, 1.46952762458685E-015 ) );
#376 = VECTOR( '', #441, 1.00000000000000 );
#377 = CARTESIAN_POINT( '', ( -20.0000000000000, -8.50000000000000, -8.47053717304871 ) );
#378 = AXIS2_PLACEMENT_3D( '', #442, #443, #444 );
#379 = CARTESIAN_POINT( '', ( -13.0000000000000, -1.50000000000000, -11.9058808997907 ) );
#380 = AXIS2_PLACEMENT_3D( '', #445, #446, #447 );
#381 = CARTESIAN_POINT( '', ( -9.00000000000000, -1.50000000000000, -11.9058808997907 ) );
#382 = CARTESIAN_POINT( '', ( -11.0000000000000, -1.50000000000000, -11.9058808997907 ) );
#383 = VECTOR( '', #448, 1.00000000000000 );
#384 = CARTESIAN_POINT( '', ( -9.00000000000000, 1.50000000000000, -11.9058808997907 ) );
#385 = AXIS2_PLACEMENT_3D( '', #449, #450, #451 );
#386 = CARTESIAN_POINT( '', ( -13.0000000000000, 1.50000000000000, -11.9058808997907 ) );
#387 = CARTESIAN_POINT( '', ( -11.0000000000000, 1.50000000000000, -11.9058808997907 ) );
#388 = VECTOR( '', #452, 1.00000000000000 );
#389 = CARTESIAN_POINT( '', ( -20.0000000000000, 8.50000000000000, -8.47053717304871 ) );
#390 = AXIS2_PLACEMENT_3D( '', #453, #454, #455 );
#391 = CARTESIAN_POINT( '', ( -20.0000000000000, 12.0000000000000, -1.46952762458685E-015 ) );
#392 = AXIS2_PLACEMENT_3D( '', #456, #457, #458 );
#393 = CARTESIAN_POINT( '', ( 7.34788079488412E-016, 12.0000000000000, -1.46952762458685E-015 ) );
#394 = CARTESIAN_POINT( '', ( -10.0000000000000, 12.0000000000000, -1.46952762458685E-015 ) );
#395 = VECTOR( '', #459, 1.00000000000000 );
#396 = AXIS2_PLACEMENT_3D( '', #460, #461, #462 );
#397 = CARTESIAN_POINT( '', ( -13.0000000000000, 1.50000000000000, 11.9058808997907 ) );
#398 = CARTESIAN_POINT( '', ( -13.0000000000000, 1.50000000000000, 15.0000000000000 ) );
#399 = VECTOR( '', #463, 1.00000000000000 );
#400 = CARTESIAN_POINT( '', ( -20.0000000000000, 8.50000000000000, 8.47053717304871 ) );
#401 = AXIS2_PLACEMENT_3D( '', #464, #465, #466 );
#402 = CARTESIAN_POINT( '', ( -20.0000000000000, 8.50000000000000, 7.50000000000000 ) );
#403 = VECTOR( '', #467, 1.00000000000000 );
#404 = CARTESIAN_POINT( '', ( -13.0000000000000, -1.50000000000000, 11.9058808997907 ) );
#405 = CARTESIAN_POINT( '', ( -13.0000000000000, -1.50000000000000, 15.0000000000000 ) );
#406 = VECTOR( '', #468, 1.00000000000000 );
#407 = CARTESIAN_POINT( '', ( -9.00000000000000, -1.50000000000000, 11.9058808997907 ) );
#408 = CARTESIAN_POINT( '', ( -11.0000000000000, -1.50000000000000, 11.9058808997907 ) );
#409 = VECTOR( '', #469, 1.00000000000000 );
#410 = CARTESIAN_POINT( '', ( -9.00000000000000, -1.50000000000000, 15.0000000000000 ) );
#411 = VECTOR( '', #470, 1.00000000000000 );
#412 = CARTESIAN_POINT( '', ( -9.00000000000000, 1.50000000000000, 11.9058808997907 ) );
#413 = AXIS2_PLACEMENT_3D( '', #471, #472, #473 );
#414 = CARTESIAN_POINT( '', ( -9.00000000000000, 1.50000000000000, 15.0000000000000 ) );
#415 = VECTOR( '', #474, 1.00000000000000 );
#416 = CARTESIAN_POINT( '', ( -11.0000000000000, 1.50000000000000, 11.9058808997907 ) );
#417 = VECTOR( '', #475, 1.00000000000000 );
#418 = CARTESIAN_POINT( '', ( -20.0000000000000, -8.50000000000000, 8.47053717304871 ) );
#419 = CARTESIAN_POINT( '', ( -20.0000000000000, -8.50000000000000, 7.50000000000000 ) );
#420 = VECTOR( '', #476, 1.00000000000000 );
#421 = AXIS2_PLACEMENT_3D( '', #477, #478, #479 );
#422 = AXIS2_PLACEMENT_3D( '', #480, #481, #482 );
#423 = AXIS2_PLACEMENT_3D( '', #483, #484, #485 );
#424 = AXIS2_PLACEMENT_3D( '', #486, #487, #488 );
#425 = AXIS2_PLACEMENT_3D( '', #489, #490, #491 );
#426 = AXIS2_PLACEMENT_3D( '', #492, #493, #494 );
#427 = AXIS2_PLACEMENT_3D( '', #495, #496, #497 );
#428 = DIRECTION( '', ( 0.707106781186548, 0.707106781186547, -8.65927457071936E-017 ) );
#429 = CARTESIAN_POINT( '', ( 23.0000000000000, -1.40834381901946E-015, 0.000000000000000 ) );
#430 = DIRECTION( '', ( 1.00000000000000, -6.12323399573677E-017, 0.000000000000000 ) );
#431 = DIRECTION( '', ( -6.12323399573677E-017, -1.00000000000000, 0.000000000000000 ) );
#432 = DIRECTION( '', ( -0.707106781186548, 0.707106781186547, -8.65927457071936E-017 ) );
#433 = CARTESIAN_POINT( '', ( 24.0000000000000, -1.46957615897682E-015, 0.000000000000000 ) );
#434 = DIRECTION( '', ( 1.00000000000000, -6.12323399573677E-017, 0.000000000000000 ) );
#435 = DIRECTION( '', ( -6.12323399573677E-017, -1.00000000000000, 0.000000000000000 ) );
#436 = DIRECTION( '', ( 1.00000000000000, -6.12323399573677E-017, 0.000000000000000 ) );
#437 = CARTESIAN_POINT( '', ( 0.000000000000000, -1.97215226305253E-031, 0.000000000000000 ) );
#438 = DIRECTION( '', ( 1.00000000000000, -6.12323399573677E-017, 0.000000000000000 ) );
#439 = DIRECTION( '', ( -6.12323399573677E-017, -1.00000000000000, 0.000000000000000 ) );
#440 = DIRECTION( '', ( -1.00000000000000, 6.12323399573677E-017, -0.000000000000000 ) );
#441 = DIRECTION( '', ( 1.00000000000000, -6.12323399573677E-017, 0.000000000000000 ) );
#442 = CARTESIAN_POINT( '', ( -20.0000000000000, 1.22464679914735E-015, 0.000000000000000 ) );
#443 = DIRECTION( '', ( 1.00000000000000, -6.12323399573677E-017, 0.000000000000000 ) );
#444 = DIRECTION( '', ( -6.12323399573677E-017, -1.00000000000000, 0.000000000000000 ) );
#445 = CARTESIAN_POINT( '', ( -11.5000000000000, 7.04171909509728E-016, 0.000000000000000 ) );
#446 = DIRECTION( '', ( 0.707106781186548, -0.707106781186547, 0.000000000000000 ) );
#447 = DIRECTION( '', ( -0.707106781186547, -0.707106781186548, 0.000000000000000 ) );
#448 = DIRECTION( '', ( 1.00000000000000, -6.12323399573677E-017, 0.000000000000000 ) );
#449 = CARTESIAN_POINT( '', ( -9.00000000000000, 5.51091059616309E-016, 0.000000000000000 ) );
#450 = DIRECTION( '', ( 1.00000000000000, 0.000000000000000, 0.000000000000000 ) );
#451 = DIRECTION( '', ( 0.000000000000000, -1.00000000000000, 0.000000000000000 ) );
#452 = DIRECTION( '', ( -1.00000000000000, 6.12323399573677E-017, -0.000000000000000 ) );
#453 = CARTESIAN_POINT( '', ( -11.5000000000000, 7.04171909509728E-016, 0.000000000000000 ) );
#454 = DIRECTION( '', ( 0.707106781186548, 0.707106781186548, 0.000000000000000 ) );
#455 = DIRECTION( '', ( 0.707106781186548, -0.707106781186548, 0.000000000000000 ) );
#456 = CARTESIAN_POINT( '', ( -20.0000000000000, 1.22464679914735E-015, 0.000000000000000 ) );
#457 = DIRECTION( '', ( 1.00000000000000, -6.12323399573677E-017, 0.000000000000000 ) );
#458 = DIRECTION( '', ( -6.12323399573677E-017, -1.00000000000000, 0.000000000000000 ) );
#459 = DIRECTION( '', ( -1.00000000000000, 6.12323399573677E-017, -0.000000000000000 ) );
#460 = CARTESIAN_POINT( '', ( 0.000000000000000, -1.97215226305253E-031, 0.000000000000000 ) );
#461 = DIRECTION( '', ( 1.00000000000000, -6.12323399573677E-017, 0.000000000000000 ) );
#462 = DIRECTION( '', ( -6.12323399573677E-017, -1.00000000000000, 0.000000000000000 ) );
#463 = DIRECTION( '', ( 0.000000000000000, 0.000000000000000, -1.00000000000000 ) );
#464 = CARTESIAN_POINT( '', ( -11.5000000000000, 7.04171909509728E-016, 0.000000000000000 ) );
#465 = DIRECTION( '', ( 0.707106781186548, 0.707106781186548, 0.000000000000000 ) );
#466 = DIRECTION( '', ( 0.707106781186548, -0.707106781186548, 0.000000000000000 ) );
#467 = DIRECTION( '', ( 0.000000000000000, -0.000000000000000, 1.00000000000000 ) );
#468 = DIRECTION( '', ( 0.000000000000000, 0.000000000000000, -1.00000000000000 ) );
#469 = DIRECTION( '', ( -1.00000000000000, 6.12323399573677E-017, -0.000000000000000 ) );
#470 = DIRECTION( '', ( 0.000000000000000, 0.000000000000000, -1.00000000000000 ) );
#471 = CARTESIAN_POINT( '', ( -9.00000000000000, 5.51091059616309E-016, 0.000000000000000 ) );
#472 = DIRECTION( '', ( 1.00000000000000, 0.000000000000000, 0.000000000000000 ) );
#473 = DIRECTION( '', ( 0.000000000000000, -1.00000000000000, 0.000000000000000 ) );
#474 = DIRECTION( '', ( 0.000000000000000, 0.000000000000000, -1.00000000000000 ) );
#475 = DIRECTION( '', ( 1.00000000000000, -6.12323399573677E-017, 0.000000000000000 ) );
#476 = DIRECTION( '', ( -0.000000000000000, -0.000000000000000, -1.00000000000000 ) );
#477 = CARTESIAN_POINT( '', ( -11.5000000000000, 7.04171909509728E-016, 0.000000000000000 ) );
#478 = DIRECTION( '', ( 0.707106781186548, -0.707106781186547, 0.000000000000000 ) );
#479 = DIRECTION( '', ( -0.707106781186547, -0.707106781186548, 0.000000000000000 ) );
#480 = CARTESIAN_POINT( '', ( -20.0000000000000, 1.22464679914735E-015, 0.000000000000000 ) );
#481 = DIRECTION( '', ( 1.00000000000000, -6.12323399573677E-017, 0.000000000000000 ) );
#482 = DIRECTION( '', ( -6.12323399573677E-017, -1.00000000000000, 0.000000000000000 ) );
#483 = CARTESIAN_POINT( '', ( -20.0000000000000, 1.22464679914735E-015, 0.000000000000000 ) );
#484 = DIRECTION( '', ( 1.00000000000000, -6.12323399573677E-017, 0.000000000000000 ) );
#485 = DIRECTION( '', ( -6.12323399573677E-017, -1.00000000000000, 0.000000000000000 ) );
#486 = CARTESIAN_POINT( '', ( 0.000000000000000, -1.97215226305253E-031, 0.000000000000000 ) );
#487 = DIRECTION( '', ( 1.00000000000000, -6.12323399573677E-017, 0.000000000000000 ) );
#488 = DIRECTION( '', ( -6.12323399573677E-017, -1.00000000000000, 0.000000000000000 ) );
#489 = CARTESIAN_POINT( '', ( 0.000000000000000, -1.97215226305253E-031, 0.000000000000000 ) );
#490 = DIRECTION( '', ( 1.00000000000000, -6.12323399573677E-017, 0.000000000000000 ) );
#491 = DIRECTION( '', ( -6.12323399573677E-017, -1.00000000000000, 0.000000000000000 ) );
#492 = CARTESIAN_POINT( '', ( 23.0000000000000, -1.40834381901946E-015, 0.000000000000000 ) );
#493 = DIRECTION( '', ( 1.00000000000000, -6.12323399573677E-017, 0.000000000000000 ) );
#494 = DIRECTION( '', ( -6.12323399573677E-017, -1.00000000000000, 0.000000000000000 ) );
#495 = CARTESIAN_POINT( '', ( 24.0000000000000, -1.46957615897682E-015, 0.000000000000000 ) );
#496 = DIRECTION( '', ( 1.00000000000000, -6.12323399573677E-017, 0.000000000000000 ) );
#497 = DIRECTION( '', ( -6.12323399573677E-017, -1.00000000000000, 0.000000000000000 ) );
ENDSEC;
END-ISO-10303-21;
