ISO-10303-21;
HEADER;
FILE_DESCRIPTION( ( '' ), '1' );
FILE_NAME( 'C:/Users/Bollwitte/Desktop/987/K0172.308.stp', '2012-10-29T10:57:45', ( '' ), ( '' ), ' ', ' ', ' ' );
FILE_SCHEMA( ( 'CONFIG_CONTROL_DESIGN' ) );
ENDSEC;
DATA;
#1 = DESIGN_CONTEXT( '', #27, 'design' );
#2 = APPLICATION_PROTOCOL_DEFINITION( 'INTERNATIONAL STANDARD', 'config_control_design', 1994, #27 );
#3 = PRODUCT_CATEGORY_RELATIONSHIP( 'NONE', 'NONE', #28, #29 );
#4 = DATE_AND_TIME( #30, #31 );
#5 = DATE_TIME_ROLE( 'creation_date' );
#6 = DATE_TIME_ROLE( 'classification_date' );
#7 = PERSON_AND_ORGANIZATION_ROLE( 'creator' );
#8 = PERSON_AND_ORGANIZATION_ROLE( 'design_supplier' );
#9 = PERSON_AND_ORGANIZATION_ROLE( 'classification_officer' );
#10 = PERSON_AND_ORGANIZATION_ROLE( 'design_owner' );
#11 = APPROVAL_PERSON_ORGANIZATION( #32, #33, #34 );
#12 = APPROVAL_DATE_TIME( #4, #33 );
#13 = CC_DESIGN_APPROVAL( #33, ( #35, #36, #37 ) );
#14 = CC_DESIGN_DATE_AND_TIME_ASSIGNMENT( #4, #5, ( #37 ) );
#15 = CC_DESIGN_DATE_AND_TIME_ASSIGNMENT( #4, #6, ( #35 ) );
#16 = CC_DESIGN_PERSON_AND_ORGANIZATION_ASSIGNMENT( #32, #10, ( #38 ) );
#17 = CC_DESIGN_PERSON_AND_ORGANIZATION_ASSIGNMENT( #32, #7, ( #37 ) );
#18 = CC_DESIGN_PERSON_AND_ORGANIZATION_ASSIGNMENT( #32, #7, ( #36 ) );
#19 = CC_DESIGN_PERSON_AND_ORGANIZATION_ASSIGNMENT( #32, #8, ( #36 ) );
#20 = CC_DESIGN_SECURITY_CLASSIFICATION( #35, ( #36 ) );
#21 = CC_DESIGN_PERSON_AND_ORGANIZATION_ASSIGNMENT( #32, #9, ( #35 ) );
#22 = SHAPE_DEFINITION_REPRESENTATION( #39, #40 );
#23 =  ( GEOMETRIC_REPRESENTATION_CONTEXT( 3 )GLOBAL_UNCERTAINTY_ASSIGNED_CONTEXT( ( #43 ) )GLOBAL_UNIT_ASSIGNED_CONTEXT( ( #45, #46, #47 ) )REPRESENTATION_CONTEXT( 'NONE', 'WORKSPACE' ) );
#27 = APPLICATION_CONTEXT( 'CONFIGURATION CONTROLLED 3D DESIGNS OF MECHANICAL PARTS AND ASSEMBLIES' );
#28 = PRODUCT_CATEGORY( 'part', 'NONE' );
#29 = PRODUCT_RELATED_PRODUCT_CATEGORY( 'detail', ' ', ( #38 ) );
#30 = CALENDAR_DATE( 2012, 29, 9 );
#31 = LOCAL_TIME( 11, 57, 45.0000000000000, #49 );
#32 = PERSON_AND_ORGANIZATION( #50, #51 );
#33 = APPROVAL( #52, 'SOLID MODEL' );
#34 = APPROVAL_ROLE( 'APPROVED' );
#35 = SECURITY_CLASSIFICATION( '', '', #53 );
#36 = PRODUCT_DEFINITION_FORMATION_WITH_SPECIFIED_SOURCE( ' ', 'NONE', #38, .NOT_KNOWN. );
#37 = PRODUCT_DEFINITION( 'NONE', 'NONE', #36, #1 );
#38 = PRODUCT( '1', '1', 'PART-1-DESC', ( #54 ) );
#39 = PRODUCT_DEFINITION_SHAPE( 'NONE', 'NONE', #37 );
#40 = ADVANCED_BREP_SHAPE_REPRESENTATION( '1', ( #55, #56 ), #23 );
#43 = UNCERTAINTY_MEASURE_WITH_UNIT( LENGTH_MEASURE( 1.00000000000000E-006 ), #45, '', '' );
#45 =  ( CONVERSION_BASED_UNIT( 'MILLIMETRE', #59 )LENGTH_UNIT(  )NAMED_UNIT( #62 ) );
#46 =  ( NAMED_UNIT( #64 )PLANE_ANGLE_UNIT(  )SI_UNIT( $, .RADIAN. ) );
#47 =  ( NAMED_UNIT( #64 )SOLID_ANGLE_UNIT(  )SI_UNIT( $, .STERADIAN. ) );
#49 = COORDINATED_UNIVERSAL_TIME_OFFSET( 1, 0, .AHEAD. );
#50 = PERSON( '', 'UNSPECIFIED', $, $, $, $ );
#51 = ORGANIZATION( 'UNSPECIFIED', 'UNSPECIFIED', 'UNSPECIFIED' );
#52 = APPROVAL_STATUS( 'approved' );
#53 = SECURITY_CLASSIFICATION_LEVEL( 'unclassified' );
#54 = MECHANICAL_CONTEXT( '', #27, 'mechanical' );
#55 = MANIFOLD_SOLID_BREP( '1', #70 );
#56 = AXIS2_PLACEMENT_3D( '', #71, #72, #73 );
#59 = LENGTH_MEASURE_WITH_UNIT( LENGTH_MEASURE( 1.00000000000000 ), #74 );
#62 = DIMENSIONAL_EXPONENTS( 1.00000000000000, 0.000000000000000, 0.000000000000000, 0.000000000000000, 0.000000000000000, 0.000000000000000, 0.000000000000000 );
#64 = DIMENSIONAL_EXPONENTS( 0.000000000000000, 0.000000000000000, 0.000000000000000, 0.000000000000000, 0.000000000000000, 0.000000000000000, 0.000000000000000 );
#70 = CLOSED_SHELL( '', ( #75, #76, #77, #78, #79, #80, #81, #82, #83, #84, #85 ) );
#71 = CARTESIAN_POINT( '', ( 0.000000000000000, 0.000000000000000, 0.000000000000000 ) );
#72 = DIRECTION( '', ( 0.000000000000000, 0.000000000000000, 1.00000000000000 ) );
#73 = DIRECTION( '', ( 1.00000000000000, 0.000000000000000, 0.000000000000000 ) );
#74 =  ( NAMED_UNIT( #62 )LENGTH_UNIT(  )SI_UNIT( .MILLI., .METRE. ) );
#75 = ADVANCED_FACE( '', ( #87 ), #88, .T. );
#76 = ADVANCED_FACE( '', ( #89 ), #90, .T. );
#77 = ADVANCED_FACE( '', ( #91 ), #92, .T. );
#78 = ADVANCED_FACE( '', ( #93 ), #94, .T. );
#79 = ADVANCED_FACE( '', ( #95 ), #96, .T. );
#80 = ADVANCED_FACE( '', ( #97 ), #98, .T. );
#81 = ADVANCED_FACE( '', ( #99 ), #100, .T. );
#82 = ADVANCED_FACE( '', ( #101, #102 ), #103, .T. );
#83 = ADVANCED_FACE( '', ( #104 ), #105, .T. );
#84 = ADVANCED_FACE( '', ( #106 ), #107, .T. );
#85 = ADVANCED_FACE( '', ( #108 ), #109, .T. );
#87 = FACE_OUTER_BOUND( '', #110, .T. );
#88 = CYLINDRICAL_SURFACE( '', #111, 11.5000000000000 );
#89 = FACE_OUTER_BOUND( '', #112, .T. );
#90 = CONICAL_SURFACE( '', #113, 10.2500000000000, 0.0656948015524647 );
#91 = FACE_OUTER_BOUND( '', #114, .T. );
#92 = CONICAL_SURFACE( '', #115, 3.61650000000000, 0.785398163397449 );
#93 = FACE_OUTER_BOUND( '', #116, .T. );
#94 = CYLINDRICAL_SURFACE( '', #117, 4.00000000000000 );
#95 = FACE_OUTER_BOUND( '', #118, .T. );
#96 = CYLINDRICAL_SURFACE( '', #119, 4.00000000000000 );
#97 = FACE_OUTER_BOUND( '', #120, .T. );
#98 = PLANE( '', #121 );
#99 = FACE_OUTER_BOUND( '', #122, .T. );
#100 = CONICAL_SURFACE( '', #123, 3.61650000000000, 0.785398163397449 );
#101 = FACE_BOUND( '', #124, .T. );
#102 = FACE_OUTER_BOUND( '', #125, .T. );
#103 = PLANE( '', #126 );
#104 = FACE_OUTER_BOUND( '', #127, .T. );
#105 = CONICAL_SURFACE( '', #128, 10.2500000000000, 0.0656948015524647 );
#106 = FACE_OUTER_BOUND( '', #129, .T. );
#107 = CYLINDRICAL_SURFACE( '', #130, 11.5000000000000 );
#108 = FACE_OUTER_BOUND( '', #131, .T. );
#109 = SPHERICAL_SURFACE( '', #132, 59.9999999999993 );
#110 = EDGE_LOOP( '', ( #133, #134, #135, #136 ) );
#111 = AXIS2_PLACEMENT_3D( '', #137, #138, #139 );
#112 = EDGE_LOOP( '', ( #140, #141, #142, #143 ) );
#113 = AXIS2_PLACEMENT_3D( '', #144, #145, #146 );
#114 = EDGE_LOOP( '', ( #147, #148, #149, #150 ) );
#115 = AXIS2_PLACEMENT_3D( '', #151, #152, #153 );
#116 = EDGE_LOOP( '', ( #154, #155, #156, #157 ) );
#117 = AXIS2_PLACEMENT_3D( '', #158, #159, #160 );
#118 = EDGE_LOOP( '', ( #161, #162, #163, #164 ) );
#119 = AXIS2_PLACEMENT_3D( '', #165, #166, #167 );
#120 = EDGE_LOOP( '', ( #168, #169 ) );
#121 = AXIS2_PLACEMENT_3D( '', #170, #171, #172 );
#122 = EDGE_LOOP( '', ( #173, #174, #175, #176 ) );
#123 = AXIS2_PLACEMENT_3D( '', #177, #178, #179 );
#124 = EDGE_LOOP( '', ( #180, #181 ) );
#125 = EDGE_LOOP( '', ( #182, #183 ) );
#126 = AXIS2_PLACEMENT_3D( '', #184, #185, #186 );
#127 = EDGE_LOOP( '', ( #187, #188, #189, #190 ) );
#128 = AXIS2_PLACEMENT_3D( '', #191, #192, #193 );
#129 = EDGE_LOOP( '', ( #194, #195, #196, #197 ) );
#130 = AXIS2_PLACEMENT_3D( '', #198, #199, #200 );
#131 = EDGE_LOOP( '', ( #201, #202 ) );
#132 = AXIS2_PLACEMENT_3D( '', #203, #204, #205 );
#133 = ORIENTED_EDGE( '', *, *, #206, .F. );
#134 = ORIENTED_EDGE( '', *, *, #207, .T. );
#135 = ORIENTED_EDGE( '', *, *, #208, .F. );
#136 = ORIENTED_EDGE( '', *, *, #209, .F. );
#137 = CARTESIAN_POINT( '', ( 0.000000000000000, 48.4438024039015, 0.000000000000000 ) );
#138 = DIRECTION( '', ( -0.000000000000000, -1.00000000000000, -0.000000000000000 ) );
#139 = DIRECTION( '', ( 1.00000000000000, 0.000000000000000, -2.44921270764475E-016 ) );
#140 = ORIENTED_EDGE( '', *, *, #210, .F. );
#141 = ORIENTED_EDGE( '', *, *, #211, .T. );
#142 = ORIENTED_EDGE( '', *, *, #212, .F. );
#143 = ORIENTED_EDGE( '', *, *, #207, .F. );
#144 = CARTESIAN_POINT( '', ( 0.000000000000000, 19.0000000000000, 0.000000000000000 ) );
#145 = DIRECTION( '', ( -0.000000000000000, 1.00000000000000, 0.000000000000000 ) );
#146 = DIRECTION( '', ( 1.00000000000000, 0.000000000000000, -2.44921270764475E-016 ) );
#147 = ORIENTED_EDGE( '', *, *, #213, .F. );
#148 = ORIENTED_EDGE( '', *, *, #214, .T. );
#149 = ORIENTED_EDGE( '', *, *, #215, .F. );
#150 = ORIENTED_EDGE( '', *, *, #216, .F. );
#151 = CARTESIAN_POINT( '', ( 0.000000000000000, -11.6165000000000, 0.000000000000000 ) );
#152 = DIRECTION( '', ( -0.000000000000000, 1.00000000000000, 0.000000000000000 ) );
#153 = DIRECTION( '', ( 1.00000000000000, 0.000000000000000, -2.44921270764475E-016 ) );
#154 = ORIENTED_EDGE( '', *, *, #217, .F. );
#155 = ORIENTED_EDGE( '', *, *, #216, .T. );
#156 = ORIENTED_EDGE( '', *, *, #218, .F. );
#157 = ORIENTED_EDGE( '', *, *, #219, .F. );
#158 = CARTESIAN_POINT( '', ( 0.000000000000000, -5.11650000000000, 0.000000000000000 ) );
#159 = DIRECTION( '', ( -0.000000000000000, -1.00000000000000, -0.000000000000000 ) );
#160 = DIRECTION( '', ( 1.00000000000000, 0.000000000000000, -2.44921270764475E-016 ) );
#161 = ORIENTED_EDGE( '', *, *, #217, .T. );
#162 = ORIENTED_EDGE( '', *, *, #220, .F. );
#163 = ORIENTED_EDGE( '', *, *, #218, .T. );
#164 = ORIENTED_EDGE( '', *, *, #221, .T. );
#165 = CARTESIAN_POINT( '', ( 0.000000000000000, -5.11650000000000, 0.000000000000000 ) );
#166 = DIRECTION( '', ( -0.000000000000000, -1.00000000000000, -0.000000000000000 ) );
#167 = DIRECTION( '', ( 1.00000000000000, 0.000000000000000, -2.44921270764475E-016 ) );
#168 = ORIENTED_EDGE( '', *, *, #214, .F. );
#169 = ORIENTED_EDGE( '', *, *, #222, .F. );
#170 = CARTESIAN_POINT( '', ( 1.61650000000000, -12.0000000000000, -3.95915234190775E-016 ) );
#171 = DIRECTION( '', ( -0.000000000000000, -1.00000000000000, 0.000000000000000 ) );
#172 = DIRECTION( '', ( -1.00000000000000, 0.000000000000000, 2.44921270764475E-016 ) );
#173 = ORIENTED_EDGE( '', *, *, #213, .T. );
#174 = ORIENTED_EDGE( '', *, *, #221, .F. );
#175 = ORIENTED_EDGE( '', *, *, #215, .T. );
#176 = ORIENTED_EDGE( '', *, *, #222, .T. );
#177 = CARTESIAN_POINT( '', ( 0.000000000000000, -11.6165000000000, 0.000000000000000 ) );
#178 = DIRECTION( '', ( -0.000000000000000, 1.00000000000000, 0.000000000000000 ) );
#179 = DIRECTION( '', ( 1.00000000000000, 0.000000000000000, -2.44921270764475E-016 ) );
#180 = ORIENTED_EDGE( '', *, *, #220, .T. );
#181 = ORIENTED_EDGE( '', *, *, #219, .T. );
#182 = ORIENTED_EDGE( '', *, *, #211, .F. );
#183 = ORIENTED_EDGE( '', *, *, #223, .F. );
#184 = CARTESIAN_POINT( '', ( 4.50000000000000, 0.000000000000000, -1.10214571844014E-015 ) );
#185 = DIRECTION( '', ( -0.000000000000000, -1.00000000000000, 0.000000000000000 ) );
#186 = DIRECTION( '', ( -1.00000000000000, 0.000000000000000, 2.44921270764475E-016 ) );
#187 = ORIENTED_EDGE( '', *, *, #210, .T. );
#188 = ORIENTED_EDGE( '', *, *, #224, .F. );
#189 = ORIENTED_EDGE( '', *, *, #212, .T. );
#190 = ORIENTED_EDGE( '', *, *, #223, .T. );
#191 = CARTESIAN_POINT( '', ( 0.000000000000000, 19.0000000000000, 0.000000000000000 ) );
#192 = DIRECTION( '', ( -0.000000000000000, 1.00000000000000, 0.000000000000000 ) );
#193 = DIRECTION( '', ( 1.00000000000000, 0.000000000000000, -2.44921270764475E-016 ) );
#194 = ORIENTED_EDGE( '', *, *, #206, .T. );
#195 = ORIENTED_EDGE( '', *, *, #225, .F. );
#196 = ORIENTED_EDGE( '', *, *, #208, .T. );
#197 = ORIENTED_EDGE( '', *, *, #224, .T. );
#198 = CARTESIAN_POINT( '', ( 0.000000000000000, 48.4438024039015, 0.000000000000000 ) );
#199 = DIRECTION( '', ( -0.000000000000000, -1.00000000000000, -0.000000000000000 ) );
#200 = DIRECTION( '', ( 1.00000000000000, 0.000000000000000, -2.44921270764475E-016 ) );
#201 = ORIENTED_EDGE( '', *, *, #209, .T. );
#202 = ORIENTED_EDGE( '', *, *, #225, .T. );
#203 = CARTESIAN_POINT( '', ( 0.000000000000000, 7.38964445190504E-013, 0.000000000000000 ) );
#204 = DIRECTION( '', ( 0.000000000000000, 0.000000000000000, 1.00000000000000 ) );
#205 = DIRECTION( '', ( 1.00000000000000, 0.000000000000000, 0.000000000000000 ) );
#206 = EDGE_CURVE( '', #226, #227, #228, .T. );
#207 = EDGE_CURVE( '', #226, #229, #230, .T. );
#208 = EDGE_CURVE( '', #231, #229, #232, .T. );
#209 = EDGE_CURVE( '', #227, #231, #233, .T. );
#210 = EDGE_CURVE( '', #234, #226, #235, .T. );
#211 = EDGE_CURVE( '', #234, #236, #237, .T. );
#212 = EDGE_CURVE( '', #229, #236, #238, .T. );
#213 = EDGE_CURVE( '', #239, #240, #241, .T. );
#214 = EDGE_CURVE( '', #239, #242, #243, .T. );
#215 = EDGE_CURVE( '', #244, #242, #245, .T. );
#216 = EDGE_CURVE( '', #240, #244, #246, .T. );
#217 = EDGE_CURVE( '', #240, #247, #248, .T. );
#218 = EDGE_CURVE( '', #249, #244, #250, .T. );
#219 = EDGE_CURVE( '', #247, #249, #251, .T. );
#220 = EDGE_CURVE( '', #249, #247, #252, .T. );
#221 = EDGE_CURVE( '', #244, #240, #253, .T. );
#222 = EDGE_CURVE( '', #242, #239, #254, .T. );
#223 = EDGE_CURVE( '', #236, #234, #255, .T. );
#224 = EDGE_CURVE( '', #229, #226, #256, .T. );
#225 = EDGE_CURVE( '', #231, #227, #257, .T. );
#226 = VERTEX_POINT( '', #258 );
#227 = VERTEX_POINT( '', #259 );
#228 = LINE( '', #260, #261 );
#229 = VERTEX_POINT( '', #262 );
#230 = CIRCLE( '', #263, 11.5000000000000 );
#231 = VERTEX_POINT( '', #264 );
#232 = LINE( '', #265, #266 );
#233 = CIRCLE( '', #267, 11.5000000000000 );
#234 = VERTEX_POINT( '', #268 );
#235 = LINE( '', #269, #270 );
#236 = VERTEX_POINT( '', #271 );
#237 = CIRCLE( '', #272, 9.00000000000000 );
#238 = LINE( '', #273, #274 );
#239 = VERTEX_POINT( '', #275 );
#240 = VERTEX_POINT( '', #276 );
#241 = LINE( '', #277, #278 );
#242 = VERTEX_POINT( '', #279 );
#243 = CIRCLE( '', #280, 3.23300000000000 );
#244 = VERTEX_POINT( '', #281 );
#245 = LINE( '', #282, #283 );
#246 = CIRCLE( '', #284, 4.00000000000000 );
#247 = VERTEX_POINT( '', #285 );
#248 = LINE( '', #286, #287 );
#249 = VERTEX_POINT( '', #288 );
#250 = LINE( '', #289, #290 );
#251 = CIRCLE( '', #291, 4.00000000000000 );
#252 = CIRCLE( '', #292, 4.00000000000000 );
#253 = CIRCLE( '', #293, 4.00000000000000 );
#254 = CIRCLE( '', #294, 3.23300000000000 );
#255 = CIRCLE( '', #295, 9.00000000000000 );
#256 = CIRCLE( '', #296, 11.5000000000000 );
#257 = CIRCLE( '', #297, 11.5000000000000 );
#258 = CARTESIAN_POINT( '', ( 11.5000000000000, 38.0000000000000, -2.81659461379147E-015 ) );
#259 = CARTESIAN_POINT( '', ( 11.5000000000000, 58.8876048078031, -2.81659461379146E-015 ) );
#260 = CARTESIAN_POINT( '', ( 11.5000000000000, 48.4438024039015, -1.40829730689573E-015 ) );
#261 = VECTOR( '', #298, 1.00000000000000 );
#262 = CARTESIAN_POINT( '', ( -11.5000000000000, 38.0000000000000, 1.40829730689573E-015 ) );
#263 = AXIS2_PLACEMENT_3D( '', #299, #300, #301 );
#264 = CARTESIAN_POINT( '', ( -11.5000000000000, 58.8876048078031, 1.40829730689573E-015 ) );
#265 = CARTESIAN_POINT( '', ( -11.5000000000000, 48.4438024039015, 1.40829730689573E-015 ) );
#266 = VECTOR( '', #302, 1.00000000000000 );
#267 = AXIS2_PLACEMENT_3D( '', #303, #304, #305 );
#268 = CARTESIAN_POINT( '', ( 9.00000000000000, 0.000000000000000, -2.20429143688028E-015 ) );
#269 = CARTESIAN_POINT( '', ( 10.2500000000000, 19.0000000000000, -1.25522151266794E-015 ) );
#270 = VECTOR( '', #306, 1.00000000000000 );
#271 = CARTESIAN_POINT( '', ( -9.00000000000000, 0.000000000000000, 1.10214571844014E-015 ) );
#272 = AXIS2_PLACEMENT_3D( '', #307, #308, #309 );
#273 = CARTESIAN_POINT( '', ( -10.2500000000000, 19.0000000000000, 1.25522151266794E-015 ) );
#274 = VECTOR( '', #310, 1.00000000000000 );
#275 = CARTESIAN_POINT( '', ( 3.23300000000000, -12.0000000000000, -7.91830468381549E-016 ) );
#276 = CARTESIAN_POINT( '', ( 4.00000000000000, -11.2330000000000, -9.79685083057902E-016 ) );
#277 = CARTESIAN_POINT( '', ( 3.61650000000000, -11.6165000000000, -4.42878887859863E-016 ) );
#278 = VECTOR( '', #311, 1.00000000000000 );
#279 = CARTESIAN_POINT( '', ( -3.23300000000000, -12.0000000000000, 3.95915234190775E-016 ) );
#280 = AXIS2_PLACEMENT_3D( '', #312, #313, #314 );
#281 = CARTESIAN_POINT( '', ( -4.00000000000000, -11.2330000000000, 4.89842541528951E-016 ) );
#282 = CARTESIAN_POINT( '', ( -3.61650000000000, -11.6165000000000, 4.42878887859863E-016 ) );
#283 = VECTOR( '', #315, 1.00000000000000 );
#284 = AXIS2_PLACEMENT_3D( '', #316, #317, #318 );
#285 = CARTESIAN_POINT( '', ( 4.00000000000000, 0.000000000000000, -4.89842541528951E-016 ) );
#286 = CARTESIAN_POINT( '', ( 4.00000000000000, -5.11650000000000, -4.89842541528951E-016 ) );
#287 = VECTOR( '', #319, 1.00000000000000 );
#288 = CARTESIAN_POINT( '', ( -4.00000000000000, 0.000000000000000, 1.46952762458685E-015 ) );
#289 = CARTESIAN_POINT( '', ( -4.00000000000000, -5.11650000000000, 4.89842541528951E-016 ) );
#290 = VECTOR( '', #320, 1.00000000000000 );
#291 = AXIS2_PLACEMENT_3D( '', #321, #322, #323 );
#292 = AXIS2_PLACEMENT_3D( '', #324, #325, #326 );
#293 = AXIS2_PLACEMENT_3D( '', #327, #328, #329 );
#294 = AXIS2_PLACEMENT_3D( '', #330, #331, #332 );
#295 = AXIS2_PLACEMENT_3D( '', #333, #334, #335 );
#296 = AXIS2_PLACEMENT_3D( '', #336, #337, #338 );
#297 = AXIS2_PLACEMENT_3D( '', #339, #340, #341 );
#298 = DIRECTION( '', ( 0.000000000000000, 1.00000000000000, 0.000000000000000 ) );
#299 = CARTESIAN_POINT( '', ( 0.000000000000000, 38.0000000000000, 0.000000000000000 ) );
#300 = DIRECTION( '', ( 0.000000000000000, 1.00000000000000, 0.000000000000000 ) );
#301 = DIRECTION( '', ( 1.00000000000000, 0.000000000000000, -2.44921270764475E-016 ) );
#302 = DIRECTION( '', ( -0.000000000000000, -1.00000000000000, -0.000000000000000 ) );
#303 = CARTESIAN_POINT( '', ( 0.000000000000000, 58.8876048078031, 0.000000000000000 ) );
#304 = DIRECTION( '', ( 0.000000000000000, 1.00000000000000, 0.000000000000000 ) );
#305 = DIRECTION( '', ( 1.00000000000000, 0.000000000000000, -2.44921270764475E-016 ) );
#306 = DIRECTION( '', ( 0.0656475574015846, 0.997842872504086, -8.03924159068998E-018 ) );
#307 = CARTESIAN_POINT( '', ( 0.000000000000000, 0.000000000000000, 0.000000000000000 ) );
#308 = DIRECTION( '', ( 0.000000000000000, 1.00000000000000, 0.000000000000000 ) );
#309 = DIRECTION( '', ( 1.00000000000000, 0.000000000000000, -2.44921270764475E-016 ) );
#310 = DIRECTION( '', ( 0.0656475574015846, -0.997842872504086, -8.03924159068998E-018 ) );
#311 = DIRECTION( '', ( 0.707106781186548, 0.707106781186547, -8.65927457071936E-017 ) );
#312 = CARTESIAN_POINT( '', ( 0.000000000000000, -12.0000000000000, 0.000000000000000 ) );
#313 = DIRECTION( '', ( 0.000000000000000, 1.00000000000000, 0.000000000000000 ) );
#314 = DIRECTION( '', ( 1.00000000000000, 0.000000000000000, -2.44921270764475E-016 ) );
#315 = DIRECTION( '', ( 0.707106781186548, -0.707106781186547, -8.65927457071936E-017 ) );
#316 = CARTESIAN_POINT( '', ( 0.000000000000000, -11.2330000000000, 0.000000000000000 ) );
#317 = DIRECTION( '', ( 0.000000000000000, 1.00000000000000, 0.000000000000000 ) );
#318 = DIRECTION( '', ( 1.00000000000000, 0.000000000000000, -2.44921270764475E-016 ) );
#319 = DIRECTION( '', ( 0.000000000000000, 1.00000000000000, 0.000000000000000 ) );
#320 = DIRECTION( '', ( -0.000000000000000, -1.00000000000000, -0.000000000000000 ) );
#321 = CARTESIAN_POINT( '', ( 0.000000000000000, 0.000000000000000, 0.000000000000000 ) );
#322 = DIRECTION( '', ( 0.000000000000000, 1.00000000000000, 0.000000000000000 ) );
#323 = DIRECTION( '', ( 1.00000000000000, 0.000000000000000, -2.44921270764475E-016 ) );
#324 = CARTESIAN_POINT( '', ( 0.000000000000000, 0.000000000000000, 0.000000000000000 ) );
#325 = DIRECTION( '', ( 0.000000000000000, 1.00000000000000, 0.000000000000000 ) );
#326 = DIRECTION( '', ( 1.00000000000000, 0.000000000000000, -2.44921270764475E-016 ) );
#327 = CARTESIAN_POINT( '', ( 0.000000000000000, -11.2330000000000, 0.000000000000000 ) );
#328 = DIRECTION( '', ( 0.000000000000000, 1.00000000000000, 0.000000000000000 ) );
#329 = DIRECTION( '', ( 1.00000000000000, 0.000000000000000, -2.44921270764475E-016 ) );
#330 = CARTESIAN_POINT( '', ( 0.000000000000000, -12.0000000000000, 0.000000000000000 ) );
#331 = DIRECTION( '', ( 0.000000000000000, 1.00000000000000, 0.000000000000000 ) );
#332 = DIRECTION( '', ( 1.00000000000000, 0.000000000000000, -2.44921270764475E-016 ) );
#333 = CARTESIAN_POINT( '', ( 0.000000000000000, 0.000000000000000, 0.000000000000000 ) );
#334 = DIRECTION( '', ( 0.000000000000000, 1.00000000000000, 0.000000000000000 ) );
#335 = DIRECTION( '', ( 1.00000000000000, 0.000000000000000, -2.44921270764475E-016 ) );
#336 = CARTESIAN_POINT( '', ( 0.000000000000000, 38.0000000000000, 0.000000000000000 ) );
#337 = DIRECTION( '', ( 0.000000000000000, 1.00000000000000, 0.000000000000000 ) );
#338 = DIRECTION( '', ( 1.00000000000000, 0.000000000000000, -2.44921270764475E-016 ) );
#339 = CARTESIAN_POINT( '', ( 0.000000000000000, 58.8876048078031, 0.000000000000000 ) );
#340 = DIRECTION( '', ( 0.000000000000000, 1.00000000000000, 0.000000000000000 ) );
#341 = DIRECTION( '', ( 1.00000000000000, 0.000000000000000, -2.44921270764475E-016 ) );
ENDSEC;
END-ISO-10303-21;
