ISO-10303-21;
HEADER;
FILE_DESCRIPTION( ( '' ), '1' );
FILE_NAME( 'C:/Users/Bollwitte/Desktop/987/K0159.23008.stp', '2012-11-01T09:09:48', ( '' ), ( '' ), ' ', ' ', ' ' );
FILE_SCHEMA( ( 'CONFIG_CONTROL_DESIGN' ) );
ENDSEC;
DATA;
#1 = DESIGN_CONTEXT( '', #27, 'design' );
#2 = APPLICATION_PROTOCOL_DEFINITION( 'INTERNATIONAL STANDARD', 'config_control_design', 1994, #27 );
#3 = PRODUCT_CATEGORY_RELATIONSHIP( 'NONE', 'NONE', #28, #29 );
#4 = DATE_AND_TIME( #30, #31 );
#5 = DATE_TIME_ROLE( 'creation_date' );
#6 = DATE_TIME_ROLE( 'classification_date' );
#7 = PERSON_AND_ORGANIZATION_ROLE( 'creator' );
#8 = PERSON_AND_ORGANIZATION_ROLE( 'design_supplier' );
#9 = PERSON_AND_ORGANIZATION_ROLE( 'classification_officer' );
#10 = PERSON_AND_ORGANIZATION_ROLE( 'design_owner' );
#11 = APPROVAL_PERSON_ORGANIZATION( #32, #33, #34 );
#12 = APPROVAL_DATE_TIME( #4, #33 );
#13 = CC_DESIGN_APPROVAL( #33, ( #35, #36, #37 ) );
#14 = CC_DESIGN_DATE_AND_TIME_ASSIGNMENT( #4, #5, ( #37 ) );
#15 = CC_DESIGN_DATE_AND_TIME_ASSIGNMENT( #4, #6, ( #35 ) );
#16 = CC_DESIGN_PERSON_AND_ORGANIZATION_ASSIGNMENT( #32, #10, ( #38 ) );
#17 = CC_DESIGN_PERSON_AND_ORGANIZATION_ASSIGNMENT( #32, #7, ( #37 ) );
#18 = CC_DESIGN_PERSON_AND_ORGANIZATION_ASSIGNMENT( #32, #7, ( #36 ) );
#19 = CC_DESIGN_PERSON_AND_ORGANIZATION_ASSIGNMENT( #32, #8, ( #36 ) );
#20 = CC_DESIGN_SECURITY_CLASSIFICATION( #35, ( #36 ) );
#21 = CC_DESIGN_PERSON_AND_ORGANIZATION_ASSIGNMENT( #32, #9, ( #35 ) );
#22 = SHAPE_DEFINITION_REPRESENTATION( #39, #40 );
#23 =  ( GEOMETRIC_REPRESENTATION_CONTEXT( 3 )GLOBAL_UNCERTAINTY_ASSIGNED_CONTEXT( ( #43 ) )GLOBAL_UNIT_ASSIGNED_CONTEXT( ( #45, #46, #47 ) )REPRESENTATION_CONTEXT( 'NONE', 'WORKSPACE' ) );
#27 = APPLICATION_CONTEXT( 'CONFIGURATION CONTROLLED 3D DESIGNS OF MECHANICAL PARTS AND ASSEMBLIES' );
#28 = PRODUCT_CATEGORY( 'part', 'NONE' );
#29 = PRODUCT_RELATED_PRODUCT_CATEGORY( 'detail', ' ', ( #38 ) );
#30 = CALENDAR_DATE( 2012, 1, 10 );
#31 = LOCAL_TIME( 10, 9, 48.0000000000000, #49 );
#32 = PERSON_AND_ORGANIZATION( #50, #51 );
#33 = APPROVAL( #52, 'SOLID MODEL' );
#34 = APPROVAL_ROLE( 'APPROVED' );
#35 = SECURITY_CLASSIFICATION( '', '', #53 );
#36 = PRODUCT_DEFINITION_FORMATION_WITH_SPECIFIED_SOURCE( ' ', 'NONE', #38, .NOT_KNOWN. );
#37 = PRODUCT_DEFINITION( 'NONE', 'NONE', #36, #1 );
#38 = PRODUCT( '1', '1', 'PART-1-DESC', ( #54 ) );
#39 = PRODUCT_DEFINITION_SHAPE( 'NONE', 'NONE', #37 );
#40 = ADVANCED_BREP_SHAPE_REPRESENTATION( '1', ( #55, #56 ), #23 );
#43 = UNCERTAINTY_MEASURE_WITH_UNIT( LENGTH_MEASURE( 1.00000000000000E-006 ), #45, '', '' );
#45 =  ( CONVERSION_BASED_UNIT( 'MILLIMETRE', #59 )LENGTH_UNIT(  )NAMED_UNIT( #62 ) );
#46 =  ( NAMED_UNIT( #64 )PLANE_ANGLE_UNIT(  )SI_UNIT( $, .RADIAN. ) );
#47 =  ( NAMED_UNIT( #64 )SOLID_ANGLE_UNIT(  )SI_UNIT( $, .STERADIAN. ) );
#49 = COORDINATED_UNIVERSAL_TIME_OFFSET( 1, 0, .AHEAD. );
#50 = PERSON( '', 'UNSPECIFIED', $, $, $, $ );
#51 = ORGANIZATION( 'UNSPECIFIED', 'UNSPECIFIED', 'UNSPECIFIED' );
#52 = APPROVAL_STATUS( 'approved' );
#53 = SECURITY_CLASSIFICATION_LEVEL( 'unclassified' );
#54 = MECHANICAL_CONTEXT( '', #27, 'mechanical' );
#55 = MANIFOLD_SOLID_BREP( '1', #70 );
#56 = AXIS2_PLACEMENT_3D( '', #71, #72, #73 );
#59 = LENGTH_MEASURE_WITH_UNIT( LENGTH_MEASURE( 1.00000000000000 ), #74 );
#62 = DIMENSIONAL_EXPONENTS( 1.00000000000000, 0.000000000000000, 0.000000000000000, 0.000000000000000, 0.000000000000000, 0.000000000000000, 0.000000000000000 );
#64 = DIMENSIONAL_EXPONENTS( 0.000000000000000, 0.000000000000000, 0.000000000000000, 0.000000000000000, 0.000000000000000, 0.000000000000000, 0.000000000000000 );
#70 = CLOSED_SHELL( '', ( #75, #76, #77, #78, #79, #80, #81, #82, #83 ) );
#71 = CARTESIAN_POINT( '', ( 0.000000000000000, 0.000000000000000, 0.000000000000000 ) );
#72 = DIRECTION( '', ( 0.000000000000000, 0.000000000000000, 1.00000000000000 ) );
#73 = DIRECTION( '', ( 1.00000000000000, 0.000000000000000, 0.000000000000000 ) );
#74 =  ( NAMED_UNIT( #62 )LENGTH_UNIT(  )SI_UNIT( .MILLI., .METRE. ) );
#75 = ADVANCED_FACE( '', ( #85 ), #86, .T. );
#76 = ADVANCED_FACE( '', ( #87 ), #88, .F. );
#77 = ADVANCED_FACE( '', ( #89 ), #90, .F. );
#78 = ADVANCED_FACE( '', ( #91 ), #92, .F. );
#79 = ADVANCED_FACE( '', ( #93 ), #94, .F. );
#80 = ADVANCED_FACE( '', ( #95 ), #96, .F. );
#81 = ADVANCED_FACE( '', ( #97 ), #98, .F. );
#82 = ADVANCED_FACE( '', ( #99, #100 ), #101, .T. );
#83 = ADVANCED_FACE( '', ( #102, #103 ), #104, .T. );
#85 = FACE_OUTER_BOUND( '', #105, .T. );
#86 = SPHERICAL_SURFACE( '', #106, 15.1428571428571 );
#87 = FACE_OUTER_BOUND( '', #107, .T. );
#88 = CONICAL_SURFACE( '', #108, 1.66175000000000, 1.02974425867665 );
#89 = FACE_OUTER_BOUND( '', #109, .T. );
#90 = CYLINDRICAL_SURFACE( '', #110, 3.32350000000000 );
#91 = FACE_OUTER_BOUND( '', #111, .T. );
#92 = CONICAL_SURFACE( '', #112, 3.66175000000000, 0.785398163397448 );
#93 = FACE_OUTER_BOUND( '', #113, .T. );
#94 = CONICAL_SURFACE( '', #114, 3.66175000000000, 0.785398163397448 );
#95 = FACE_OUTER_BOUND( '', #115, .T. );
#96 = CYLINDRICAL_SURFACE( '', #116, 3.32350000000000 );
#97 = FACE_OUTER_BOUND( '', #117, .T. );
#98 = CONICAL_SURFACE( '', #118, 1.66175000000000, 1.02974425867665 );
#99 = FACE_BOUND( '', #119, .T. );
#100 = FACE_OUTER_BOUND( '', #120, .T. );
#101 = PLANE( '', #121 );
#102 = FACE_OUTER_BOUND( '', #122, .T. );
#103 = FACE_OUTER_BOUND( '', #123, .T. );
#104 = SPHERICAL_SURFACE( '', #124, 15.1428571428571 );
#105 = EDGE_LOOP( '', ( #125, #126 ) );
#106 = AXIS2_PLACEMENT_3D( '', #127, #128, #129 );
#107 = EDGE_LOOP( '', ( #130, #131, #132 ) );
#108 = AXIS2_PLACEMENT_3D( '', #133, #134, #135 );
#109 = EDGE_LOOP( '', ( #136, #137, #138, #139 ) );
#110 = AXIS2_PLACEMENT_3D( '', #140, #141, #142 );
#111 = EDGE_LOOP( '', ( #143, #144, #145, #146 ) );
#112 = AXIS2_PLACEMENT_3D( '', #147, #148, #149 );
#113 = EDGE_LOOP( '', ( #150, #151, #152, #153 ) );
#114 = AXIS2_PLACEMENT_3D( '', #154, #155, #156 );
#115 = EDGE_LOOP( '', ( #157, #158, #159, #160 ) );
#116 = AXIS2_PLACEMENT_3D( '', #161, #162, #163 );
#117 = EDGE_LOOP( '', ( #164, #165, #166 ) );
#118 = AXIS2_PLACEMENT_3D( '', #167, #168, #169 );
#119 = EDGE_LOOP( '', ( #170, #171 ) );
#120 = EDGE_LOOP( '', ( #172, #173 ) );
#121 = AXIS2_PLACEMENT_3D( '', #174, #175, #176 );
#122 = EDGE_LOOP( '', ( #177, #178 ) );
#123 = EDGE_LOOP( '', ( #179, #180 ) );
#124 = AXIS2_PLACEMENT_3D( '', #181, #182, #183 );
#125 = ORIENTED_EDGE( '', *, *, #184, .F. );
#126 = ORIENTED_EDGE( '', *, *, #185, .F. );
#127 = CARTESIAN_POINT( '', ( 0.000000000000000, 12.8571428571429, 0.000000000000000 ) );
#128 = DIRECTION( '', ( 0.000000000000000, 0.000000000000000, 1.00000000000000 ) );
#129 = DIRECTION( '', ( 1.00000000000000, 0.000000000000000, 0.000000000000000 ) );
#130 = ORIENTED_EDGE( '', *, *, #186, .T. );
#131 = ORIENTED_EDGE( '', *, *, #187, .T. );
#132 = ORIENTED_EDGE( '', *, *, #188, .F. );
#133 = CARTESIAN_POINT( '', ( 0.000000000000000, 13.9984801336690, 0.000000000000000 ) );
#134 = DIRECTION( '', ( 0.000000000000000, -1.00000000000000, -0.000000000000000 ) );
#135 = DIRECTION( '', ( 1.00000000000000, 0.000000000000000, 0.000000000000000 ) );
#136 = ORIENTED_EDGE( '', *, *, #189, .F. );
#137 = ORIENTED_EDGE( '', *, *, #190, .T. );
#138 = ORIENTED_EDGE( '', *, *, #191, .F. );
#139 = ORIENTED_EDGE( '', *, *, #192, .F. );
#140 = CARTESIAN_POINT( '', ( 0.000000000000000, 6.83825000000000, 0.000000000000000 ) );
#141 = DIRECTION( '', ( 0.000000000000000, -1.00000000000000, -0.000000000000000 ) );
#142 = DIRECTION( '', ( 1.00000000000000, 0.000000000000000, 0.000000000000000 ) );
#143 = ORIENTED_EDGE( '', *, *, #193, .F. );
#144 = ORIENTED_EDGE( '', *, *, #192, .T. );
#145 = ORIENTED_EDGE( '', *, *, #194, .F. );
#146 = ORIENTED_EDGE( '', *, *, #195, .F. );
#147 = CARTESIAN_POINT( '', ( 0.000000000000000, 0.338250000000000, 0.000000000000000 ) );
#148 = DIRECTION( '', ( 0.000000000000000, -1.00000000000000, -0.000000000000000 ) );
#149 = DIRECTION( '', ( 1.00000000000000, 0.000000000000000, 0.000000000000000 ) );
#150 = ORIENTED_EDGE( '', *, *, #193, .T. );
#151 = ORIENTED_EDGE( '', *, *, #196, .F. );
#152 = ORIENTED_EDGE( '', *, *, #194, .T. );
#153 = ORIENTED_EDGE( '', *, *, #197, .T. );
#154 = CARTESIAN_POINT( '', ( 0.000000000000000, 0.338250000000000, 0.000000000000000 ) );
#155 = DIRECTION( '', ( 0.000000000000000, -1.00000000000000, -0.000000000000000 ) );
#156 = DIRECTION( '', ( 1.00000000000000, 0.000000000000000, 0.000000000000000 ) );
#157 = ORIENTED_EDGE( '', *, *, #189, .T. );
#158 = ORIENTED_EDGE( '', *, *, #197, .F. );
#159 = ORIENTED_EDGE( '', *, *, #191, .T. );
#160 = ORIENTED_EDGE( '', *, *, #188, .T. );
#161 = CARTESIAN_POINT( '', ( 0.000000000000000, 6.83825000000000, 0.000000000000000 ) );
#162 = DIRECTION( '', ( 0.000000000000000, -1.00000000000000, -0.000000000000000 ) );
#163 = DIRECTION( '', ( 1.00000000000000, 0.000000000000000, 0.000000000000000 ) );
#164 = ORIENTED_EDGE( '', *, *, #186, .F. );
#165 = ORIENTED_EDGE( '', *, *, #190, .F. );
#166 = ORIENTED_EDGE( '', *, *, #187, .F. );
#167 = CARTESIAN_POINT( '', ( 0.000000000000000, 13.9984801336690, 0.000000000000000 ) );
#168 = DIRECTION( '', ( 0.000000000000000, -1.00000000000000, -0.000000000000000 ) );
#169 = DIRECTION( '', ( 1.00000000000000, 0.000000000000000, 0.000000000000000 ) );
#170 = ORIENTED_EDGE( '', *, *, #195, .T. );
#171 = ORIENTED_EDGE( '', *, *, #196, .T. );
#172 = ORIENTED_EDGE( '', *, *, #198, .F. );
#173 = ORIENTED_EDGE( '', *, *, #199, .F. );
#174 = CARTESIAN_POINT( '', ( 4.00000000000000, 6.80479151730884E-015, 0.000000000000000 ) );
#175 = DIRECTION( '', ( 1.70119787932721E-015, -1.00000000000000, 0.000000000000000 ) );
#176 = DIRECTION( '', ( -1.00000000000000, -1.70119787932721E-015, 0.000000000000000 ) );
#177 = ORIENTED_EDGE( '', *, *, #184, .T. );
#178 = ORIENTED_EDGE( '', *, *, #185, .T. );
#179 = ORIENTED_EDGE( '', *, *, #198, .T. );
#180 = ORIENTED_EDGE( '', *, *, #199, .T. );
#181 = CARTESIAN_POINT( '', ( 0.000000000000000, 12.8571428571429, 0.000000000000000 ) );
#182 = DIRECTION( '', ( 0.000000000000000, 0.000000000000000, 1.00000000000000 ) );
#183 = DIRECTION( '', ( 1.00000000000000, 0.000000000000000, 0.000000000000000 ) );
#184 = EDGE_CURVE( '', #200, #201, #202, .T. );
#185 = EDGE_CURVE( '', #201, #200, #203, .T. );
#186 = EDGE_CURVE( '', #204, #205, #206, .T. );
#187 = EDGE_CURVE( '', #205, #207, #208, .T. );
#188 = EDGE_CURVE( '', #204, #207, #209, .T. );
#189 = EDGE_CURVE( '', #207, #210, #211, .T. );
#190 = EDGE_CURVE( '', #207, #204, #212, .T. );
#191 = EDGE_CURVE( '', #213, #204, #214, .T. );
#192 = EDGE_CURVE( '', #210, #213, #215, .T. );
#193 = EDGE_CURVE( '', #210, #216, #217, .T. );
#194 = EDGE_CURVE( '', #218, #213, #219, .T. );
#195 = EDGE_CURVE( '', #216, #218, #220, .T. );
#196 = EDGE_CURVE( '', #218, #216, #221, .T. );
#197 = EDGE_CURVE( '', #213, #210, #222, .T. );
#198 = EDGE_CURVE( '', #223, #224, #225, .T. );
#199 = EDGE_CURVE( '', #224, #223, #226, .T. );
#200 = VERTEX_POINT( '', #227 );
#201 = VERTEX_POINT( '', #228 );
#202 = CIRCLE( '', #229, 15.1428571428571 );
#203 = CIRCLE( '', #230, 15.1428571428571 );
#204 = VERTEX_POINT( '', #231 );
#205 = VERTEX_POINT( '', #232 );
#206 = LINE( '', #233, #234 );
#207 = VERTEX_POINT( '', #235 );
#208 = LINE( '', #236, #237 );
#209 = CIRCLE( '', #238, 3.32350000000000 );
#210 = VERTEX_POINT( '', #239 );
#211 = LINE( '', #240, #241 );
#212 = CIRCLE( '', #242, 3.32350000000000 );
#213 = VERTEX_POINT( '', #243 );
#214 = LINE( '', #244, #245 );
#215 = CIRCLE( '', #246, 3.32350000000000 );
#216 = VERTEX_POINT( '', #247 );
#217 = LINE( '', #248, #249 );
#218 = VERTEX_POINT( '', #250 );
#219 = LINE( '', #251, #252 );
#220 = CIRCLE( '', #253, 3.99999999999999 );
#221 = CIRCLE( '', #254, 3.99999999999999 );
#222 = CIRCLE( '', #255, 3.32350000000000 );
#223 = VERTEX_POINT( '', #256 );
#224 = VERTEX_POINT( '', #257 );
#225 = CIRCLE( '', #258, 8.00000000000000 );
#226 = CIRCLE( '', #259, 8.00000000000000 );
#227 = CARTESIAN_POINT( '', ( 1.85440390721674E-015, 12.8571428571429, -15.1428571428571 ) );
#228 = CARTESIAN_POINT( '', ( 0.000000000000000, 12.8571428571429, 15.1428571428571 ) );
#229 = AXIS2_PLACEMENT_3D( '', #260, #261, #262 );
#230 = AXIS2_PLACEMENT_3D( '', #263, #264, #265 );
#231 = CARTESIAN_POINT( '', ( -3.32350000000000, 13.0000000000000, -4.06997921692867E-016 ) );
#232 = CARTESIAN_POINT( '', ( 4.44089209850063E-016, 14.9969602673381, 0.000000000000000 ) );
#233 = CARTESIAN_POINT( '', ( -1.66175000000000, 13.9984801336690, -2.03498960846434E-016 ) );
#234 = VECTOR( '', #266, 1.00000000000000 );
#235 = CARTESIAN_POINT( '', ( 3.32350000000000, 13.0000000000000, 0.000000000000000 ) );
#236 = CARTESIAN_POINT( '', ( 1.66175000000000, 13.9984801336690, 2.03498960846434E-016 ) );
#237 = VECTOR( '', #267, 1.00000000000000 );
#238 = AXIS2_PLACEMENT_3D( '', #268, #269, #270 );
#239 = CARTESIAN_POINT( '', ( 3.32350000000000, 0.676500000000001, 0.000000000000000 ) );
#240 = CARTESIAN_POINT( '', ( 3.32350000000000, 6.83825000000000, 4.06997921692867E-016 ) );
#241 = VECTOR( '', #271, 1.00000000000000 );
#242 = AXIS2_PLACEMENT_3D( '', #272, #273, #274 );
#243 = CARTESIAN_POINT( '', ( -3.32350000000000, 0.676500000000001, -4.06997921692867E-016 ) );
#244 = CARTESIAN_POINT( '', ( -3.32350000000000, 6.83825000000000, -4.06997921692867E-016 ) );
#245 = VECTOR( '', #275, 1.00000000000000 );
#246 = AXIS2_PLACEMENT_3D( '', #276, #277, #278 );
#247 = CARTESIAN_POINT( '', ( 4.00000000000000, 0.000000000000000, 0.000000000000000 ) );
#248 = CARTESIAN_POINT( '', ( 3.66175000000000, 0.338250000000000, 4.48420231610909E-016 ) );
#249 = VECTOR( '', #279, 1.00000000000000 );
#250 = CARTESIAN_POINT( '', ( -3.99999999999999, 2.30800841358766E-017, -4.89842541528950E-016 ) );
#251 = CARTESIAN_POINT( '', ( -3.66175000000000, 0.338250000000000, -4.48420231610909E-016 ) );
#252 = VECTOR( '', #280, 1.00000000000000 );
#253 = AXIS2_PLACEMENT_3D( '', #281, #282, #283 );
#254 = AXIS2_PLACEMENT_3D( '', #284, #285, #286 );
#255 = AXIS2_PLACEMENT_3D( '', #287, #288, #289 );
#256 = CARTESIAN_POINT( '', ( 8.00000000000000, 1.36095830346177E-014, 0.000000000000000 ) );
#257 = CARTESIAN_POINT( '', ( -8.00000000000000, 1.42108547152020E-014, -9.79685083057901E-016 ) );
#258 = AXIS2_PLACEMENT_3D( '', #290, #291, #292 );
#259 = AXIS2_PLACEMENT_3D( '', #293, #294, #295 );
#260 = CARTESIAN_POINT( '', ( 0.000000000000000, 12.8571428571429, 0.000000000000000 ) );
#261 = DIRECTION( '', ( -1.17306583733979E-016, -1.00000000000000, 0.000000000000000 ) );
#262 = DIRECTION( '', ( 0.000000000000000, 0.000000000000000, 1.00000000000000 ) );
#263 = CARTESIAN_POINT( '', ( 0.000000000000000, 12.8571428571429, 0.000000000000000 ) );
#264 = DIRECTION( '', ( -1.17306583733979E-016, -1.00000000000000, 0.000000000000000 ) );
#265 = DIRECTION( '', ( 0.000000000000000, 0.000000000000000, 1.00000000000000 ) );
#266 = DIRECTION( '', ( 0.857167300702112, 0.515038074910054, 1.04969252272858E-016 ) );
#267 = DIRECTION( '', ( 0.857167300702112, -0.515038074910054, 1.04969252272858E-016 ) );
#268 = CARTESIAN_POINT( '', ( 0.000000000000000, 13.0000000000000, 0.000000000000000 ) );
#269 = DIRECTION( '', ( -0.000000000000000, 1.00000000000000, 0.000000000000000 ) );
#270 = DIRECTION( '', ( 1.00000000000000, 0.000000000000000, 0.000000000000000 ) );
#271 = DIRECTION( '', ( -0.000000000000000, -1.00000000000000, -0.000000000000000 ) );
#272 = CARTESIAN_POINT( '', ( 0.000000000000000, 13.0000000000000, 0.000000000000000 ) );
#273 = DIRECTION( '', ( -0.000000000000000, 1.00000000000000, 0.000000000000000 ) );
#274 = DIRECTION( '', ( 1.00000000000000, 0.000000000000000, 0.000000000000000 ) );
#275 = DIRECTION( '', ( -0.000000000000000, 1.00000000000000, -0.000000000000000 ) );
#276 = CARTESIAN_POINT( '', ( 0.000000000000000, 0.676500000000001, 0.000000000000000 ) );
#277 = DIRECTION( '', ( -0.000000000000000, 1.00000000000000, 0.000000000000000 ) );
#278 = DIRECTION( '', ( 1.00000000000000, 0.000000000000000, 0.000000000000000 ) );
#279 = DIRECTION( '', ( 0.707106781186547, -0.707106781186548, 8.65927457071935E-017 ) );
#280 = DIRECTION( '', ( 0.707106781186547, 0.707106781186548, 8.65927457071935E-017 ) );
#281 = CARTESIAN_POINT( '', ( 0.000000000000000, 6.82787160144471E-015, 0.000000000000000 ) );
#282 = DIRECTION( '', ( -1.70119787932721E-015, 1.00000000000000, 0.000000000000000 ) );
#283 = DIRECTION( '', ( 1.00000000000000, 1.70119787932721E-015, 0.000000000000000 ) );
#284 = CARTESIAN_POINT( '', ( 0.000000000000000, 6.82787160144471E-015, 0.000000000000000 ) );
#285 = DIRECTION( '', ( -1.70119787932721E-015, 1.00000000000000, 0.000000000000000 ) );
#286 = DIRECTION( '', ( 1.00000000000000, 1.70119787932721E-015, 0.000000000000000 ) );
#287 = CARTESIAN_POINT( '', ( 0.000000000000000, 0.676500000000001, 0.000000000000000 ) );
#288 = DIRECTION( '', ( -0.000000000000000, 1.00000000000000, 0.000000000000000 ) );
#289 = DIRECTION( '', ( 1.00000000000000, 0.000000000000000, 0.000000000000000 ) );
#290 = CARTESIAN_POINT( '', ( 0.000000000000000, 1.42108547152020E-014, 0.000000000000000 ) );
#291 = DIRECTION( '', ( -0.000000000000000, 1.00000000000000, 0.000000000000000 ) );
#292 = DIRECTION( '', ( 1.00000000000000, 0.000000000000000, 0.000000000000000 ) );
#293 = CARTESIAN_POINT( '', ( 0.000000000000000, 1.42108547152020E-014, 0.000000000000000 ) );
#294 = DIRECTION( '', ( -0.000000000000000, 1.00000000000000, 0.000000000000000 ) );
#295 = DIRECTION( '', ( 1.00000000000000, 0.000000000000000, 0.000000000000000 ) );
ENDSEC;
END-ISO-10303-21;
