ISO-10303-21;
HEADER;
FILE_DESCRIPTION( ( '' ), '1' );
FILE_NAME( 'C:/Users/Bollwitte/Desktop/987/K0159.12006.stp', '2012-11-01T09:08:15', ( '' ), ( '' ), ' ', ' ', ' ' );
FILE_SCHEMA( ( 'CONFIG_CONTROL_DESIGN' ) );
ENDSEC;
DATA;
#1 = DESIGN_CONTEXT( '', #27, 'design' );
#2 = APPLICATION_PROTOCOL_DEFINITION( 'INTERNATIONAL STANDARD', 'config_control_design', 1994, #27 );
#3 = PRODUCT_CATEGORY_RELATIONSHIP( 'NONE', 'NONE', #28, #29 );
#4 = DATE_AND_TIME( #30, #31 );
#5 = DATE_TIME_ROLE( 'creation_date' );
#6 = DATE_TIME_ROLE( 'classification_date' );
#7 = PERSON_AND_ORGANIZATION_ROLE( 'creator' );
#8 = PERSON_AND_ORGANIZATION_ROLE( 'design_supplier' );
#9 = PERSON_AND_ORGANIZATION_ROLE( 'classification_officer' );
#10 = PERSON_AND_ORGANIZATION_ROLE( 'design_owner' );
#11 = APPROVAL_PERSON_ORGANIZATION( #32, #33, #34 );
#12 = APPROVAL_DATE_TIME( #4, #33 );
#13 = CC_DESIGN_APPROVAL( #33, ( #35, #36, #37 ) );
#14 = CC_DESIGN_DATE_AND_TIME_ASSIGNMENT( #4, #5, ( #37 ) );
#15 = CC_DESIGN_DATE_AND_TIME_ASSIGNMENT( #4, #6, ( #35 ) );
#16 = CC_DESIGN_PERSON_AND_ORGANIZATION_ASSIGNMENT( #32, #10, ( #38 ) );
#17 = CC_DESIGN_PERSON_AND_ORGANIZATION_ASSIGNMENT( #32, #7, ( #37 ) );
#18 = CC_DESIGN_PERSON_AND_ORGANIZATION_ASSIGNMENT( #32, #7, ( #36 ) );
#19 = CC_DESIGN_PERSON_AND_ORGANIZATION_ASSIGNMENT( #32, #8, ( #36 ) );
#20 = CC_DESIGN_SECURITY_CLASSIFICATION( #35, ( #36 ) );
#21 = CC_DESIGN_PERSON_AND_ORGANIZATION_ASSIGNMENT( #32, #9, ( #35 ) );
#22 = SHAPE_DEFINITION_REPRESENTATION( #39, #40 );
#23 =  ( GEOMETRIC_REPRESENTATION_CONTEXT( 3 )GLOBAL_UNCERTAINTY_ASSIGNED_CONTEXT( ( #43 ) )GLOBAL_UNIT_ASSIGNED_CONTEXT( ( #45, #46, #47 ) )REPRESENTATION_CONTEXT( 'NONE', 'WORKSPACE' ) );
#27 = APPLICATION_CONTEXT( 'CONFIGURATION CONTROLLED 3D DESIGNS OF MECHANICAL PARTS AND ASSEMBLIES' );
#28 = PRODUCT_CATEGORY( 'part', 'NONE' );
#29 = PRODUCT_RELATED_PRODUCT_CATEGORY( 'detail', ' ', ( #38 ) );
#30 = CALENDAR_DATE( 2012, 1, 10 );
#31 = LOCAL_TIME( 10, 8, 15.0000000000000, #49 );
#32 = PERSON_AND_ORGANIZATION( #50, #51 );
#33 = APPROVAL( #52, 'SOLID MODEL' );
#34 = APPROVAL_ROLE( 'APPROVED' );
#35 = SECURITY_CLASSIFICATION( '', '', #53 );
#36 = PRODUCT_DEFINITION_FORMATION_WITH_SPECIFIED_SOURCE( ' ', 'NONE', #38, .NOT_KNOWN. );
#37 = PRODUCT_DEFINITION( 'NONE', 'NONE', #36, #1 );
#38 = PRODUCT( '1', '1', 'PART-1-DESC', ( #54 ) );
#39 = PRODUCT_DEFINITION_SHAPE( 'NONE', 'NONE', #37 );
#40 = ADVANCED_BREP_SHAPE_REPRESENTATION( '1', ( #55, #56 ), #23 );
#43 = UNCERTAINTY_MEASURE_WITH_UNIT( LENGTH_MEASURE( 1.00000000000000E-006 ), #45, '', '' );
#45 =  ( CONVERSION_BASED_UNIT( 'MILLIMETRE', #59 )LENGTH_UNIT(  )NAMED_UNIT( #62 ) );
#46 =  ( NAMED_UNIT( #64 )PLANE_ANGLE_UNIT(  )SI_UNIT( $, .RADIAN. ) );
#47 =  ( NAMED_UNIT( #64 )SOLID_ANGLE_UNIT(  )SI_UNIT( $, .STERADIAN. ) );
#49 = COORDINATED_UNIVERSAL_TIME_OFFSET( 1, 0, .AHEAD. );
#50 = PERSON( '', 'UNSPECIFIED', $, $, $, $ );
#51 = ORGANIZATION( 'UNSPECIFIED', 'UNSPECIFIED', 'UNSPECIFIED' );
#52 = APPROVAL_STATUS( 'approved' );
#53 = SECURITY_CLASSIFICATION_LEVEL( 'unclassified' );
#54 = MECHANICAL_CONTEXT( '', #27, 'mechanical' );
#55 = MANIFOLD_SOLID_BREP( '1', #70 );
#56 = AXIS2_PLACEMENT_3D( '', #71, #72, #73 );
#59 = LENGTH_MEASURE_WITH_UNIT( LENGTH_MEASURE( 1.00000000000000 ), #74 );
#62 = DIMENSIONAL_EXPONENTS( 1.00000000000000, 0.000000000000000, 0.000000000000000, 0.000000000000000, 0.000000000000000, 0.000000000000000, 0.000000000000000 );
#64 = DIMENSIONAL_EXPONENTS( 0.000000000000000, 0.000000000000000, 0.000000000000000, 0.000000000000000, 0.000000000000000, 0.000000000000000, 0.000000000000000 );
#70 = CLOSED_SHELL( '', ( #75, #76, #77, #78, #79, #80, #81, #82, #83, #84, #85 ) );
#71 = CARTESIAN_POINT( '', ( 0.000000000000000, 0.000000000000000, 0.000000000000000 ) );
#72 = DIRECTION( '', ( 0.000000000000000, 0.000000000000000, 1.00000000000000 ) );
#73 = DIRECTION( '', ( 1.00000000000000, 0.000000000000000, 0.000000000000000 ) );
#74 =  ( NAMED_UNIT( #62 )LENGTH_UNIT(  )SI_UNIT( .MILLI., .METRE. ) );
#75 = ADVANCED_FACE( '', ( #87 ), #88, .T. );
#76 = ADVANCED_FACE( '', ( #89 ), #90, .F. );
#77 = ADVANCED_FACE( '', ( #91 ), #92, .F. );
#78 = ADVANCED_FACE( '', ( #93 ), #94, .F. );
#79 = ADVANCED_FACE( '', ( #95 ), #96, .F. );
#80 = ADVANCED_FACE( '', ( #97 ), #98, .F. );
#81 = ADVANCED_FACE( '', ( #99 ), #100, .F. );
#82 = ADVANCED_FACE( '', ( #101 ), #102, .F. );
#83 = ADVANCED_FACE( '', ( #103 ), #104, .F. );
#84 = ADVANCED_FACE( '', ( #105, #106 ), #107, .T. );
#85 = ADVANCED_FACE( '', ( #108, #109 ), #110, .T. );
#87 = FACE_OUTER_BOUND( '', #111, .T. );
#88 = SPHERICAL_SURFACE( '', #112, 10.0000000000000 );
#89 = FACE_OUTER_BOUND( '', #113, .T. );
#90 = CONICAL_SURFACE( '', #114, 1.22925000000000, 1.02974425867665 );
#91 = FACE_OUTER_BOUND( '', #115, .T. );
#92 = CYLINDRICAL_SURFACE( '', #116, 2.45850000000000 );
#93 = FACE_OUTER_BOUND( '', #117, .T. );
#94 = CONICAL_SURFACE( '', #118, 2.72925000000000, 0.785398163397449 );
#95 = FACE_OUTER_BOUND( '', #119, .T. );
#96 = CYLINDRICAL_SURFACE( '', #120, 3.00000000000000 );
#97 = FACE_OUTER_BOUND( '', #121, .T. );
#98 = CYLINDRICAL_SURFACE( '', #122, 3.00000000000000 );
#99 = FACE_OUTER_BOUND( '', #123, .T. );
#100 = CONICAL_SURFACE( '', #124, 2.72925000000000, 0.785398163397449 );
#101 = FACE_OUTER_BOUND( '', #125, .T. );
#102 = CYLINDRICAL_SURFACE( '', #126, 2.45850000000000 );
#103 = FACE_OUTER_BOUND( '', #127, .T. );
#104 = CONICAL_SURFACE( '', #128, 1.22925000000000, 1.02974425867665 );
#105 = FACE_BOUND( '', #129, .T. );
#106 = FACE_OUTER_BOUND( '', #130, .T. );
#107 = PLANE( '', #131 );
#108 = FACE_OUTER_BOUND( '', #132, .T. );
#109 = FACE_OUTER_BOUND( '', #133, .T. );
#110 = SPHERICAL_SURFACE( '', #134, 10.0000000000000 );
#111 = EDGE_LOOP( '', ( #135, #136 ) );
#112 = AXIS2_PLACEMENT_3D( '', #137, #138, #139 );
#113 = EDGE_LOOP( '', ( #140, #141, #142 ) );
#114 = AXIS2_PLACEMENT_3D( '', #143, #144, #145 );
#115 = EDGE_LOOP( '', ( #146, #147, #148, #149 ) );
#116 = AXIS2_PLACEMENT_3D( '', #150, #151, #152 );
#117 = EDGE_LOOP( '', ( #153, #154, #155, #156 ) );
#118 = AXIS2_PLACEMENT_3D( '', #157, #158, #159 );
#119 = EDGE_LOOP( '', ( #160, #161, #162, #163 ) );
#120 = AXIS2_PLACEMENT_3D( '', #164, #165, #166 );
#121 = EDGE_LOOP( '', ( #167, #168, #169, #170 ) );
#122 = AXIS2_PLACEMENT_3D( '', #171, #172, #173 );
#123 = EDGE_LOOP( '', ( #174, #175, #176, #177 ) );
#124 = AXIS2_PLACEMENT_3D( '', #178, #179, #180 );
#125 = EDGE_LOOP( '', ( #181, #182, #183, #184 ) );
#126 = AXIS2_PLACEMENT_3D( '', #185, #186, #187 );
#127 = EDGE_LOOP( '', ( #188, #189, #190 ) );
#128 = AXIS2_PLACEMENT_3D( '', #191, #192, #193 );
#129 = EDGE_LOOP( '', ( #194, #195 ) );
#130 = EDGE_LOOP( '', ( #196, #197 ) );
#131 = AXIS2_PLACEMENT_3D( '', #198, #199, #200 );
#132 = EDGE_LOOP( '', ( #201, #202 ) );
#133 = EDGE_LOOP( '', ( #203, #204 ) );
#134 = AXIS2_PLACEMENT_3D( '', #205, #206, #207 );
#135 = ORIENTED_EDGE( '', *, *, #208, .F. );
#136 = ORIENTED_EDGE( '', *, *, #209, .F. );
#137 = CARTESIAN_POINT( '', ( 0.000000000000000, 8.00000000000000, 0.000000000000000 ) );
#138 = DIRECTION( '', ( 0.000000000000000, 0.000000000000000, 1.00000000000000 ) );
#139 = DIRECTION( '', ( 1.00000000000000, 0.000000000000000, 0.000000000000000 ) );
#140 = ORIENTED_EDGE( '', *, *, #210, .T. );
#141 = ORIENTED_EDGE( '', *, *, #211, .T. );
#142 = ORIENTED_EDGE( '', *, *, #212, .F. );
#143 = CARTESIAN_POINT( '', ( 0.000000000000000, 11.2386079159396, 0.000000000000000 ) );
#144 = DIRECTION( '', ( 0.000000000000000, -1.00000000000000, -0.000000000000000 ) );
#145 = DIRECTION( '', ( 1.00000000000000, 0.000000000000000, 0.000000000000000 ) );
#146 = ORIENTED_EDGE( '', *, *, #213, .F. );
#147 = ORIENTED_EDGE( '', *, *, #214, .T. );
#148 = ORIENTED_EDGE( '', *, *, #215, .F. );
#149 = ORIENTED_EDGE( '', *, *, #216, .F. );
#150 = CARTESIAN_POINT( '', ( 0.000000000000000, 6.04575000000000, 0.000000000000000 ) );
#151 = DIRECTION( '', ( 0.000000000000000, -1.00000000000000, -0.000000000000000 ) );
#152 = DIRECTION( '', ( 1.00000000000000, 0.000000000000000, 0.000000000000000 ) );
#153 = ORIENTED_EDGE( '', *, *, #217, .F. );
#154 = ORIENTED_EDGE( '', *, *, #216, .T. );
#155 = ORIENTED_EDGE( '', *, *, #218, .F. );
#156 = ORIENTED_EDGE( '', *, *, #219, .F. );
#157 = CARTESIAN_POINT( '', ( 0.000000000000000, 1.32075000000000, 0.000000000000000 ) );
#158 = DIRECTION( '', ( 0.000000000000000, -1.00000000000000, -0.000000000000000 ) );
#159 = DIRECTION( '', ( 1.00000000000000, 0.000000000000000, 0.000000000000000 ) );
#160 = ORIENTED_EDGE( '', *, *, #220, .F. );
#161 = ORIENTED_EDGE( '', *, *, #219, .T. );
#162 = ORIENTED_EDGE( '', *, *, #221, .F. );
#163 = ORIENTED_EDGE( '', *, *, #222, .F. );
#164 = CARTESIAN_POINT( '', ( 0.000000000000000, 0.525000000000000, 0.000000000000000 ) );
#165 = DIRECTION( '', ( 0.000000000000000, -1.00000000000000, -0.000000000000000 ) );
#166 = DIRECTION( '', ( 1.00000000000000, 0.000000000000000, 0.000000000000000 ) );
#167 = ORIENTED_EDGE( '', *, *, #220, .T. );
#168 = ORIENTED_EDGE( '', *, *, #223, .F. );
#169 = ORIENTED_EDGE( '', *, *, #221, .T. );
#170 = ORIENTED_EDGE( '', *, *, #224, .T. );
#171 = CARTESIAN_POINT( '', ( 0.000000000000000, 0.525000000000000, 0.000000000000000 ) );
#172 = DIRECTION( '', ( 0.000000000000000, -1.00000000000000, -0.000000000000000 ) );
#173 = DIRECTION( '', ( 1.00000000000000, 0.000000000000000, 0.000000000000000 ) );
#174 = ORIENTED_EDGE( '', *, *, #217, .T. );
#175 = ORIENTED_EDGE( '', *, *, #224, .F. );
#176 = ORIENTED_EDGE( '', *, *, #218, .T. );
#177 = ORIENTED_EDGE( '', *, *, #225, .T. );
#178 = CARTESIAN_POINT( '', ( 0.000000000000000, 1.32075000000000, 0.000000000000000 ) );
#179 = DIRECTION( '', ( 0.000000000000000, -1.00000000000000, -0.000000000000000 ) );
#180 = DIRECTION( '', ( 1.00000000000000, 0.000000000000000, 0.000000000000000 ) );
#181 = ORIENTED_EDGE( '', *, *, #213, .T. );
#182 = ORIENTED_EDGE( '', *, *, #225, .F. );
#183 = ORIENTED_EDGE( '', *, *, #215, .T. );
#184 = ORIENTED_EDGE( '', *, *, #212, .T. );
#185 = CARTESIAN_POINT( '', ( 0.000000000000000, 6.04575000000000, 0.000000000000000 ) );
#186 = DIRECTION( '', ( 0.000000000000000, -1.00000000000000, -0.000000000000000 ) );
#187 = DIRECTION( '', ( 1.00000000000000, 0.000000000000000, 0.000000000000000 ) );
#188 = ORIENTED_EDGE( '', *, *, #210, .F. );
#189 = ORIENTED_EDGE( '', *, *, #214, .F. );
#190 = ORIENTED_EDGE( '', *, *, #211, .F. );
#191 = CARTESIAN_POINT( '', ( 0.000000000000000, 11.2386079159396, 0.000000000000000 ) );
#192 = DIRECTION( '', ( 0.000000000000000, -1.00000000000000, -0.000000000000000 ) );
#193 = DIRECTION( '', ( 1.00000000000000, 0.000000000000000, 0.000000000000000 ) );
#194 = ORIENTED_EDGE( '', *, *, #222, .T. );
#195 = ORIENTED_EDGE( '', *, *, #223, .T. );
#196 = ORIENTED_EDGE( '', *, *, #226, .F. );
#197 = ORIENTED_EDGE( '', *, *, #227, .F. );
#198 = CARTESIAN_POINT( '', ( 3.00000000000000, -1.77635683940025E-015, 0.000000000000000 ) );
#199 = DIRECTION( '', ( -5.92118946466750E-016, -1.00000000000000, -0.000000000000000 ) );
#200 = DIRECTION( '', ( -1.00000000000000, 5.92118946466750E-016, 0.000000000000000 ) );
#201 = ORIENTED_EDGE( '', *, *, #208, .T. );
#202 = ORIENTED_EDGE( '', *, *, #209, .T. );
#203 = ORIENTED_EDGE( '', *, *, #226, .T. );
#204 = ORIENTED_EDGE( '', *, *, #227, .T. );
#205 = CARTESIAN_POINT( '', ( 0.000000000000000, 8.00000000000000, 0.000000000000000 ) );
#206 = DIRECTION( '', ( 0.000000000000000, 0.000000000000000, 1.00000000000000 ) );
#207 = DIRECTION( '', ( 1.00000000000000, 0.000000000000000, 0.000000000000000 ) );
#208 = EDGE_CURVE( '', #228, #229, #230, .T. );
#209 = EDGE_CURVE( '', #229, #228, #231, .T. );
#210 = EDGE_CURVE( '', #232, #233, #234, .T. );
#211 = EDGE_CURVE( '', #233, #235, #236, .T. );
#212 = EDGE_CURVE( '', #232, #235, #237, .T. );
#213 = EDGE_CURVE( '', #235, #238, #239, .T. );
#214 = EDGE_CURVE( '', #235, #232, #240, .T. );
#215 = EDGE_CURVE( '', #241, #232, #242, .T. );
#216 = EDGE_CURVE( '', #238, #241, #243, .T. );
#217 = EDGE_CURVE( '', #238, #244, #245, .T. );
#218 = EDGE_CURVE( '', #246, #241, #247, .T. );
#219 = EDGE_CURVE( '', #244, #246, #248, .T. );
#220 = EDGE_CURVE( '', #244, #249, #250, .T. );
#221 = EDGE_CURVE( '', #251, #246, #252, .T. );
#222 = EDGE_CURVE( '', #249, #251, #253, .T. );
#223 = EDGE_CURVE( '', #251, #249, #254, .T. );
#224 = EDGE_CURVE( '', #246, #244, #255, .T. );
#225 = EDGE_CURVE( '', #241, #238, #256, .T. );
#226 = EDGE_CURVE( '', #257, #258, #259, .T. );
#227 = EDGE_CURVE( '', #258, #257, #260, .T. );
#228 = VERTEX_POINT( '', #261 );
#229 = VERTEX_POINT( '', #262 );
#230 = CIRCLE( '', #263, 10.0000000000000 );
#231 = CIRCLE( '', #264, 10.0000000000000 );
#232 = VERTEX_POINT( '', #265 );
#233 = VERTEX_POINT( '', #266 );
#234 = LINE( '', #267, #268 );
#235 = VERTEX_POINT( '', #269 );
#236 = LINE( '', #270, #271 );
#237 = CIRCLE( '', #272, 2.45850000000000 );
#238 = VERTEX_POINT( '', #273 );
#239 = LINE( '', #274, #275 );
#240 = CIRCLE( '', #276, 2.45850000000000 );
#241 = VERTEX_POINT( '', #277 );
#242 = LINE( '', #278, #279 );
#243 = CIRCLE( '', #280, 2.45850000000000 );
#244 = VERTEX_POINT( '', #281 );
#245 = LINE( '', #282, #283 );
#246 = VERTEX_POINT( '', #284 );
#247 = LINE( '', #285, #286 );
#248 = CIRCLE( '', #287, 3.00000000000000 );
#249 = VERTEX_POINT( '', #288 );
#250 = LINE( '', #289, #290 );
#251 = VERTEX_POINT( '', #291 );
#252 = LINE( '', #292, #293 );
#253 = CIRCLE( '', #294, 3.00000000000000 );
#254 = CIRCLE( '', #295, 3.00000000000000 );
#255 = CIRCLE( '', #296, 3.00000000000000 );
#256 = CIRCLE( '', #297, 2.45850000000000 );
#257 = VERTEX_POINT( '', #298 );
#258 = VERTEX_POINT( '', #299 );
#259 = CIRCLE( '', #300, 6.00000000000000 );
#260 = CIRCLE( '', #301, 6.00000000000000 );
#261 = CARTESIAN_POINT( '', ( 1.22460635382238E-015, 8.00000000000000, -10.0000000000000 ) );
#262 = CARTESIAN_POINT( '', ( 0.000000000000000, 8.00000000000000, 10.0000000000000 ) );
#263 = AXIS2_PLACEMENT_3D( '', #302, #303, #304 );
#264 = AXIS2_PLACEMENT_3D( '', #305, #306, #307 );
#265 = CARTESIAN_POINT( '', ( -2.45850000000000, 10.5000000000000, -3.01069472087231E-016 ) );
#266 = CARTESIAN_POINT( '', ( 0.000000000000000, 11.9772158318793, 0.000000000000000 ) );
#267 = CARTESIAN_POINT( '', ( -1.22925000000000, 11.2386079159396, -1.50534736043616E-016 ) );
#268 = VECTOR( '', #308, 1.00000000000000 );
#269 = CARTESIAN_POINT( '', ( 2.45850000000000, 10.5000000000000, 0.000000000000000 ) );
#270 = CARTESIAN_POINT( '', ( 1.22925000000000, 11.2386079159396, 1.50534736043616E-016 ) );
#271 = VECTOR( '', #309, 1.00000000000000 );
#272 = AXIS2_PLACEMENT_3D( '', #310, #311, #312 );
#273 = CARTESIAN_POINT( '', ( 2.45850000000000, 1.59150000000000, 0.000000000000000 ) );
#274 = CARTESIAN_POINT( '', ( 2.45850000000000, 6.04575000000000, 3.01069472087231E-016 ) );
#275 = VECTOR( '', #313, 1.00000000000000 );
#276 = AXIS2_PLACEMENT_3D( '', #314, #315, #316 );
#277 = CARTESIAN_POINT( '', ( -2.45850000000000, 1.59150000000000, -3.01069472087231E-016 ) );
#278 = CARTESIAN_POINT( '', ( -2.45850000000000, 6.04575000000000, -3.01069472087231E-016 ) );
#279 = VECTOR( '', #317, 1.00000000000000 );
#280 = AXIS2_PLACEMENT_3D( '', #318, #319, #320 );
#281 = CARTESIAN_POINT( '', ( 3.00000000000000, 1.05000000000000, 0.000000000000000 ) );
#282 = CARTESIAN_POINT( '', ( 2.72925000000000, 1.32075000000000, 3.34225689116972E-016 ) );
#283 = VECTOR( '', #321, 1.00000000000000 );
#284 = CARTESIAN_POINT( '', ( -3.00000000000000, 1.05000000000000, -3.67381906146713E-016 ) );
#285 = CARTESIAN_POINT( '', ( -2.72925000000000, 1.32075000000000, -3.34225689116972E-016 ) );
#286 = VECTOR( '', #322, 1.00000000000000 );
#287 = AXIS2_PLACEMENT_3D( '', #323, #324, #325 );
#288 = CARTESIAN_POINT( '', ( 3.00000000000000, 0.000000000000000, 0.000000000000000 ) );
#289 = CARTESIAN_POINT( '', ( 3.00000000000000, 0.525000000000000, 3.67381906146713E-016 ) );
#290 = VECTOR( '', #326, 1.00000000000000 );
#291 = CARTESIAN_POINT( '', ( -3.00000000000000, 0.000000000000000, -3.67381906146713E-016 ) );
#292 = CARTESIAN_POINT( '', ( -3.00000000000000, 0.525000000000000, -3.67381906146713E-016 ) );
#293 = VECTOR( '', #327, 1.00000000000000 );
#294 = AXIS2_PLACEMENT_3D( '', #328, #329, #330 );
#295 = AXIS2_PLACEMENT_3D( '', #331, #332, #333 );
#296 = AXIS2_PLACEMENT_3D( '', #334, #335, #336 );
#297 = AXIS2_PLACEMENT_3D( '', #337, #338, #339 );
#298 = CARTESIAN_POINT( '', ( 6.00000000000000, -3.55271367880050E-015, 0.000000000000000 ) );
#299 = CARTESIAN_POINT( '', ( -6.00000000000000, -3.55271367880050E-015, -7.34763812293426E-016 ) );
#300 = AXIS2_PLACEMENT_3D( '', #340, #341, #342 );
#301 = AXIS2_PLACEMENT_3D( '', #343, #344, #345 );
#302 = CARTESIAN_POINT( '', ( 0.000000000000000, 8.00000000000000, 0.000000000000000 ) );
#303 = DIRECTION( '', ( -8.88178419700125E-017, -1.00000000000000, 0.000000000000000 ) );
#304 = DIRECTION( '', ( 0.000000000000000, 0.000000000000000, 1.00000000000000 ) );
#305 = CARTESIAN_POINT( '', ( 0.000000000000000, 8.00000000000000, 0.000000000000000 ) );
#306 = DIRECTION( '', ( -8.88178419700125E-017, -1.00000000000000, 0.000000000000000 ) );
#307 = DIRECTION( '', ( 0.000000000000000, 0.000000000000000, 1.00000000000000 ) );
#308 = DIRECTION( '', ( 0.857167300702112, 0.515038074910054, 1.04969252272858E-016 ) );
#309 = DIRECTION( '', ( 0.857167300702112, -0.515038074910054, 1.04969252272858E-016 ) );
#310 = CARTESIAN_POINT( '', ( 0.000000000000000, 10.5000000000000, 0.000000000000000 ) );
#311 = DIRECTION( '', ( -0.000000000000000, 1.00000000000000, 0.000000000000000 ) );
#312 = DIRECTION( '', ( 1.00000000000000, 0.000000000000000, 0.000000000000000 ) );
#313 = DIRECTION( '', ( -0.000000000000000, -1.00000000000000, -0.000000000000000 ) );
#314 = CARTESIAN_POINT( '', ( 0.000000000000000, 10.5000000000000, 0.000000000000000 ) );
#315 = DIRECTION( '', ( -0.000000000000000, 1.00000000000000, 0.000000000000000 ) );
#316 = DIRECTION( '', ( 1.00000000000000, 0.000000000000000, 0.000000000000000 ) );
#317 = DIRECTION( '', ( -0.000000000000000, 1.00000000000000, -0.000000000000000 ) );
#318 = CARTESIAN_POINT( '', ( 0.000000000000000, 1.59150000000000, 0.000000000000000 ) );
#319 = DIRECTION( '', ( -0.000000000000000, 1.00000000000000, 0.000000000000000 ) );
#320 = DIRECTION( '', ( 1.00000000000000, 0.000000000000000, 0.000000000000000 ) );
#321 = DIRECTION( '', ( 0.707106781186548, -0.707106781186547, 8.65927457071936E-017 ) );
#322 = DIRECTION( '', ( 0.707106781186548, 0.707106781186547, 8.65927457071936E-017 ) );
#323 = CARTESIAN_POINT( '', ( 0.000000000000000, 1.05000000000000, 0.000000000000000 ) );
#324 = DIRECTION( '', ( -0.000000000000000, 1.00000000000000, 0.000000000000000 ) );
#325 = DIRECTION( '', ( 1.00000000000000, 0.000000000000000, 0.000000000000000 ) );
#326 = DIRECTION( '', ( -0.000000000000000, -1.00000000000000, -0.000000000000000 ) );
#327 = DIRECTION( '', ( -0.000000000000000, 1.00000000000000, -0.000000000000000 ) );
#328 = CARTESIAN_POINT( '', ( 0.000000000000000, -1.77635683940025E-015, 0.000000000000000 ) );
#329 = DIRECTION( '', ( 5.92118946466750E-016, 1.00000000000000, 0.000000000000000 ) );
#330 = DIRECTION( '', ( 1.00000000000000, -5.92118946466750E-016, 0.000000000000000 ) );
#331 = CARTESIAN_POINT( '', ( 0.000000000000000, -1.77635683940025E-015, 0.000000000000000 ) );
#332 = DIRECTION( '', ( 5.92118946466750E-016, 1.00000000000000, 0.000000000000000 ) );
#333 = DIRECTION( '', ( 1.00000000000000, -5.92118946466750E-016, 0.000000000000000 ) );
#334 = CARTESIAN_POINT( '', ( 0.000000000000000, 1.05000000000000, 0.000000000000000 ) );
#335 = DIRECTION( '', ( -0.000000000000000, 1.00000000000000, 0.000000000000000 ) );
#336 = DIRECTION( '', ( 1.00000000000000, 0.000000000000000, 0.000000000000000 ) );
#337 = CARTESIAN_POINT( '', ( 0.000000000000000, 1.59150000000000, 0.000000000000000 ) );
#338 = DIRECTION( '', ( -0.000000000000000, 1.00000000000000, 0.000000000000000 ) );
#339 = DIRECTION( '', ( 1.00000000000000, 0.000000000000000, 0.000000000000000 ) );
#340 = CARTESIAN_POINT( '', ( 0.000000000000000, -3.55271367880050E-015, 0.000000000000000 ) );
#341 = DIRECTION( '', ( -0.000000000000000, 1.00000000000000, 0.000000000000000 ) );
#342 = DIRECTION( '', ( 1.00000000000000, 0.000000000000000, 0.000000000000000 ) );
#343 = CARTESIAN_POINT( '', ( 0.000000000000000, -3.55271367880050E-015, 0.000000000000000 ) );
#344 = DIRECTION( '', ( -0.000000000000000, 1.00000000000000, 0.000000000000000 ) );
#345 = DIRECTION( '', ( 1.00000000000000, 0.000000000000000, 0.000000000000000 ) );
ENDSEC;
END-ISO-10303-21;
