ISO-10303-21;
HEADER;
FILE_DESCRIPTION (( 'STEP AP203' ),
    '1' );
FILE_NAME ('WDS-804-212.step',
    '2012-04-10T07:28:16',
    ( 'SysAdmin' ),
    ( 'SolidWorks' ),
    'SwSTEP 2.0',
    'SolidWorks 2012',
    '' );
FILE_SCHEMA (( 'CONFIG_CONTROL_DESIGN' ));
ENDSEC;

DATA;
#1 = VERTEX_POINT ( 'NONE', #199 ) ;
#2 = ADVANCED_FACE ( 'NONE', ( #198 ), #196, .F. ) ;
#3 = EDGE_CURVE ( 'NONE', #91, #29, #193, .T. ) ;
#4 = EDGE_CURVE ( 'NONE', #184, #90, #264, .T. ) ;
#5 = ORIENTED_EDGE ( 'NONE', *, *, #107, .F. ) ;
#6 = EDGE_CURVE ( 'NONE', #48, #184, #261, .T. ) ;
#7 = EDGE_LOOP ( 'NONE', ( #8, #15, #51, #36 ) ) ;
#8 = ORIENTED_EDGE ( 'NONE', *, *, #11, .F. ) ;
#9 = EDGE_LOOP ( 'NONE', ( #98, #88, #119, #114, #189, #97, #192 ) ) ;
#10 = ADVANCED_FACE ( 'NONE', ( #194 ), #101, .T. ) ;
#11 = EDGE_CURVE ( 'NONE', #90, #1, #247, .T. ) ;
#12 = ADVANCED_FACE ( 'NONE', ( #248 ), #254, .T. ) ;
#13 = ORIENTED_EDGE ( 'NONE', *, *, #93, .F. ) ;
#14 = EDGE_LOOP ( 'NONE', ( #13, #5, #94, #186, #190 ) ) ;
#15 = ORIENTED_EDGE ( 'NONE', *, *, #4, .F. ) ;
#16 = ORIENTED_EDGE ( 'NONE', *, *, #84, .F. ) ;
#17 = EDGE_LOOP ( 'NONE', ( #20, #86, #16, #34 ) ) ;
#18 = ORIENTED_EDGE ( 'NONE', *, *, #25, .F. ) ;
#19 = ORIENTED_EDGE ( 'NONE', *, *, #21, .T. ) ;
#20 = ORIENTED_EDGE ( 'NONE', *, *, #87, .T. ) ;
#21 = EDGE_CURVE ( 'NONE', #22, #26, #249, .T. ) ;
#22 = VERTEX_POINT ( 'NONE', #255 ) ;
#23 = EDGE_CURVE ( 'NONE', #1, #27, #301, .T. ) ;
#24 = ORIENTED_EDGE ( 'NONE', *, *, #28, .F. ) ;
#25 = EDGE_CURVE ( 'NONE', #29, #46, #296, .T. ) ;
#26 = VERTEX_POINT ( 'NONE', #302 ) ;
#27 = VERTEX_POINT ( 'NONE', #297 ) ;
#28 = EDGE_CURVE ( 'NONE', #27, #26, #292, .T. ) ;
#29 = VERTEX_POINT ( 'NONE', #291 ) ;
#30 = ORIENTED_EDGE ( 'NONE', *, *, #37, .F. ) ;
#31 = ORIENTED_EDGE ( 'NONE', *, *, #23, .F. ) ;
#32 = ORIENTED_EDGE ( 'NONE', *, *, #33, .F. ) ;
#33 = EDGE_CURVE ( 'NONE', #22, #29, #290, .T. ) ;
#34 = ORIENTED_EDGE ( 'NONE', *, *, #111, .T. ) ;
#35 = ADVANCED_FACE ( 'NONE', ( #210 ), #285, .T. ) ;
#36 = ORIENTED_EDGE ( 'NONE', *, *, #37, .T. ) ;
#37 = EDGE_CURVE ( 'NONE', #46, #1, #277, .T. ) ;
#38 = EDGE_CURVE ( 'NONE', #46, #184, #178, .T. ) ;
#39 = DATE_AND_TIME ( #40, #41 ) ;
#40 = CALENDAR_DATE ( 2012, 10, 4 ) ;
#41 = LOCAL_TIME ( 3, 28, 16.00000000000000000, #42 ) ;
#42 = COORDINATED_UNIVERSAL_TIME_OFFSET ( 5, 0, .BEHIND. ) ;
#43 = CC_DESIGN_PERSON_AND_ORGANIZATION_ASSIGNMENT ( #54, #53, ( #55 ) ) ;
#44 = CC_DESIGN_PERSON_AND_ORGANIZATION_ASSIGNMENT ( #45, #49, ( #371 ) ) ;
#45 = PERSON_AND_ORGANIZATION ( #365, #364 ) ;
#46 = VERTEX_POINT ( 'NONE', #177 ) ;
#47 = EDGE_LOOP ( 'NONE', ( #24, #31, #30, #18, #32, #19 ) ) ;
#48 = VERTEX_POINT ( 'NONE', #274 ) ;
#49 = PERSON_AND_ORGANIZATION_ROLE ( 'design_supplier' ) ;
#50 = SECURITY_CLASSIFICATION_LEVEL ( 'unclassified' ) ;
#51 = ORIENTED_EDGE ( 'NONE', *, *, #38, .F. ) ;
#52 = CLOSED_SHELL ( 'NONE', ( #102, #205, #122, #10, #12, #35, #85, #2, #70, #77, #81 ) ) ;
#53 = PERSON_AND_ORGANIZATION_ROLE ( 'classification_officer' ) ;
#54 = PERSON_AND_ORGANIZATION ( #365, #364 ) ;
#55 = SECURITY_CLASSIFICATION ( '', '', #50 ) ;
#56 = ORIENTED_EDGE ( 'NONE', *, *, #33, .T. ) ;
#57 = ORIENTED_EDGE ( 'NONE', *, *, #121, .T. ) ;
#58 = EDGE_LOOP ( 'NONE', ( #75, #76, #78, #80 ) ) ;
#59 = ORIENTED_EDGE ( 'NONE', *, *, #3, .F. ) ;
#60 = ORIENTED_EDGE ( 'NONE', *, *, #6, .F. ) ;
#61 = EDGE_LOOP ( 'NONE', ( #64, #83, #82, #73, #63, #74 ) ) ;
#62 = ORIENTED_EDGE ( 'NONE', *, *, #25, .T. ) ;
#63 = ORIENTED_EDGE ( 'NONE', *, *, #79, .F. ) ;
#64 = ORIENTED_EDGE ( 'NONE', *, *, #118, .T. ) ;
#65 = EDGE_LOOP ( 'NONE', ( #56, #59, #67, #68 ) ) ;
#66 = EDGE_LOOP ( 'NONE', ( #57, #69, #72, #62, #71, #60 ) ) ;
#67 = ORIENTED_EDGE ( 'NONE', *, *, #89, .F. ) ;
#68 = ORIENTED_EDGE ( 'NONE', *, *, #84, .T. ) ;
#69 = ORIENTED_EDGE ( 'NONE', *, *, #92, .F. ) ;
#70 = ADVANCED_FACE ( 'NONE', ( #257 ), #278, .F. ) ;
#71 = ORIENTED_EDGE ( 'NONE', *, *, #38, .T. ) ;
#72 = ORIENTED_EDGE ( 'NONE', *, *, #3, .T. ) ;
#73 = ORIENTED_EDGE ( 'NONE', *, *, #23, .T. ) ;
#74 = ORIENTED_EDGE ( 'NONE', *, *, #191, .F. ) ;
#75 = ORIENTED_EDGE ( 'NONE', *, *, #28, .T. ) ;
#76 = ORIENTED_EDGE ( 'NONE', *, *, #87, .F. ) ;
#77 = ADVANCED_FACE ( 'NONE', ( #176 ), #171, .F. ) ;
#78 = ORIENTED_EDGE ( 'NONE', *, *, #110, .F. ) ;
#79 = EDGE_CURVE ( 'NONE', #203, #27, #161, .T. ) ;
#80 = ORIENTED_EDGE ( 'NONE', *, *, #79, .T. ) ;
#81 = ADVANCED_FACE ( 'NONE', ( #179 ), #157, .F. ) ;
#82 = ORIENTED_EDGE ( 'NONE', *, *, #11, .T. ) ;
#83 = ORIENTED_EDGE ( 'NONE', *, *, #93, .T. ) ;
#84 = EDGE_CURVE ( 'NONE', #112, #22, #238, .T. ) ;
#85 = ADVANCED_FACE ( 'NONE', ( #165 ), #170, .F. ) ;
#86 = ORIENTED_EDGE ( 'NONE', *, *, #21, .F. ) ;
#87 = EDGE_CURVE ( 'NONE', #115, #26, #233, .T. ) ;
#88 = ORIENTED_EDGE ( 'NONE', *, *, #111, .F. ) ;
#89 = EDGE_CURVE ( 'NONE', #112, #91, #239, .T. ) ;
#90 = VERTEX_POINT ( 'NONE', #224 ) ;
#91 = VERTEX_POINT ( 'NONE', #228 ) ;
#92 = EDGE_CURVE ( 'NONE', #91, #204, #219, .T. ) ;
#93 = EDGE_CURVE ( 'NONE', #105, #90, #155, .T. ) ;
#94 = ORIENTED_EDGE ( 'NONE', *, *, #120, .F. ) ;
#95 = ORIENTED_EDGE ( 'NONE', *, *, #96, .T. ) ;
#96 = EDGE_CURVE ( 'NONE', #117, #108, #218, .T. ) ;
#97 = ORIENTED_EDGE ( 'NONE', *, *, #109, .T. ) ;
#98 = ORIENTED_EDGE ( 'NONE', *, *, #110, .T. ) ;
#99 = ORIENTED_EDGE ( 'NONE', *, *, #118, .F. ) ;
#100 = MANIFOLD_SOLID_BREP ( 'Cut-Extrude1', #52 ) ;
#101 = CYLINDRICAL_SURFACE ( 'NONE', #253, 17.50000000000000000 ) ;
#102 = ADVANCED_FACE ( 'NONE', ( #229 ), #146, .T. ) ;
#103 = EDGE_LOOP ( 'NONE', ( #116, #95, #106, #99 ) ) ;
#104 = VERTEX_POINT ( 'NONE', #220 ) ;
#105 = VERTEX_POINT ( 'NONE', #145 ) ;
#106 = ORIENTED_EDGE ( 'NONE', *, *, #107, .T. ) ;
#107 = EDGE_CURVE ( 'NONE', #108, #105, #141, .T. ) ;
#108 = VERTEX_POINT ( 'NONE', #143 ) ;
#109 = EDGE_CURVE ( 'NONE', #117, #104, #129, .T. ) ;
#110 = EDGE_CURVE ( 'NONE', #203, #115, #341, .T. ) ;
#111 = EDGE_CURVE ( 'NONE', #112, #115, #355, .T. ) ;
#112 = VERTEX_POINT ( 'NONE', #334 ) ;
#113 = EDGE_LOOP ( 'NONE', ( #183, #185, #244, #188 ) ) ;
#114 = ORIENTED_EDGE ( 'NONE', *, *, #92, .T. ) ;
#115 = VERTEX_POINT ( 'NONE', #320 ) ;
#116 = ORIENTED_EDGE ( 'NONE', *, *, #109, .F. ) ;
#117 = VERTEX_POINT ( 'NONE', #311 ) ;
#118 = EDGE_CURVE ( 'NONE', #104, #105, #404, .T. ) ;
#119 = ORIENTED_EDGE ( 'NONE', *, *, #89, .T. ) ;
#120 = EDGE_CURVE ( 'NONE', #48, #108, #319, .T. ) ;
#121 = EDGE_CURVE ( 'NONE', #48, #204, #411, .T. ) ;
#122 = ADVANCED_FACE ( 'NONE', ( #409 ), #315, .T. ) ;
#123 = APPROVAL_ROLE ( '' ) ;
#124 = APPROVAL_STATUS ( 'not_yet_approved' ) ;
#125 = DIRECTION ( 'NONE',  ( 0.0000000000000000000, 0.0000000000000000000, -1.000000000000000000 ) ) ;
#126 = DIRECTION ( 'NONE',  ( -0.0000000000000000000, -1.000000000000000000, -0.0000000000000000000 ) ) ;
#127 = CARTESIAN_POINT ( 'NONE',  ( 0.0000000000000000000, 6.123031769111883300E-016, 0.0000000000000000000 ) ) ;
#128 = AXIS2_PLACEMENT_3D ( 'NONE', #127, #126, #125 ) ;
#129 = CIRCLE ( 'NONE', #128, 16.75000000000000000 ) ;
#130 = DATE_AND_TIME ( #131, #132 ) ;
#131 = CALENDAR_DATE ( 2012, 10, 4 ) ;
#132 = LOCAL_TIME ( 3, 28, 16.00000000000000000, #133 ) ;
#133 = COORDINATED_UNIVERSAL_TIME_OFFSET ( 5, 0, .BEHIND. ) ;
#134 = APPROVAL_PERSON_ORGANIZATION ( #140, #135, #123 ) ;
#135 = APPROVAL ( #124, 'UNSPECIFIED' ) ;
#136 = DIRECTION ( 'NONE',  ( 0.0000000000000000000, 0.0000000000000000000, -1.000000000000000000 ) ) ;
#137 = DIRECTION ( 'NONE',  ( -0.0000000000000000000, -1.000000000000000000, -0.0000000000000000000 ) ) ;
#138 = CARTESIAN_POINT ( 'NONE',  ( 0.0000000000000000000, 0.7500000000000006700, 0.0000000000000000000 ) ) ;
#139 = AXIS2_PLACEMENT_3D ( 'NONE', #138, #137, #136 ) ;
#140 = PERSON_AND_ORGANIZATION ( #365, #364 ) ;
#141 = CIRCLE ( 'NONE', #139, 17.50000000000000000 ) ;
#142 = DIRECTION ( 'NONE',  ( 0.0000000000000000000, 0.0000000000000000000, 1.000000000000000000 ) ) ;
#143 = CARTESIAN_POINT ( 'NONE',  ( 0.0000000000000000000, 0.7500000000000005600, 17.50000000000000000 ) ) ;
#144 = CC_DESIGN_DATE_AND_TIME_ASSIGNMENT ( #39, #150, ( #55 ) ) ;
#145 = CARTESIAN_POINT ( 'NONE',  ( -7.999999999999998200, 0.7500000000000006700, -15.56438241627338400 ) ) ;
#146 = CONICAL_SURFACE ( 'NONE', #223, 16.75000000000000000, 0.7853981633974487200 ) ;
#147 = DIRECTION ( 'NONE',  ( 0.0000000000000000000, 0.7071067811865472400, 0.7071067811865479100 ) ) ;
#148 = VECTOR ( 'NONE', #147, 999.9999999999998900 ) ;
#149 = CARTESIAN_POINT ( 'NONE',  ( 0.0000000000000000000, 6.123031769111883300E-016, 16.75000000000000000 ) ) ;
#150 = DATE_TIME_ROLE ( 'classification_date' ) ;
#151 = DIRECTION ( 'NONE',  ( -0.0000000000000000000, 1.000000000000000000, -0.0000000000000000000 ) ) ;
#152 = VECTOR ( 'NONE', #151, 1000.000000000000000 ) ;
#153 = CARTESIAN_POINT ( 'NONE',  ( -7.999999999999998200, 0.0000000000000000000, -15.56438241627338400 ) ) ;
#154 = DIRECTION ( 'NONE',  ( 0.0000000000000000000, 1.000000000000000000, 0.0000000000000000000 ) ) ;
#155 = LINE ( 'NONE', #153, #152 ) ;
#156 = DIRECTION ( 'NONE',  ( 0.7071067811865487900, 0.0000000000000000000, -0.7071067811865463500 ) ) ;
#157 = PLANE ( 'NONE',  #166 ) ;
#158 = DIRECTION ( 'NONE',  ( -0.0000000000000000000, 1.000000000000000000, -0.0000000000000000000 ) ) ;
#159 = VECTOR ( 'NONE', #158, 1000.000000000000000 ) ;
#160 = CARTESIAN_POINT ( 'NONE',  ( -6.500000000000002700, 0.0000000000000000000, -14.06438241627338400 ) ) ;
#161 = LINE ( 'NONE', #160, #159 ) ;
#162 = DIRECTION ( 'NONE',  ( 1.233416032523135800E-016, 0.0000000000000000000, 1.000000000000000000 ) ) ;
#163 = DIRECTION ( 'NONE',  ( -1.000000000000000000, 0.0000000000000000000, 1.233416032523135800E-016 ) ) ;
#164 = CARTESIAN_POINT ( 'NONE',  ( -6.500000000000000900, 0.0000000000000000000, 7.959941299845442300E-016 ) ) ;
#165 = FACE_OUTER_BOUND ( 'NONE', #17, .T. ) ;
#166 = AXIS2_PLACEMENT_3D ( 'NONE', #242, #241, #240 ) ;
#167 = DIRECTION ( 'NONE',  ( 0.7071067811865487900, 0.0000000000000000000, -0.7071067811865463500 ) ) ;
#168 = DIRECTION ( 'NONE',  ( 0.7071067811865463500, 0.0000000000000000000, 0.7071067811865487900 ) ) ;
#169 = CARTESIAN_POINT ( 'NONE',  ( 6.499999999999999100, 0.0000000000000000000, -14.06438241627338600 ) ) ;
#170 = CYLINDRICAL_SURFACE ( 'NONE', #243, 6.500000000000000900 ) ;
#171 = PLANE ( 'NONE',  #279 ) ;
#172 = CARTESIAN_POINT ( 'NONE',  ( 8.000000000000000000, 7.250000000000000000, -15.56438241627338200 ) ) ;
#173 = CARTESIAN_POINT ( 'NONE',  ( 7.814112605263918700, 7.500304094624327800, -15.37849502153730300 ) ) ;
#174 = CARTESIAN_POINT ( 'NONE',  ( 7.628030081192638300, 7.750318784014075900, -15.19241249746602100 ) ) ;
#175 = CARTESIAN_POINT ( 'NONE',  ( 7.441724314758762800, 8.000000000000000000, -15.00610673103214600 ) ) ;
#176 = FACE_OUTER_BOUND ( 'NONE', #58, .T. ) ;
#177 = CARTESIAN_POINT ( 'NONE',  ( 7.441724314758762800, 8.000000000000000000, -15.00610673103214600 ) ) ;
#178 = B_SPLINE_CURVE_WITH_KNOTS ( 'NONE', 3,
 ( #175, #174, #173, #172 ),
 .UNSPECIFIED., .F., .F.,
 ( 4, 4 ),
 ( 2.907611595998419600E-007, 0.001089255168963245000 ),
 .UNSPECIFIED. ) ;
#179 = FACE_OUTER_BOUND ( 'NONE', #61, .T. ) ;
#180 = DIRECTION ( 'NONE',  ( 0.0000000000000000000, 0.0000000000000000000, -1.000000000000000000 ) ) ;
#181 = DIRECTION ( 'NONE',  ( -0.0000000000000000000, -1.000000000000000000, -0.0000000000000000000 ) ) ;
#182 = CARTESIAN_POINT ( 'NONE',  ( 0.0000000000000000000, 8.000000000000000000, 0.0000000000000000000 ) ) ;
#183 = ORIENTED_EDGE ( 'NONE', *, *, #96, .F. ) ;
#184 = VERTEX_POINT ( 'NONE', #351 ) ;
#185 = ORIENTED_EDGE ( 'NONE', *, *, #187, .F. ) ;
#186 = ORIENTED_EDGE ( 'NONE', *, *, #6, .T. ) ;
#187 = EDGE_CURVE ( 'NONE', #204, #117, #410, .T. ) ;
#188 = ORIENTED_EDGE ( 'NONE', *, *, #120, .T. ) ;
#189 = ORIENTED_EDGE ( 'NONE', *, *, #187, .T. ) ;
#190 = ORIENTED_EDGE ( 'NONE', *, *, #4, .T. ) ;
#191 = EDGE_CURVE ( 'NONE', #104, #203, #344, .T. ) ;
#192 = ORIENTED_EDGE ( 'NONE', *, *, #191, .T. ) ;
#193 = LINE ( 'NONE', #267, #266 ) ;
#194 = FACE_OUTER_BOUND ( 'NONE', #14, .T. ) ;
#195 = AXIS2_PLACEMENT_3D ( 'NONE', #197, #263, #262 ) ;
#196 = PLANE ( 'NONE',  #272 ) ;
#197 = CARTESIAN_POINT ( 'NONE',  ( 0.0000000000000000000, 7.250000000000000000, 0.0000000000000000000 ) ) ;
#198 = FACE_OUTER_BOUND ( 'NONE', #65, .T. ) ;
#199 = CARTESIAN_POINT ( 'NONE',  ( -7.441724314758767300, 8.000000000000000000, -15.00610673103214400 ) ) ;
#200 = CC_DESIGN_SECURITY_CLASSIFICATION ( #55, ( #371 ) ) ;
#201 = CC_DESIGN_APPROVAL ( #135, ( #55 ) ) ;
#202 = APPROVAL_DATE_TIME ( #130, #135 ) ;
#203 = VERTEX_POINT ( 'NONE', #403 ) ;
#204 = VERTEX_POINT ( 'NONE', #401 ) ;
#205 = ADVANCED_FACE ( 'NONE', ( #400 ), #347, .T. ) ;
#206 = DIRECTION ( 'NONE',  ( 0.0000000000000000000, 0.0000000000000000000, -1.000000000000000000 ) ) ;
#207 = DIRECTION ( 'NONE',  ( -0.0000000000000000000, -1.000000000000000000, -0.0000000000000000000 ) ) ;
#208 = CARTESIAN_POINT ( 'NONE',  ( 0.0000000000000000000, 8.000000000000000000, 0.0000000000000000000 ) ) ;
#209 = AXIS2_PLACEMENT_3D ( 'NONE', #208, #207, #206 ) ;
#210 = FACE_OUTER_BOUND ( 'NONE', #47, .T. ) ;
#211 = CARTESIAN_POINT ( 'NONE',  ( -7.441724314758767300, 8.000000000000000000, -15.00610673103214400 ) ) ;
#212 = CARTESIAN_POINT ( 'NONE',  ( -7.628030081192643600, 7.750318784014075900, -15.19241249746602000 ) ) ;
#213 = CARTESIAN_POINT ( 'NONE',  ( -7.814112605263924000, 7.500304094624328700, -15.37849502153730100 ) ) ;
#214 = DIRECTION ( 'NONE',  ( 0.0000000000000000000, 0.0000000000000000000, -1.000000000000000000 ) ) ;
#215 = VECTOR ( 'NONE', #156, 1000.000000000000000 ) ;
#216 = CARTESIAN_POINT ( 'NONE',  ( 6.499999999999999100, 0.0000000000000000000, -14.06438241627338600 ) ) ;
#217 = CARTESIAN_POINT ( 'NONE',  ( 0.0000000000000000000, 6.123031769111883300E-016, 0.0000000000000000000 ) ) ;
#218 = LINE ( 'NONE', #149, #148 ) ;
#219 = LINE ( 'NONE', #216, #215 ) ;
#220 = CARTESIAN_POINT ( 'NONE',  ( -7.441724314758766400, 0.0000000000000000000, -15.00610673103214400 ) ) ;
#221 = DIRECTION ( 'NONE',  ( -1.233416032523135800E-016, 0.0000000000000000000, -1.000000000000000000 ) ) ;
#222 = VECTOR ( 'NONE', #221, 1000.000000000000000 ) ;
#223 = AXIS2_PLACEMENT_3D ( 'NONE', #217, #154, #142 ) ;
#224 = CARTESIAN_POINT ( 'NONE',  ( -7.999999999999998200, 7.250000000000000000, -15.56438241627338400 ) ) ;
#225 = DIRECTION ( 'NONE',  ( -0.0000000000000000000, 1.000000000000000000, -0.0000000000000000000 ) ) ;
#226 = VECTOR ( 'NONE', #225, 1000.000000000000000 ) ;
#227 = CARTESIAN_POINT ( 'NONE',  ( -6.500000000000000900, 0.0000000000000000000, 7.959941299845442300E-016 ) ) ;
#228 = CARTESIAN_POINT ( 'NONE',  ( 6.499999999999999100, 0.0000000000000000000, -14.06438241627338600 ) ) ;
#229 = FACE_OUTER_BOUND ( 'NONE', #103, .T. ) ;
#230 = DIRECTION ( 'NONE',  ( 0.0000000000000000000, 0.0000000000000000000, -1.000000000000000000 ) ) ;
#231 = DIRECTION ( 'NONE',  ( -0.0000000000000000000, -1.000000000000000000, -0.0000000000000000000 ) ) ;
#232 = CARTESIAN_POINT ( 'NONE',  ( 0.0000000000000000000, 0.0000000000000000000, 0.0000000000000000000 ) ) ;
#233 = LINE ( 'NONE', #227, #226 ) ;
#234 = CARTESIAN_POINT ( 'NONE',  ( 6.500000000000000900, 0.0000000000000000000, -7.959941299845452200E-016 ) ) ;
#235 = DIRECTION ( 'NONE',  ( -0.0000000000000000000, 1.000000000000000000, -0.0000000000000000000 ) ) ;
#236 = VECTOR ( 'NONE', #235, 1000.000000000000000 ) ;
#237 = CARTESIAN_POINT ( 'NONE',  ( 6.500000000000000900, 0.0000000000000000000, -7.959941299845452200E-016 ) ) ;
#238 = LINE ( 'NONE', #237, #236 ) ;
#239 = LINE ( 'NONE', #234, #222 ) ;
#240 = DIRECTION ( 'NONE',  ( 0.7071067811865491300, 0.0000000000000000000, 0.7071067811865459100 ) ) ;
#241 = DIRECTION ( 'NONE',  ( -0.7071067811865459100, 0.0000000000000000000, 0.7071067811865491300 ) ) ;
#242 = CARTESIAN_POINT ( 'NONE',  ( -6.500000000000002700, 0.0000000000000000000, -14.06438241627338400 ) ) ;
#243 = AXIS2_PLACEMENT_3D ( 'NONE', #232, #231, #230 ) ;
#244 = ORIENTED_EDGE ( 'NONE', *, *, #121, .F. ) ;
#245 = CARTESIAN_POINT ( 'NONE',  ( -7.999999999999998200, 7.250000000000000000, -15.56438241627338400 ) ) ;
#246 = DIRECTION ( 'NONE',  ( -0.0000000000000000000, -1.000000000000000000, -0.0000000000000000000 ) ) ;
#247 = B_SPLINE_CURVE_WITH_KNOTS ( 'NONE', 3,
 ( #245, #213, #212, #211 ),
 .UNSPECIFIED., .F., .F.,
 ( 4, 4 ),
 ( 2.900374295961540300E-007, 0.001089254445233239600 ),
 .UNSPECIFIED. ) ;
#248 = FACE_OUTER_BOUND ( 'NONE', #7, .T. ) ;
#249 = CIRCLE ( 'NONE', #209, 6.500000000000000900 ) ;
#250 = DIRECTION ( 'NONE',  ( 0.0000000000000000000, 0.0000000000000000000, -1.000000000000000000 ) ) ;
#251 = DIRECTION ( 'NONE',  ( -0.0000000000000000000, -1.000000000000000000, -0.0000000000000000000 ) ) ;
#252 = CARTESIAN_POINT ( 'NONE',  ( 0.0000000000000000000, 0.0000000000000000000, 0.0000000000000000000 ) ) ;
#253 = AXIS2_PLACEMENT_3D ( 'NONE', #252, #251, #250 ) ;
#254 = CONICAL_SURFACE ( 'NONE', #268, 17.50000000000000000, 0.7853981633974488300 ) ;
#255 = CARTESIAN_POINT ( 'NONE',  ( 6.500000000000000900, 8.000000000000000000, -7.959941299845452200E-016 ) ) ;
#256 = CARTESIAN_POINT ( 'NONE',  ( 0.0000000000000000000, 7.250000000000000000, 0.0000000000000000000 ) ) ;
#257 = FACE_OUTER_BOUND ( 'NONE', #66, .T. ) ;
#258 = DIRECTION ( 'NONE',  ( -0.0000000000000000000, 1.000000000000000000, -0.0000000000000000000 ) ) ;
#259 = VECTOR ( 'NONE', #258, 1000.000000000000000 ) ;
#260 = CARTESIAN_POINT ( 'NONE',  ( 8.000000000000000000, 0.0000000000000000000, -15.56438241627338200 ) ) ;
#261 = LINE ( 'NONE', #260, #259 ) ;
#262 = DIRECTION ( 'NONE',  ( 0.0000000000000000000, 0.0000000000000000000, -1.000000000000000000 ) ) ;
#263 = DIRECTION ( 'NONE',  ( -0.0000000000000000000, -1.000000000000000000, -0.0000000000000000000 ) ) ;
#264 = CIRCLE ( 'NONE', #195, 17.50000000000000000 ) ;
#265 = DIRECTION ( 'NONE',  ( -0.0000000000000000000, 1.000000000000000000, -0.0000000000000000000 ) ) ;
#266 = VECTOR ( 'NONE', #265, 1000.000000000000000 ) ;
#267 = CARTESIAN_POINT ( 'NONE',  ( 6.499999999999999100, 0.0000000000000000000, -14.06438241627338600 ) ) ;
#268 = AXIS2_PLACEMENT_3D ( 'NONE', #256, #246, #214 ) ;
#269 = DIRECTION ( 'NONE',  ( -1.233416032523135800E-016, 0.0000000000000000000, -1.000000000000000000 ) ) ;
#270 = DIRECTION ( 'NONE',  ( 1.000000000000000000, 0.0000000000000000000, -1.233416032523135800E-016 ) ) ;
#271 = CARTESIAN_POINT ( 'NONE',  ( 6.500000000000000900, 0.0000000000000000000, -7.959941299845452200E-016 ) ) ;
#272 = AXIS2_PLACEMENT_3D ( 'NONE', #271, #270, #269 ) ;
#273 = AXIS2_PLACEMENT_3D ( 'NONE', #169, #168, #167 ) ;
#274 = CARTESIAN_POINT ( 'NONE',  ( 8.000000000000000000, 0.7500000000000006700, -15.56438241627338200 ) ) ;
#275 = DIRECTION ( 'NONE',  ( 0.0000000000000000000, -0.0000000000000000000, 1.000000000000000000 ) ) ;
#276 = DIRECTION ( 'NONE',  ( 0.0000000000000000000, 1.000000000000000000, 0.0000000000000000000 ) ) ;
#277 = CIRCLE ( 'NONE', #280, 16.75000000000000000 ) ;
#278 = PLANE ( 'NONE',  #273 ) ;
#279 = AXIS2_PLACEMENT_3D ( 'NONE', #164, #163, #162 ) ;
#280 = AXIS2_PLACEMENT_3D ( 'NONE', #182, #181, #180 ) ;
#281 = AXIS2_PLACEMENT_3D ( 'NONE', #284, #276, #275 ) ;
#282 = DIRECTION ( 'NONE',  ( -1.233416032523135800E-016, 0.0000000000000000000, -1.000000000000000000 ) ) ;
#283 = VECTOR ( 'NONE', #282, 1000.000000000000000 ) ;
#284 = CARTESIAN_POINT ( 'NONE',  ( 6.500000000000000900, 8.000000000000000000, 0.0000000000000000000 ) ) ;
#285 = PLANE ( 'NONE',  #281 ) ;
#286 = DIRECTION ( 'NONE',  ( 1.233416032523135800E-016, -0.0000000000000000000, 1.000000000000000000 ) ) ;
#287 = VECTOR ( 'NONE', #286, 1000.000000000000000 ) ;
#288 = CARTESIAN_POINT ( 'NONE',  ( -6.500000000000000900, 8.000000000000000000, 7.959941299845442300E-016 ) ) ;
#289 = CARTESIAN_POINT ( 'NONE',  ( 6.500000000000000900, 8.000000000000000000, -7.959941299845452200E-016 ) ) ;
#290 = LINE ( 'NONE', #289, #283 ) ;
#291 = CARTESIAN_POINT ( 'NONE',  ( 6.499999999999999100, 8.000000000000000000, -14.06438241627338600 ) ) ;
#292 = LINE ( 'NONE', #288, #287 ) ;
#293 = DIRECTION ( 'NONE',  ( 0.7071067811865487900, 0.0000000000000000000, -0.7071067811865463500 ) ) ;
#294 = VECTOR ( 'NONE', #293, 1000.000000000000000 ) ;
#295 = CARTESIAN_POINT ( 'NONE',  ( 6.499999999999999100, 8.000000000000000000, -14.06438241627338600 ) ) ;
#296 = LINE ( 'NONE', #295, #294 ) ;
#297 = CARTESIAN_POINT ( 'NONE',  ( -6.500000000000002700, 8.000000000000000000, -14.06438241627338400 ) ) ;
#298 = DIRECTION ( 'NONE',  ( 0.7071067811865491300, -0.0000000000000000000, 0.7071067811865459100 ) ) ;
#299 = VECTOR ( 'NONE', #298, 1000.000000000000100 ) ;
#300 = CARTESIAN_POINT ( 'NONE',  ( -6.500000000000002700, 8.000000000000000000, -14.06438241627338400 ) ) ;
#301 = LINE ( 'NONE', #300, #299 ) ;
#302 = CARTESIAN_POINT ( 'NONE',  ( -6.500000000000000900, 8.000000000000000000, 7.959941299845442300E-016 ) ) ;
#303 = APPLICATION_CONTEXT ( 'configuration controlled 3d designs of mechanical parts and assemblies' ) ;
#304 = AXIS2_PLACEMENT_3D ( 'NONE', #307, #306, #305 ) ;
#305 = DIRECTION ( 'NONE',  ( 1.000000000000000000, 0.0000000000000000000, 0.0000000000000000000 ) ) ;
#306 = DIRECTION ( 'NONE',  ( 0.0000000000000000000, 0.0000000000000000000, 1.000000000000000000 ) ) ;
#307 = CARTESIAN_POINT ( 'NONE',  ( 0.0000000000000000000, 0.0000000000000000000, 0.0000000000000000000 ) ) ;
#308 = ADVANCED_BREP_SHAPE_REPRESENTATION ( 'WDS-804-212', ( #100, #304 ), #405 ) ;
#309 = DIRECTION ( 'NONE',  ( 0.0000000000000000000, 0.0000000000000000000, -1.000000000000000000 ) ) ;
#310 = CARTESIAN_POINT ( 'NONE',  ( -7.441724314758766400, 0.0000000000000000000, -15.00610673103214400 ) ) ;
#311 = CARTESIAN_POINT ( 'NONE',  ( 0.0000000000000000000, 6.123031769111883300E-016, 16.75000000000000000 ) ) ;
#312 = CARTESIAN_POINT ( 'NONE',  ( -6.500000000000000900, 0.0000000000000000000, 7.959941299845442300E-016 ) ) ;
#313 = DIRECTION ( 'NONE',  ( -0.0000000000000000000, -1.000000000000000000, -0.0000000000000000000 ) ) ;
#314 = AXIS2_PLACEMENT_3D ( 'NONE', #336, #340, #348 ) ;
#315 = CONICAL_SURFACE ( 'NONE', #314, 16.75000000000000000, 0.7853981633974487200 ) ;
#316 = DIRECTION ( 'NONE',  ( 0.0000000000000000000, 0.0000000000000000000, -1.000000000000000000 ) ) ;
#317 = DIRECTION ( 'NONE',  ( -0.0000000000000000000, -1.000000000000000000, -0.0000000000000000000 ) ) ;
#318 = CARTESIAN_POINT ( 'NONE',  ( 0.0000000000000000000, 0.7500000000000006700, 0.0000000000000000000 ) ) ;
#319 = CIRCLE ( 'NONE', #321, 17.50000000000000000 ) ;
#320 = CARTESIAN_POINT ( 'NONE',  ( -6.500000000000000900, 0.0000000000000000000, 7.959941299845442300E-016 ) ) ;
#321 = AXIS2_PLACEMENT_3D ( 'NONE', #318, #317, #316 ) ;
#322 = CC_DESIGN_PERSON_AND_ORGANIZATION_ASSIGNMENT ( #324, #323, ( #371 ) ) ;
#323 = PERSON_AND_ORGANIZATION_ROLE ( 'creator' ) ;
#324 = PERSON_AND_ORGANIZATION ( #365, #364 ) ;
#325 = CC_DESIGN_APPROVAL ( #333, ( #371 ) ) ;
#326 = APPROVAL_DATE_TIME ( #327, #333 ) ;
#327 = DATE_AND_TIME ( #328, #329 ) ;
#328 = CALENDAR_DATE ( 2012, 10, 4 ) ;
#329 = LOCAL_TIME ( 3, 28, 16.00000000000000000, #330 ) ;
#330 = COORDINATED_UNIVERSAL_TIME_OFFSET ( 5, 0, .BEHIND. ) ;
#331 = APPROVAL_PERSON_ORGANIZATION ( #370, #333, #332 ) ;
#332 = APPROVAL_ROLE ( '' ) ;
#333 = APPROVAL ( #369, 'UNSPECIFIED' ) ;
#334 = CARTESIAN_POINT ( 'NONE',  ( 6.500000000000000000, -6.429183357567485500E-016, -7.959941299845451200E-016 ) ) ;
#335 = CARTESIAN_POINT ( 'NONE',  ( 0.0000000000000000000, -6.429183357567485500E-016, 0.0000000000000000000 ) ) ;
#336 = CARTESIAN_POINT ( 'NONE',  ( 0.0000000000000000000, 6.123031769111883300E-016, 0.0000000000000000000 ) ) ;
#337 = CARTESIAN_POINT ( 'NONE',  ( -7.999999999999998200, 0.7500000000000006700, -15.56438241627338400 ) ) ;
#338 = CARTESIAN_POINT ( 'NONE',  ( -7.814112605263925800, 0.4996959053756729300, -15.37849502153729900 ) ) ;
#339 = CARTESIAN_POINT ( 'NONE',  ( -7.628030081192642700, 0.2496812159859258300, -15.19241249746602000 ) ) ;
#340 = DIRECTION ( 'NONE',  ( 0.0000000000000000000, 1.000000000000000000, 0.0000000000000000000 ) ) ;
#341 = LINE ( 'NONE', #312, #354 ) ;
#342 = VECTOR ( 'NONE', #402, 1000.000000000000100 ) ;
#343 = CARTESIAN_POINT ( 'NONE',  ( -6.500000000000002700, 0.0000000000000000000, -14.06438241627338400 ) ) ;
#344 = LINE ( 'NONE', #343, #342 ) ;
#345 = DIRECTION ( 'NONE',  ( 0.0000000000000000000, 0.0000000000000000000, -1.000000000000000000 ) ) ;
#346 = DIRECTION ( 'NONE',  ( -0.0000000000000000000, -1.000000000000000000, -0.0000000000000000000 ) ) ;
#347 = PLANE ( 'NONE',  #399 ) ;
#348 = DIRECTION ( 'NONE',  ( 0.0000000000000000000, 0.0000000000000000000, 1.000000000000000000 ) ) ;
#349 = CARTESIAN_POINT ( 'NONE',  ( 0.0000000000000000000, 6.123031769111883300E-016, 0.0000000000000000000 ) ) ;
#350 = AXIS2_PLACEMENT_3D ( 'NONE', #349, #346, #345 ) ;
#351 = CARTESIAN_POINT ( 'NONE',  ( 8.000000000000000000, 7.250000000000000000, -15.56438241627338200 ) ) ;
#352 = AXIS2_PLACEMENT_3D ( 'NONE', #335, #313, #309 ) ;
#353 = DIRECTION ( 'NONE',  ( 1.233416032523135800E-016, -0.0000000000000000000, 1.000000000000000000 ) ) ;
#354 = VECTOR ( 'NONE', #353, 1000.000000000000000 ) ;
#355 = CIRCLE ( 'NONE', #352, 6.500000000000000000 ) ;
#356 = CARTESIAN_POINT ( 'NONE',  ( 7.441724314758762800, 0.0000000000000000000, -15.00610673103214800 ) ) ;
#357 = CARTESIAN_POINT ( 'NONE',  ( 7.628030081192639100, 0.2496812159859257400, -15.19241249746602100 ) ) ;
#358 = CARTESIAN_POINT ( 'NONE',  ( 7.814112605263920500, 0.4996959053756734900, -15.37849502153730300 ) ) ;
#359 = CARTESIAN_POINT ( 'NONE',  ( 8.000000000000000000, 0.7500000000000006700, -15.56438241627338200 ) ) ;
#360 = APPLICATION_CONTEXT ( 'configuration controlled 3d designs of mechanical parts and assemblies' ) ;
#361 = CC_DESIGN_PERSON_AND_ORGANIZATION_ASSIGNMENT ( #363, #362, ( #366 ) ) ;
#362 = PERSON_AND_ORGANIZATION_ROLE ( 'design_owner' ) ;
#363 = PERSON_AND_ORGANIZATION ( #365, #364 ) ;
#364 = ORGANIZATION ( 'UNSPECIFIED', 'UNSPECIFIED', '' ) ;
#365 = PERSON ( 'UNSPECIFIED', 'UNSPECIFIED', 'UNSPECIFIED', ('UNSPECIFIED'), ('UNSPECIFIED'), ('UNSPECIFIED') ) ;
#366 = PRODUCT ( 'WDS-804-212', 'WDS-804-212', '', ( #367 ) ) ;
#367 = MECHANICAL_CONTEXT ( 'NONE', #303, 'mechanical' ) ;
#368 = APPLICATION_PROTOCOL_DEFINITION ( 'international standard', 'config_control_design', 1994, #303 ) ;
#369 = APPROVAL_STATUS ( 'not_yet_approved' ) ;
#370 = PERSON_AND_ORGANIZATION ( #365, #364 ) ;
#371 = PRODUCT_DEFINITION_FORMATION_WITH_SPECIFIED_SOURCE ( 'ANY', '', #366, .NOT_KNOWN. ) ;
#372 = CC_DESIGN_DATE_AND_TIME_ASSIGNMENT ( #374, #373, ( #392 ) ) ;
#373 = DATE_TIME_ROLE ( 'creation_date' ) ;
#374 = DATE_AND_TIME ( #375, #376 ) ;
#375 = CALENDAR_DATE ( 2012, 10, 4 ) ;
#376 = LOCAL_TIME ( 3, 28, 16.00000000000000000, #377 ) ;
#377 = COORDINATED_UNIVERSAL_TIME_OFFSET ( 5, 0, .BEHIND. ) ;
#378 = CC_DESIGN_PERSON_AND_ORGANIZATION_ASSIGNMENT ( #380, #379, ( #392 ) ) ;
#379 = PERSON_AND_ORGANIZATION_ROLE ( 'creator' ) ;
#380 = PERSON_AND_ORGANIZATION ( #365, #364 ) ;
#381 = CC_DESIGN_APPROVAL ( #389, ( #392 ) ) ;
#382 = APPROVAL_DATE_TIME ( #383, #389 ) ;
#383 = DATE_AND_TIME ( #384, #385 ) ;
#384 = CALENDAR_DATE ( 2012, 10, 4 ) ;
#385 = LOCAL_TIME ( 3, 28, 16.00000000000000000, #386 ) ;
#386 = COORDINATED_UNIVERSAL_TIME_OFFSET ( 5, 0, .BEHIND. ) ;
#387 = APPROVAL_PERSON_ORGANIZATION ( #391, #389, #388 ) ;
#388 = APPROVAL_ROLE ( '' ) ;
#389 = APPROVAL ( #390, 'UNSPECIFIED' ) ;
#390 = APPROVAL_STATUS ( 'not_yet_approved' ) ;
#391 = PERSON_AND_ORGANIZATION ( #365, #364 ) ;
#392 = PRODUCT_DEFINITION ( 'UNKNOWN', '', #371, #393 ) ;
#393 = DESIGN_CONTEXT ( 'detailed design', #360, 'design' ) ;
#394 = APPLICATION_PROTOCOL_DEFINITION ( 'international standard', 'config_control_design', 1994, #360 ) ;
#395 =( LENGTH_UNIT ( ) NAMED_UNIT ( * ) SI_UNIT ( .MILLI., .METRE. ) );
#396 = DIRECTION ( 'NONE',  ( 0.0000000000000000000, 0.0000000000000000000, -1.000000000000000000 ) ) ;
#397 = DIRECTION ( 'NONE',  ( 0.0000000000000000000, -1.000000000000000000, -0.0000000000000000000 ) ) ;
#398 = CARTESIAN_POINT ( 'NONE',  ( 16.75000000000000000, -1.530757942278010400E-017, 0.0000000000000000000 ) ) ;
#399 = AXIS2_PLACEMENT_3D ( 'NONE', #398, #397, #396 ) ;
#400 = FACE_OUTER_BOUND ( 'NONE', #9, .T. ) ;
#401 = CARTESIAN_POINT ( 'NONE',  ( 7.441724314758762800, 0.0000000000000000000, -15.00610673103214800 ) ) ;
#402 = DIRECTION ( 'NONE',  ( 0.7071067811865491300, -0.0000000000000000000, 0.7071067811865459100 ) ) ;
#403 = CARTESIAN_POINT ( 'NONE',  ( -6.500000000000002700, 0.0000000000000000000, -14.06438241627338400 ) ) ;
#404 = B_SPLINE_CURVE_WITH_KNOTS ( 'NONE', 3,
 ( #310, #339, #338, #337 ),
 .UNSPECIFIED., .F., .F.,
 ( 4, 4 ),
 ( 2.907611595984497000E-007, 0.001089255168963243700 ),
 .UNSPECIFIED. ) ;
#405 =( GEOMETRIC_REPRESENTATION_CONTEXT ( 3 ) GLOBAL_UNCERTAINTY_ASSIGNED_CONTEXT ( ( #406 ) ) GLOBAL_UNIT_ASSIGNED_CONTEXT ( ( #395, #408, #407 ) ) REPRESENTATION_CONTEXT ( 'NONE', 'WORKASPACE' ) );
#406 = UNCERTAINTY_MEASURE_WITH_UNIT (LENGTH_MEASURE( 1.000000000000000100E-005 ), #395, 'distance_accuracy_value', 'NONE');
#407 =( NAMED_UNIT ( * ) SI_UNIT ( $, .STERADIAN. ) SOLID_ANGLE_UNIT ( ) );
#408 =( NAMED_UNIT ( * ) PLANE_ANGLE_UNIT ( ) SI_UNIT ( $, .RADIAN. ) );
#409 = FACE_OUTER_BOUND ( 'NONE', #113, .T. ) ;
#410 = CIRCLE ( 'NONE', #350, 16.75000000000000000 ) ;
#411 = B_SPLINE_CURVE_WITH_KNOTS ( 'NONE', 3,
 ( #359, #358, #357, #356 ),
 .UNSPECIFIED., .F., .F.,
 ( 4, 4 ),
 ( 2.900374295963034300E-007, 0.001089254445233241100 ),
 .UNSPECIFIED. ) ;
#412 = PRODUCT_RELATED_PRODUCT_CATEGORY ( 'detail', '', ( #366 ) ) ;
#413 = SHAPE_DEFINITION_REPRESENTATION ( #414, #308 ) ;
#414 = PRODUCT_DEFINITION_SHAPE ( 'NONE', 'NONE',  #392 ) ;
ENDSEC;
END-ISO-10303-21;
