ISO-10303-21;
HEADER;
FILE_DESCRIPTION (( 'STEP AP203' ),
    '1' );
FILE_NAME ('80804-20302849185694.step',
    '2007-03-02T13:49:20',
    ( 'SysAdmin' ),
    ( 'SolidWorks' ),
    'SwSTEP 2.0',
    'SolidWorks 2007',
    '' );
FILE_SCHEMA (( 'CONFIG_CONTROL_DESIGN' ));
ENDSEC;

DATA;
#1 = B_SPLINE_CURVE_WITH_KNOTS ( 'NONE', 3,
 ( #411, #402, #336, #335 ),
 .UNSPECIFIED., .F., .F.,
 ( 4, 4 ),
 ( 2.888367117450962000E-007, 0.001084979139636294700 ),
 .UNSPECIFIED. ) ;
#2 = EDGE_CURVE ( 'NONE', #14, #203, #226, .T. ) ;
#3 = ORIENTED_EDGE ( 'NONE', *, *, #4, .F. ) ;
#4 = EDGE_CURVE ( 'NONE', #5, #14, #220, .T. ) ;
#5 = VERTEX_POINT ( 'NONE', #159 ) ;
#6 = ORIENTED_EDGE ( 'NONE', *, *, #7, .F. ) ;
#7 = EDGE_CURVE ( 'NONE', #206, #5, #158, .T. ) ;
#8 = ORIENTED_EDGE ( 'NONE', *, *, #205, .T. ) ;
#9 = ADVANCED_FACE ( 'NONE', ( #157 ), #151, .T. ) ;
#10 = EDGE_LOOP ( 'NONE', ( #15, #17, #18, #21, #23 ) ) ;
#11 = ORIENTED_EDGE ( 'NONE', *, *, #35, .T. ) ;
#12 = ADVANCED_FACE ( 'NONE', ( #152 ), #146, .T. ) ;
#13 = ORIENTED_EDGE ( 'NONE', *, *, #2, .F. ) ;
#14 = VERTEX_POINT ( 'NONE', #145 ) ;
#15 = ORIENTED_EDGE ( 'NONE', *, *, #16, .F. ) ;
#16 = EDGE_CURVE ( 'NONE', #43, #14, #140, .T. ) ;
#17 = ORIENTED_EDGE ( 'NONE', *, *, #69, .F. ) ;
#18 = ORIENTED_EDGE ( 'NONE', *, *, #19, .F. ) ;
#19 = EDGE_CURVE ( 'NONE', #20, #67, #136, .T. ) ;
#20 = VERTEX_POINT ( 'NONE', #103 ) ;
#21 = ORIENTED_EDGE ( 'NONE', *, *, #22, .T. ) ;
#22 = EDGE_CURVE ( 'NONE', #20, #5, #102, .T. ) ;
#23 = ORIENTED_EDGE ( 'NONE', *, *, #4, .T. ) ;
#24 = ADVANCED_FACE ( 'NONE', ( #98 ), #97, .T. ) ;
#25 = EDGE_LOOP ( 'NONE', ( #26, #27, #227, #163 ) ) ;
#26 = ORIENTED_EDGE ( 'NONE', *, *, #66, .F. ) ;
#27 = ORIENTED_EDGE ( 'NONE', *, *, #62, .F. ) ;
#28 = ORIENTED_EDGE ( 'NONE', *, *, #29, .T. ) ;
#29 = EDGE_CURVE ( 'NONE', #198, #50, #92, .T. ) ;
#30 = ADVANCED_FACE ( 'NONE', ( #88 ), #86, .F. ) ;
#31 = ORIENTED_EDGE ( 'NONE', *, *, #32, .T. ) ;
#32 = EDGE_CURVE ( 'NONE', #51, #33, #87, .T. ) ;
#33 = VERTEX_POINT ( 'NONE', #78 ) ;
#34 = ORIENTED_EDGE ( 'NONE', *, *, #35, .F. ) ;
#35 = EDGE_CURVE ( 'NONE', #36, #33, #77, .T. ) ;
#36 = VERTEX_POINT ( 'NONE', #72 ) ;
#37 = ORIENTED_EDGE ( 'NONE', *, *, #38, .F. ) ;
#38 = EDGE_CURVE ( 'NONE', #54, #36, #71, .T. ) ;
#39 = ORIENTED_EDGE ( 'NONE', *, *, #53, .T. ) ;
#40 = ADVANCED_FACE ( 'NONE', ( #128 ), #127, .T. ) ;
#41 = EDGE_LOOP ( 'NONE', ( #199, #201, #204, #207, #210, #11 ) ) ;
#42 = VERTEX_POINT ( 'NONE', #122 ) ;
#43 = VERTEX_POINT ( 'NONE', #121 ) ;
#44 = ORIENTED_EDGE ( 'NONE', *, *, #45, .F. ) ;
#45 = EDGE_CURVE ( 'NONE', #198, #43, #120, .T. ) ;
#46 = ADVANCED_FACE ( 'NONE', ( #119 ), #114, .T. ) ;
#47 = EDGE_LOOP ( 'NONE', ( #48, #52, #55, #59, #61, #63, #28 ) ) ;
#48 = ORIENTED_EDGE ( 'NONE', *, *, #49, .T. ) ;
#49 = EDGE_CURVE ( 'NONE', #50, #51, #186, .T. ) ;
#50 = VERTEX_POINT ( 'NONE', #182 ) ;
#51 = VERTEX_POINT ( 'NONE', #181 ) ;
#52 = ORIENTED_EDGE ( 'NONE', *, *, #53, .F. ) ;
#53 = EDGE_CURVE ( 'NONE', #54, #51, #180, .T. ) ;
#54 = VERTEX_POINT ( 'NONE', #253 ) ;
#55 = ORIENTED_EDGE ( 'NONE', *, *, #56, .T. ) ;
#56 = EDGE_CURVE ( 'NONE', #54, #57, #252, .T. ) ;
#57 = VERTEX_POINT ( 'NONE', #248 ) ;
#58 = VERTEX_POINT ( 'NONE', #247 ) ;
#59 = ORIENTED_EDGE ( 'NONE', *, *, #60, .T. ) ;
#60 = EDGE_CURVE ( 'NONE', #57, #58, #246, .T. ) ;
#61 = ORIENTED_EDGE ( 'NONE', *, *, #62, .T. ) ;
#62 = EDGE_CURVE ( 'NONE', #58, #197, #242, .T. ) ;
#63 = ORIENTED_EDGE ( 'NONE', *, *, #196, .T. ) ;
#64 = EDGE_LOOP ( 'NONE', ( #31, #34, #37, #39 ) ) ;
#65 = ORIENTED_EDGE ( 'NONE', *, *, #66, .T. ) ;
#66 = EDGE_CURVE ( 'NONE', #197, #67, #237, .T. ) ;
#67 = VERTEX_POINT ( 'NONE', #233 ) ;
#68 = ORIENTED_EDGE ( 'NONE', *, *, #69, .T. ) ;
#69 = EDGE_CURVE ( 'NONE', #67, #43, #232, .T. ) ;
#70 = MANIFOLD_SOLID_BREP ( 'NONE', #219 ) ;
#71 = LINE ( 'NONE', #131, #130 ) ;
#72 = CARTESIAN_POINT ( 'NONE',  ( 4.499999999999999100, 6.000000000000000900, -5.510728592200696700E-016 ) ) ;
#73 = DIRECTION ( 'NONE',  ( 0.0000000000000000000, 0.0000000000000000000, -1.000000000000000000 ) ) ;
#74 = DIRECTION ( 'NONE',  ( 0.0000000000000000000, -1.000000000000000000, 0.0000000000000000000 ) ) ;
#75 = CARTESIAN_POINT ( 'NONE',  ( 0.0000000000000000000, 6.000000000000000000, 0.0000000000000000000 ) ) ;
#76 = AXIS2_PLACEMENT_3D ( 'NONE', #75, #74, #73 ) ;
#77 = CIRCLE ( 'NONE', #76, 4.500000000000000000 ) ;
#78 = CARTESIAN_POINT ( 'NONE',  ( -4.499999999999999100, 6.000000000000000900, 5.510728592200696700E-016 ) ) ;
#79 = DIRECTION ( 'NONE',  ( 0.0000000000000000000, 1.000000000000000000, 0.0000000000000000000 ) ) ;
#80 = VECTOR ( 'NONE', #79, 1000.000000000000000 ) ;
#81 = CARTESIAN_POINT ( 'NONE',  ( -4.499999999999999100, -1.734723475976807100E-015, 5.510728592200696700E-016 ) ) ;
#82 = DIRECTION ( 'NONE',  ( 0.0000000000000000000, 0.0000000000000000000, -1.000000000000000000 ) ) ;
#83 = DIRECTION ( 'NONE',  ( 0.0000000000000000000, -1.000000000000000000, 0.0000000000000000000 ) ) ;
#84 = CARTESIAN_POINT ( 'NONE',  ( 0.0000000000000000000, 0.0000000000000000000, 0.0000000000000000000 ) ) ;
#85 = AXIS2_PLACEMENT_3D ( 'NONE', #84, #83, #82 ) ;
#86 = CYLINDRICAL_SURFACE ( 'NONE', #85, 4.500000000000000000 ) ;
#87 = LINE ( 'NONE', #81, #80 ) ;
#88 = FACE_OUTER_BOUND ( 'NONE', #64, .T. ) ;
#89 = DIRECTION ( 'NONE',  ( 0.7071067811865491300, 0.0000000000000000000, 0.7071067811865459100 ) ) ;
#90 = VECTOR ( 'NONE', #89, 1000.000000000000100 ) ;
#91 = CARTESIAN_POINT ( 'NONE',  ( -4.500000000000000900, -1.734723475976807100E-015, -9.465856099730659800 ) ) ;
#92 = LINE ( 'NONE', #91, #90 ) ;
#93 = DIRECTION ( 'NONE',  ( 0.0000000000000000000, 0.0000000000000000000, 1.000000000000000000 ) ) ;
#94 = DIRECTION ( 'NONE',  ( 0.0000000000000000000, 1.000000000000000000, 0.0000000000000000000 ) ) ;
#95 = CARTESIAN_POINT ( 'NONE',  ( 0.0000000000000000000, -6.123031769111887300E-016, 0.0000000000000000000 ) ) ;
#96 = AXIS2_PLACEMENT_3D ( 'NONE', #95, #94, #93 ) ;
#97 = CONICAL_SURFACE ( 'NONE', #96, 11.75000000000000000, 0.7853981633974509400 ) ;
#98 = FACE_OUTER_BOUND ( 'NONE', #25, .T. ) ;
#99 = DIRECTION ( 'NONE',  ( 0.0000000000000000000, 1.000000000000000000, 0.0000000000000000000 ) ) ;
#100 = VECTOR ( 'NONE', #99, 1000.000000000000000 ) ;
#101 = CARTESIAN_POINT ( 'NONE',  ( 5.999999999999998200, -1.734723475976807100E-015, -10.96585609973065400 ) ) ;
#102 = LINE ( 'NONE', #101, #100 ) ;
#103 = CARTESIAN_POINT ( 'NONE',  ( 6.000000000000003600, 0.7499999999999994400, -10.96585609973066000 ) ) ;
#104 = ORIENTED_EDGE ( 'NONE', *, *, #211, .T. ) ;
#105 = EDGE_LOOP ( 'NONE', ( #172, #168, #169, #173 ) ) ;
#106 = ORIENTED_EDGE ( 'NONE', *, *, #208, .T. ) ;
#107 = ORIENTED_EDGE ( 'NONE', *, *, #192, .F. ) ;
#108 = EDGE_LOOP ( 'NONE', ( #187, #188, #189, #190, #191, #106 ) ) ;
#109 = EDGE_CURVE ( 'NONE', #20, #58, #1, .T. ) ;
#110 = DIRECTION ( 'NONE',  ( 0.0000000000000000000, 0.0000000000000000000, -1.000000000000000000 ) ) ;
#111 = DIRECTION ( 'NONE',  ( 0.0000000000000000000, -1.000000000000000000, 0.0000000000000000000 ) ) ;
#112 = CARTESIAN_POINT ( 'NONE',  ( 11.75000000000000000, -1.056222980171800400E-015, 0.0000000000000000000 ) ) ;
#113 = AXIS2_PLACEMENT_3D ( 'NONE', #112, #111, #110 ) ;
#114 = PLANE ( 'NONE',  #113 ) ;
#115 = CARTESIAN_POINT ( 'NONE',  ( -5.999999999999998200, 0.7499999999999961100, -10.96585609973065800 ) ) ;
#116 = CARTESIAN_POINT ( 'NONE',  ( -5.815542730035525100, 0.4996419600986782800, -10.78139882976617700 ) ) ;
#117 = CARTESIAN_POINT ( 'NONE',  ( -5.630858621443214100, 0.2496175532983056500, -10.59671472117386900 ) ) ;
#118 = CARTESIAN_POINT ( 'NONE',  ( -5.445900255703659100, -6.123031769111887300E-016, -10.41175635543431500 ) ) ;
#119 = FACE_OUTER_BOUND ( 'NONE', #47, .T. ) ;
#120 = B_SPLINE_CURVE_WITH_KNOTS ( 'NONE', 3,
 ( #118, #117, #116, #115 ),
 .UNSPECIFIED., .F., .F.,
 ( 4, 4 ),
 ( 2.896937336701357700E-007, 0.001084979996658212600 ),
 .UNSPECIFIED. ) ;
#121 = CARTESIAN_POINT ( 'NONE',  ( -5.999999999999998200, 0.7499999999999961100, -10.96585609973065800 ) ) ;
#122 = CARTESIAN_POINT ( 'NONE',  ( -4.500000000000000900, 6.000000000000000900, -9.465856099730659800 ) ) ;
#123 = DIRECTION ( 'NONE',  ( 0.0000000000000000000, 0.0000000000000000000, 1.000000000000000000 ) ) ;
#124 = DIRECTION ( 'NONE',  ( 0.0000000000000000000, 1.000000000000000000, 0.0000000000000000000 ) ) ;
#125 = CARTESIAN_POINT ( 'NONE',  ( 4.500000000000000000, 6.000000000000000900, 0.0000000000000000000 ) ) ;
#126 = AXIS2_PLACEMENT_3D ( 'NONE', #125, #124, #123 ) ;
#127 = PLANE ( 'NONE',  #126 ) ;
#128 = FACE_OUTER_BOUND ( 'NONE', #41, .T. ) ;
#129 = DIRECTION ( 'NONE',  ( 0.0000000000000000000, 1.000000000000000000, 0.0000000000000000000 ) ) ;
#130 = VECTOR ( 'NONE', #129, 1000.000000000000000 ) ;
#131 = CARTESIAN_POINT ( 'NONE',  ( 4.499999999999999100, -1.734723475976807100E-015, -5.510728592200696700E-016 ) ) ;
#132 = DIRECTION ( 'NONE',  ( 0.0000000000000000000, 0.0000000000000000000, -1.000000000000000000 ) ) ;
#133 = DIRECTION ( 'NONE',  ( 0.0000000000000000000, -1.000000000000000000, 0.0000000000000000000 ) ) ;
#134 = CARTESIAN_POINT ( 'NONE',  ( 0.0000000000000000000, 0.7499999999999994400, 0.0000000000000000000 ) ) ;
#135 = AXIS2_PLACEMENT_3D ( 'NONE', #134, #133, #132 ) ;
#136 = CIRCLE ( 'NONE', #135, 12.50000000000000400 ) ;
#137 = DIRECTION ( 'NONE',  ( 0.0000000000000000000, 1.000000000000000000, 0.0000000000000000000 ) ) ;
#138 = VECTOR ( 'NONE', #137, 1000.000000000000000 ) ;
#139 = CARTESIAN_POINT ( 'NONE',  ( -5.999999999999998200, -1.734723475976807100E-015, -10.96585609973065800 ) ) ;
#140 = LINE ( 'NONE', #139, #138 ) ;
#141 = DIRECTION ( 'NONE',  ( 0.0000000000000000000, 0.0000000000000000000, -1.000000000000000000 ) ) ;
#142 = DIRECTION ( 'NONE',  ( 0.0000000000000000000, -1.000000000000000000, 0.0000000000000000000 ) ) ;
#143 = CARTESIAN_POINT ( 'NONE',  ( 0.0000000000000000000, 5.250000000000000000, 0.0000000000000000000 ) ) ;
#144 = AXIS2_PLACEMENT_3D ( 'NONE', #143, #142, #141 ) ;
#145 = CARTESIAN_POINT ( 'NONE',  ( -5.999999999999998200, 5.250000000000000000, -10.96585609973065800 ) ) ;
#146 = CONICAL_SURFACE ( 'NONE', #144, 12.49999999999999800, 0.7853981633974442800 ) ;
#147 = DIRECTION ( 'NONE',  ( 0.0000000000000000000, 0.0000000000000000000, -1.000000000000000000 ) ) ;
#148 = DIRECTION ( 'NONE',  ( 0.0000000000000000000, -1.000000000000000000, 0.0000000000000000000 ) ) ;
#149 = CARTESIAN_POINT ( 'NONE',  ( 0.0000000000000000000, 0.0000000000000000000, 0.0000000000000000000 ) ) ;
#150 = AXIS2_PLACEMENT_3D ( 'NONE', #149, #148, #147 ) ;
#151 = CYLINDRICAL_SURFACE ( 'NONE', #150, 12.50000000000000000 ) ;
#152 = FACE_OUTER_BOUND ( 'NONE', #212, .T. ) ;
#153 = CARTESIAN_POINT ( 'NONE',  ( 5.999999999999998200, 5.250000000000000000, -10.96585609973065400 ) ) ;
#154 = CARTESIAN_POINT ( 'NONE',  ( 5.815542730035522500, 5.500358039901319900, -10.78139882976617900 ) ) ;
#155 = CARTESIAN_POINT ( 'NONE',  ( 5.630858621443214100, 5.750382446701692600, -10.59671472117387100 ) ) ;
#156 = CARTESIAN_POINT ( 'NONE',  ( 5.445900255703662700, 6.000000000000000900, -10.41175635543431900 ) ) ;
#157 = FACE_OUTER_BOUND ( 'NONE', #10, .T. ) ;
#158 = B_SPLINE_CURVE_WITH_KNOTS ( 'NONE', 3,
 ( #156, #155, #154, #153 ),
 .UNSPECIFIED., .F., .F.,
 ( 4, 4 ),
 ( 2.896937336698752500E-007, 0.001084979996658209500 ),
 .UNSPECIFIED. ) ;
#159 = CARTESIAN_POINT ( 'NONE',  ( 5.999999999999998200, 5.250000000000000000, -10.96585609973065400 ) ) ;
#160 = DIRECTION ( 'NONE',  ( 0.0000000000000000000, 0.0000000000000000000, -1.000000000000000000 ) ) ;
#161 = DIRECTION ( 'NONE',  ( 0.0000000000000000000, -1.000000000000000000, 0.0000000000000000000 ) ) ;
#162 = AXIS2_PLACEMENT_3D ( 'NONE', #225, #161, #160 ) ;
#163 = ORIENTED_EDGE ( 'NONE', *, *, #19, .T. ) ;
#164 = ADVANCED_FACE ( 'NONE', ( #403 ), #334, .F. ) ;
#165 = ADVANCED_FACE ( 'NONE', ( #329 ), #263, .F. ) ;
#166 = ORIENTED_EDGE ( 'NONE', *, *, #38, .T. ) ;
#167 = ORIENTED_EDGE ( 'NONE', *, *, #202, .T. ) ;
#168 = ORIENTED_EDGE ( 'NONE', *, *, #32, .F. ) ;
#169 = ORIENTED_EDGE ( 'NONE', *, *, #49, .F. ) ;
#170 = ORIENTED_EDGE ( 'NONE', *, *, #56, .F. ) ;
#171 = ADVANCED_FACE ( 'NONE', ( #258 ), #257, .F. ) ;
#172 = ORIENTED_EDGE ( 'NONE', *, *, #200, .T. ) ;
#173 = ORIENTED_EDGE ( 'NONE', *, *, #174, .T. ) ;
#174 = EDGE_CURVE ( 'NONE', #50, #42, #326, .T. ) ;
#175 = EDGE_LOOP ( 'NONE', ( #214, #167, #215, #216, #217, #218 ) ) ;
#176 = EDGE_LOOP ( 'NONE', ( #104, #107, #170, #166 ) ) ;
#177 = DIRECTION ( 'NONE',  ( 0.0000000000000000000, -1.000000000000000000, 0.0000000000000000000 ) ) ;
#178 = CARTESIAN_POINT ( 'NONE',  ( 0.0000000000000000000, -1.500142783432412100E-015, 0.0000000000000000000 ) ) ;
#179 = AXIS2_PLACEMENT_3D ( 'NONE', #178, #177, #254 ) ;
#180 = CIRCLE ( 'NONE', #179, 4.500000000000000000 ) ;
#181 = CARTESIAN_POINT ( 'NONE',  ( -4.499999999999999100, -1.734723475976807100E-015, 5.510728592200696700E-016 ) ) ;
#182 = CARTESIAN_POINT ( 'NONE',  ( -4.500000000000000900, -1.734723475976807100E-015, -9.465856099730659800 ) ) ;
#183 = DIRECTION ( 'NONE',  ( 1.832611290199274600E-016, 0.0000000000000000000, 1.000000000000000000 ) ) ;
#184 = VECTOR ( 'NONE', #183, 1000.000000000000000 ) ;
#185 = CARTESIAN_POINT ( 'NONE',  ( -4.499999999999999100, -1.734723475976807100E-015, 5.510728592200696700E-016 ) ) ;
#186 = LINE ( 'NONE', #185, #184 ) ;
#187 = ORIENTED_EDGE ( 'NONE', *, *, #7, .T. ) ;
#188 = ORIENTED_EDGE ( 'NONE', *, *, #22, .F. ) ;
#189 = ORIENTED_EDGE ( 'NONE', *, *, #109, .T. ) ;
#190 = ORIENTED_EDGE ( 'NONE', *, *, #60, .F. ) ;
#191 = ORIENTED_EDGE ( 'NONE', *, *, #192, .T. ) ;
#192 = EDGE_CURVE ( 'NONE', #57, #209, #322, .T. ) ;
#193 = ADVANCED_FACE ( 'NONE', ( #318 ), #316, .T. ) ;
#194 = EDGE_LOOP ( 'NONE', ( #195, #65, #68, #44 ) ) ;
#195 = ORIENTED_EDGE ( 'NONE', *, *, #196, .F. ) ;
#196 = EDGE_CURVE ( 'NONE', #197, #198, #311, .T. ) ;
#197 = VERTEX_POINT ( 'NONE', #307 ) ;
#198 = VERTEX_POINT ( 'NONE', #306 ) ;
#199 = ORIENTED_EDGE ( 'NONE', *, *, #200, .F. ) ;
#200 = EDGE_CURVE ( 'NONE', #42, #33, #305, .T. ) ;
#201 = ORIENTED_EDGE ( 'NONE', *, *, #202, .F. ) ;
#202 = EDGE_CURVE ( 'NONE', #203, #42, #301, .T. ) ;
#203 = VERTEX_POINT ( 'NONE', #297 ) ;
#204 = ORIENTED_EDGE ( 'NONE', *, *, #205, .F. ) ;
#205 = EDGE_CURVE ( 'NONE', #206, #203, #352, .T. ) ;
#206 = VERTEX_POINT ( 'NONE', #348 ) ;
#207 = ORIENTED_EDGE ( 'NONE', *, *, #208, .F. ) ;
#208 = EDGE_CURVE ( 'NONE', #209, #206, #347, .T. ) ;
#209 = VERTEX_POINT ( 'NONE', #343 ) ;
#210 = ORIENTED_EDGE ( 'NONE', *, *, #211, .F. ) ;
#211 = EDGE_CURVE ( 'NONE', #36, #209, #342, .T. ) ;
#212 = EDGE_LOOP ( 'NONE', ( #13, #3, #6, #8 ) ) ;
#213 = ADVANCED_FACE ( 'NONE', ( #338 ), #337, .F. ) ;
#214 = ORIENTED_EDGE ( 'NONE', *, *, #2, .T. ) ;
#215 = ORIENTED_EDGE ( 'NONE', *, *, #174, .F. ) ;
#216 = ORIENTED_EDGE ( 'NONE', *, *, #29, .F. ) ;
#217 = ORIENTED_EDGE ( 'NONE', *, *, #45, .T. ) ;
#218 = ORIENTED_EDGE ( 'NONE', *, *, #16, .T. ) ;
#219 = CLOSED_SHELL ( 'NONE', ( #193, #46, #30, #40, #12, #9, #24, #164, #165, #171, #213 ) ) ;
#220 = CIRCLE ( 'NONE', #162, 12.49999999999999800 ) ;
#221 = CARTESIAN_POINT ( 'NONE',  ( -5.445900255703662700, 6.000000000000000900, -10.41175635543431900 ) ) ;
#222 = CARTESIAN_POINT ( 'NONE',  ( -5.630858621443215900, 5.750382446701692600, -10.59671472117386900 ) ) ;
#223 = CARTESIAN_POINT ( 'NONE',  ( -5.815542730035524200, 5.500358039901319900, -10.78139882976617900 ) ) ;
#224 = CARTESIAN_POINT ( 'NONE',  ( -5.999999999999998200, 5.250000000000000000, -10.96585609973065800 ) ) ;
#225 = CARTESIAN_POINT ( 'NONE',  ( 0.0000000000000000000, 5.250000000000000000, 0.0000000000000000000 ) ) ;
#226 = B_SPLINE_CURVE_WITH_KNOTS ( 'NONE', 3,
 ( #224, #223, #222, #221 ),
 .UNSPECIFIED., .F., .F.,
 ( 4, 4 ),
 ( 2.888367117454710100E-007, 0.001084979139636286900 ),
 .UNSPECIFIED. ) ;
#227 = ORIENTED_EDGE ( 'NONE', *, *, #109, .F. ) ;
#228 = DIRECTION ( 'NONE',  ( 0.0000000000000000000, 0.0000000000000000000, -1.000000000000000000 ) ) ;
#229 = DIRECTION ( 'NONE',  ( 0.0000000000000000000, -1.000000000000000000, 0.0000000000000000000 ) ) ;
#230 = CARTESIAN_POINT ( 'NONE',  ( 0.0000000000000000000, 0.7499999999999994400, 0.0000000000000000000 ) ) ;
#231 = AXIS2_PLACEMENT_3D ( 'NONE', #230, #229, #228 ) ;
#232 = CIRCLE ( 'NONE', #231, 12.50000000000000400 ) ;
#233 = CARTESIAN_POINT ( 'NONE',  ( 0.0000000000000000000, 0.7499999999999994400, 12.50000000000000400 ) ) ;
#234 = DIRECTION ( 'NONE',  ( 0.0000000000000000000, 0.7071067811865456900, 0.7071067811865493500 ) ) ;
#235 = VECTOR ( 'NONE', #234, 1000.000000000000000 ) ;
#236 = CARTESIAN_POINT ( 'NONE',  ( 0.0000000000000000000, -6.123031769111887300E-016, 11.75000000000000000 ) ) ;
#237 = LINE ( 'NONE', #236, #235 ) ;
#238 = DIRECTION ( 'NONE',  ( 0.0000000000000000000, 0.0000000000000000000, -1.000000000000000000 ) ) ;
#239 = DIRECTION ( 'NONE',  ( 0.0000000000000000000, -1.000000000000000000, 0.0000000000000000000 ) ) ;
#240 = CARTESIAN_POINT ( 'NONE',  ( 0.0000000000000000000, -6.123031769111887300E-016, 0.0000000000000000000 ) ) ;
#241 = AXIS2_PLACEMENT_3D ( 'NONE', #240, #239, #238 ) ;
#242 = CIRCLE ( 'NONE', #241, 11.75000000000000000 ) ;
#243 = DIRECTION ( 'NONE',  ( 0.7071067811865487900, 0.0000000000000000000, -0.7071067811865463500 ) ) ;
#244 = VECTOR ( 'NONE', #243, 1000.000000000000000 ) ;
#245 = CARTESIAN_POINT ( 'NONE',  ( 4.499999999999999100, -1.734723475976807100E-015, -9.465856099730659800 ) ) ;
#246 = LINE ( 'NONE', #245, #244 ) ;
#247 = CARTESIAN_POINT ( 'NONE',  ( 5.445900255703657300, -1.734723475976807100E-015, -10.41175635543431500 ) ) ;
#248 = CARTESIAN_POINT ( 'NONE',  ( 4.499999999999999100, -1.734723475976807100E-015, -9.465856099730659800 ) ) ;
#249 = DIRECTION ( 'NONE',  ( 0.0000000000000000000, 0.0000000000000000000, -1.000000000000000000 ) ) ;
#250 = VECTOR ( 'NONE', #249, 1000.000000000000000 ) ;
#251 = CARTESIAN_POINT ( 'NONE',  ( 4.499999999999999100, -1.734723475976807100E-015, -5.510728592200696700E-016 ) ) ;
#252 = LINE ( 'NONE', #251, #250 ) ;
#253 = CARTESIAN_POINT ( 'NONE',  ( 4.499999999999999100, -1.734723475976807100E-015, -5.510728592200696700E-016 ) ) ;
#254 = DIRECTION ( 'NONE',  ( 0.0000000000000000000, 0.0000000000000000000, -1.000000000000000000 ) ) ;
#255 = CARTESIAN_POINT ( 'NONE',  ( -4.499999999999999100, -1.734723475976807100E-015, 5.510728592200696700E-016 ) ) ;
#256 = AXIS2_PLACEMENT_3D ( 'NONE', #255, #328, #327 ) ;
#257 = PLANE ( 'NONE',  #256 ) ;
#258 = FACE_OUTER_BOUND ( 'NONE', #105, .T. ) ;
#259 = DIRECTION ( 'NONE',  ( 0.0000000000000000000, 0.0000000000000000000, -1.000000000000000000 ) ) ;
#260 = DIRECTION ( 'NONE',  ( 1.000000000000000000, 0.0000000000000000000, 0.0000000000000000000 ) ) ;
#261 = CARTESIAN_POINT ( 'NONE',  ( 4.499999999999999100, -1.734723475976807100E-015, -5.510728592200696700E-016 ) ) ;
#262 = AXIS2_PLACEMENT_3D ( 'NONE', #261, #260, #259 ) ;
#263 = PLANE ( 'NONE',  #262 ) ;
#264 = COORDINATED_UNIVERSAL_TIME_OFFSET ( 5, 0, .BEHIND. ) ;
#265 = CC_DESIGN_PERSON_AND_ORGANIZATION_ASSIGNMENT ( #267, #266, ( #279 ) ) ;
#266 = PERSON_AND_ORGANIZATION_ROLE ( 'creator' ) ;
#267 = PERSON_AND_ORGANIZATION ( #287, #286 ) ;
#268 = CC_DESIGN_APPROVAL ( #276, ( #279 ) ) ;
#269 = APPROVAL_DATE_TIME ( #270, #276 ) ;
#270 = DATE_AND_TIME ( #271, #272 ) ;
#271 = CALENDAR_DATE ( 2007, 2, 3 ) ;
#272 = LOCAL_TIME ( 8, 49, 20.00000000000000000, #273 ) ;
#273 = COORDINATED_UNIVERSAL_TIME_OFFSET ( 5, 0, .BEHIND. ) ;
#274 = APPROVAL_PERSON_ORGANIZATION ( #278, #276, #275 ) ;
#275 = APPROVAL_ROLE ( '' ) ;
#276 = APPROVAL ( #277, 'UNSPECIFIED' ) ;
#277 = APPROVAL_STATUS ( 'not_yet_approved' ) ;
#278 = PERSON_AND_ORGANIZATION ( #287, #286 ) ;
#279 = PRODUCT_DEFINITION ( 'UNKNOWN', '', #392, #280 ) ;
#280 = DESIGN_CONTEXT ( 'detailed design', #282, 'design' ) ;
#281 = APPLICATION_PROTOCOL_DEFINITION ( 'international standard', 'config_control_design', 1994, #282 ) ;
#282 = APPLICATION_CONTEXT ( 'configuration controlled 3d designs of mechanical parts and assemblies' ) ;
#283 = CC_DESIGN_PERSON_AND_ORGANIZATION_ASSIGNMENT ( #285, #284, ( #288 ) ) ;
#284 = PERSON_AND_ORGANIZATION_ROLE ( 'design_owner' ) ;
#285 = PERSON_AND_ORGANIZATION ( #287, #286 ) ;
#286 = ORGANIZATION ( 'UNSPECIFIED', 'UNSPECIFIED', '' ) ;
#287 = PERSON ( 'UNSPECIFIED', 'UNSPECIFIED', 'UNSPECIFIED', ('UNSPECIFIED'), ('UNSPECIFIED'), ('UNSPECIFIED') ) ;
#288 = PRODUCT ( '80804-20302849185694', '80804-20302849185694', '', ( #289 ) ) ;
#289 = MECHANICAL_CONTEXT ( 'NONE', #291, 'mechanical' ) ;
#290 = APPLICATION_PROTOCOL_DEFINITION ( 'international standard', 'config_control_design', 1994, #291 ) ;
#291 = APPLICATION_CONTEXT ( 'configuration controlled 3d designs of mechanical parts and assemblies' ) ;
#292 = DIRECTION ( 'NONE',  ( 1.000000000000000000, 0.0000000000000000000, 0.0000000000000000000 ) ) ;
#293 = DIRECTION ( 'NONE',  ( 0.0000000000000000000, 0.0000000000000000000, 1.000000000000000000 ) ) ;
#294 = AXIS2_PLACEMENT_3D ( 'NONE', #406, #293, #292 ) ;
#295 = SHAPE_DEFINITION_REPRESENTATION ( #412, #398 ) ;
#296 = CARTESIAN_POINT ( 'NONE',  ( 0.0000000000000000000, 6.000000000000001800, 0.0000000000000000000 ) ) ;
#297 = CARTESIAN_POINT ( 'NONE',  ( -5.445900255703662700, 6.000000000000000900, -10.41175635543431900 ) ) ;
#298 = DIRECTION ( 'NONE',  ( 0.7071067811865491300, 0.0000000000000000000, 0.7071067811865459100 ) ) ;
#299 = VECTOR ( 'NONE', #298, 1000.000000000000100 ) ;
#300 = CARTESIAN_POINT ( 'NONE',  ( -4.500000000000000900, 6.000000000000000900, -9.465856099730659800 ) ) ;
#301 = LINE ( 'NONE', #300, #299 ) ;
#302 = DIRECTION ( 'NONE',  ( 1.832611290199274600E-016, 0.0000000000000000000, 1.000000000000000000 ) ) ;
#303 = VECTOR ( 'NONE', #302, 1000.000000000000000 ) ;
#304 = CARTESIAN_POINT ( 'NONE',  ( -4.499999999999999100, 6.000000000000000900, 5.510728592200696700E-016 ) ) ;
#305 = LINE ( 'NONE', #304, #303 ) ;
#306 = CARTESIAN_POINT ( 'NONE',  ( -5.445900255703659100, -6.123031769111887300E-016, -10.41175635543431500 ) ) ;
#307 = CARTESIAN_POINT ( 'NONE',  ( 0.0000000000000000000, -6.123031769111887300E-016, 11.75000000000000000 ) ) ;
#308 = DIRECTION ( 'NONE',  ( 0.0000000000000000000, 0.0000000000000000000, -1.000000000000000000 ) ) ;
#309 = DIRECTION ( 'NONE',  ( 0.0000000000000000000, -1.000000000000000000, 0.0000000000000000000 ) ) ;
#310 = AXIS2_PLACEMENT_3D ( 'NONE', #317, #309, #308 ) ;
#311 = CIRCLE ( 'NONE', #310, 11.75000000000000000 ) ;
#312 = DIRECTION ( 'NONE',  ( 0.0000000000000000000, 0.0000000000000000000, 1.000000000000000000 ) ) ;
#313 = DIRECTION ( 'NONE',  ( 0.0000000000000000000, 1.000000000000000000, 0.0000000000000000000 ) ) ;
#314 = CARTESIAN_POINT ( 'NONE',  ( 0.0000000000000000000, -6.123031769111887300E-016, 0.0000000000000000000 ) ) ;
#315 = AXIS2_PLACEMENT_3D ( 'NONE', #314, #313, #312 ) ;
#316 = CONICAL_SURFACE ( 'NONE', #315, 11.75000000000000000, 0.7853981633974509400 ) ;
#317 = CARTESIAN_POINT ( 'NONE',  ( 0.0000000000000000000, -6.123031769111887300E-016, 0.0000000000000000000 ) ) ;
#318 = FACE_OUTER_BOUND ( 'NONE', #194, .T. ) ;
#319 = DIRECTION ( 'NONE',  ( 0.0000000000000000000, 1.000000000000000000, 0.0000000000000000000 ) ) ;
#320 = VECTOR ( 'NONE', #319, 1000.000000000000000 ) ;
#321 = CARTESIAN_POINT ( 'NONE',  ( 4.499999999999999100, -1.734723475976807100E-015, -9.465856099730659800 ) ) ;
#322 = LINE ( 'NONE', #321, #320 ) ;
#323 = DIRECTION ( 'NONE',  ( 0.0000000000000000000, 1.000000000000000000, 0.0000000000000000000 ) ) ;
#324 = VECTOR ( 'NONE', #323, 1000.000000000000000 ) ;
#325 = CARTESIAN_POINT ( 'NONE',  ( -4.500000000000000900, -1.734723475976807100E-015, -9.465856099730659800 ) ) ;
#326 = LINE ( 'NONE', #325, #324 ) ;
#327 = DIRECTION ( 'NONE',  ( 1.832611290199274600E-016, 0.0000000000000000000, 1.000000000000000000 ) ) ;
#328 = DIRECTION ( 'NONE',  ( -1.000000000000000000, 0.0000000000000000000, 1.832611290199274600E-016 ) ) ;
#329 = FACE_OUTER_BOUND ( 'NONE', #176, .T. ) ;
#330 = DIRECTION ( 'NONE',  ( 0.7071067811865487900, 0.0000000000000000000, -0.7071067811865463500 ) ) ;
#331 = DIRECTION ( 'NONE',  ( 0.7071067811865463500, 0.0000000000000000000, 0.7071067811865487900 ) ) ;
#332 = CARTESIAN_POINT ( 'NONE',  ( 4.499999999999999100, -1.734723475976807100E-015, -9.465856099730659800 ) ) ;
#333 = AXIS2_PLACEMENT_3D ( 'NONE', #332, #331, #330 ) ;
#334 = PLANE ( 'NONE',  #333 ) ;
#335 = CARTESIAN_POINT ( 'NONE',  ( 5.445900255703657300, -1.734723475976807100E-015, -10.41175635543431500 ) ) ;
#336 = CARTESIAN_POINT ( 'NONE',  ( 5.630858621443212400, 0.2496175532983068400, -10.59671472117386900 ) ) ;
#337 = PLANE ( 'NONE',  #410 ) ;
#338 = FACE_OUTER_BOUND ( 'NONE', #175, .T. ) ;
#339 = DIRECTION ( 'NONE',  ( 0.0000000000000000000, 0.0000000000000000000, -1.000000000000000000 ) ) ;
#340 = VECTOR ( 'NONE', #339, 1000.000000000000000 ) ;
#341 = CARTESIAN_POINT ( 'NONE',  ( 4.499999999999999100, 6.000000000000000900, -5.510728592200696700E-016 ) ) ;
#342 = LINE ( 'NONE', #341, #340 ) ;
#343 = CARTESIAN_POINT ( 'NONE',  ( 4.499999999999999100, 6.000000000000000900, -9.465856099730659800 ) ) ;
#344 = DIRECTION ( 'NONE',  ( 0.7071067811865487900, 0.0000000000000000000, -0.7071067811865463500 ) ) ;
#345 = VECTOR ( 'NONE', #344, 1000.000000000000000 ) ;
#346 = CARTESIAN_POINT ( 'NONE',  ( 4.499999999999999100, 6.000000000000000900, -9.465856099730659800 ) ) ;
#347 = LINE ( 'NONE', #346, #345 ) ;
#348 = CARTESIAN_POINT ( 'NONE',  ( 5.445900255703662700, 6.000000000000000900, -10.41175635543431900 ) ) ;
#349 = DIRECTION ( 'NONE',  ( 0.0000000000000000000, 0.0000000000000000000, -1.000000000000000000 ) ) ;
#350 = DIRECTION ( 'NONE',  ( 0.0000000000000000000, -1.000000000000000000, 0.0000000000000000000 ) ) ;
#351 = AXIS2_PLACEMENT_3D ( 'NONE', #296, #350, #349 ) ;
#352 = CIRCLE ( 'NONE', #351, 11.75000000000000400 ) ;
#353 = CC_DESIGN_APPROVAL ( #361, ( #373 ) ) ;
#354 = APPROVAL_DATE_TIME ( #355, #361 ) ;
#355 = DATE_AND_TIME ( #356, #357 ) ;
#356 = CALENDAR_DATE ( 2007, 2, 3 ) ;
#357 = LOCAL_TIME ( 8, 49, 20.00000000000000000, #358 ) ;
#358 = COORDINATED_UNIVERSAL_TIME_OFFSET ( 5, 0, .BEHIND. ) ;
#359 = APPROVAL_PERSON_ORGANIZATION ( #363, #361, #360 ) ;
#360 = APPROVAL_ROLE ( '' ) ;
#361 = APPROVAL ( #362, 'UNSPECIFIED' ) ;
#362 = APPROVAL_STATUS ( 'not_yet_approved' ) ;
#363 = PERSON_AND_ORGANIZATION ( #287, #286 ) ;
#364 = CC_DESIGN_DATE_AND_TIME_ASSIGNMENT ( #366, #365, ( #373 ) ) ;
#365 = DATE_TIME_ROLE ( 'classification_date' ) ;
#366 = DATE_AND_TIME ( #367, #368 ) ;
#367 = CALENDAR_DATE ( 2007, 2, 3 ) ;
#368 = LOCAL_TIME ( 8, 49, 20.00000000000000000, #369 ) ;
#369 = COORDINATED_UNIVERSAL_TIME_OFFSET ( 5, 0, .BEHIND. ) ;
#370 = CC_DESIGN_PERSON_AND_ORGANIZATION_ASSIGNMENT ( #372, #371, ( #373 ) ) ;
#371 = PERSON_AND_ORGANIZATION_ROLE ( 'classification_officer' ) ;
#372 = PERSON_AND_ORGANIZATION ( #287, #286 ) ;
#373 = SECURITY_CLASSIFICATION ( '', '', #374 ) ;
#374 = SECURITY_CLASSIFICATION_LEVEL ( 'unclassified' ) ;
#375 = CC_DESIGN_PERSON_AND_ORGANIZATION_ASSIGNMENT ( #377, #376, ( #392 ) ) ;
#376 = PERSON_AND_ORGANIZATION_ROLE ( 'design_supplier' ) ;
#377 = PERSON_AND_ORGANIZATION ( #287, #286 ) ;
#378 = CC_DESIGN_PERSON_AND_ORGANIZATION_ASSIGNMENT ( #380, #379, ( #392 ) ) ;
#379 = PERSON_AND_ORGANIZATION_ROLE ( 'creator' ) ;
#380 = PERSON_AND_ORGANIZATION ( #287, #286 ) ;
#381 = CC_DESIGN_APPROVAL ( #389, ( #392 ) ) ;
#382 = APPROVAL_DATE_TIME ( #383, #389 ) ;
#383 = DATE_AND_TIME ( #384, #385 ) ;
#384 = CALENDAR_DATE ( 2007, 2, 3 ) ;
#385 = LOCAL_TIME ( 8, 49, 20.00000000000000000, #386 ) ;
#386 = COORDINATED_UNIVERSAL_TIME_OFFSET ( 5, 0, .BEHIND. ) ;
#387 = APPROVAL_PERSON_ORGANIZATION ( #391, #389, #388 ) ;
#388 = APPROVAL_ROLE ( '' ) ;
#389 = APPROVAL ( #390, 'UNSPECIFIED' ) ;
#390 = APPROVAL_STATUS ( 'not_yet_approved' ) ;
#391 = PERSON_AND_ORGANIZATION ( #287, #286 ) ;
#392 = PRODUCT_DEFINITION_FORMATION_WITH_SPECIFIED_SOURCE ( 'ANY', '', #288, .NOT_KNOWN. ) ;
#393 = CC_DESIGN_DATE_AND_TIME_ASSIGNMENT ( #395, #394, ( #279 ) ) ;
#394 = DATE_TIME_ROLE ( 'creation_date' ) ;
#395 = DATE_AND_TIME ( #396, #397 ) ;
#396 = CALENDAR_DATE ( 2007, 2, 3 ) ;
#397 = LOCAL_TIME ( 8, 49, 20.00000000000000000, #264 ) ;
#398 = ADVANCED_BREP_SHAPE_REPRESENTATION ( '80804-20302849185694', ( #70, #294 ), #399 ) ;
#399 =( GEOMETRIC_REPRESENTATION_CONTEXT ( 3 ) GLOBAL_UNCERTAINTY_ASSIGNED_CONTEXT ( ( #400 ) ) GLOBAL_UNIT_ASSIGNED_CONTEXT ( ( #405, #404, #401 ) ) REPRESENTATION_CONTEXT ( 'NONE', 'WORKASPACE' ) );
#400 = UNCERTAINTY_MEASURE_WITH_UNIT (LENGTH_MEASURE( 1.000000000000000100E-005 ), #405, 'distance_accuracy_value', 'NONE');
#401 =( NAMED_UNIT ( * ) SI_UNIT ( $, .STERADIAN. ) SOLID_ANGLE_UNIT ( ) );
#402 = CARTESIAN_POINT ( 'NONE',  ( 5.815542730035523400, 0.4996419600986803400, -10.78139882976617900 ) ) ;
#403 = FACE_OUTER_BOUND ( 'NONE', #108, .T. ) ;
#404 =( NAMED_UNIT ( * ) PLANE_ANGLE_UNIT ( ) SI_UNIT ( $, .RADIAN. ) );
#405 =( LENGTH_UNIT ( ) NAMED_UNIT ( * ) SI_UNIT ( .MILLI., .METRE. ) );
#406 = CARTESIAN_POINT ( 'NONE',  ( 0.0000000000000000000, 0.0000000000000000000, 0.0000000000000000000 ) ) ;
#407 = DIRECTION ( 'NONE',  ( 0.7071067811865491300, 0.0000000000000000000, 0.7071067811865459100 ) ) ;
#408 = DIRECTION ( 'NONE',  ( -0.7071067811865459100, 0.0000000000000000000, 0.7071067811865491300 ) ) ;
#409 = CARTESIAN_POINT ( 'NONE',  ( -4.500000000000000900, -1.734723475976807100E-015, -9.465856099730659800 ) ) ;
#410 = AXIS2_PLACEMENT_3D ( 'NONE', #409, #408, #407 ) ;
#411 = CARTESIAN_POINT ( 'NONE',  ( 6.000000000000003600, 0.7499999999999994400, -10.96585609973066000 ) ) ;
#412 = PRODUCT_DEFINITION_SHAPE ( 'NONE', 'NONE',  #279 ) ;
#413 = PRODUCT_RELATED_PRODUCT_CATEGORY ( 'detail', '', ( #288 ) ) ;
#414 = CC_DESIGN_SECURITY_CLASSIFICATION ( #373, ( #392 ) ) ;
ENDSEC;
END-ISO-10303-21;
