ISO-10303-21;
HEADER;
FILE_DESCRIPTION (( 'STEP AP203' ),
    '1' );
FILE_NAME ('WDS-804-206.step',
    '2012-04-10T07:27:32',
    ( 'SysAdmin' ),
    ( 'SolidWorks' ),
    'SwSTEP 2.0',
    'SolidWorks 2012',
    '' );
FILE_SCHEMA (( 'CONFIG_CONTROL_DESIGN' ));
ENDSEC;

DATA;
#1 = VERTEX_POINT ( 'NONE', #124 ) ;
#2 = EDGE_CURVE ( 'NONE', #158, #1, #54, .T. ) ;
#3 = VERTEX_POINT ( 'NONE', #55 ) ;
#4 = ORIENTED_EDGE ( 'NONE', *, *, #22, .F. ) ;
#5 = EDGE_CURVE ( 'NONE', #3, #158, #183, .T. ) ;
#6 = EDGE_CURVE ( 'NONE', #7, #18, #178, .T. ) ;
#7 = VERTEX_POINT ( 'NONE', #153 ) ;
#8 = EDGE_CURVE ( 'NONE', #18, #12, #154, .T. ) ;
#9 = ORIENTED_EDGE ( 'NONE', *, *, #8, .T. ) ;
#10 = EDGE_LOOP ( 'NONE', ( #69, #47, #13, #79, #9 ) ) ;
#11 = ORIENTED_EDGE ( 'NONE', *, *, #78, .T. ) ;
#12 = VERTEX_POINT ( 'NONE', #49 ) ;
#13 = ORIENTED_EDGE ( 'NONE', *, *, #78, .F. ) ;
#14 = ADVANCED_FACE ( 'NONE', ( #179 ), #125, .F. ) ;
#15 = ORIENTED_EDGE ( 'NONE', *, *, #16, .F. ) ;
#16 = EDGE_CURVE ( 'NONE', #7, #86, #138, .T. ) ;
#17 = EDGE_CURVE ( 'NONE', #1, #28, #131, .T. ) ;
#18 = VERTEX_POINT ( 'NONE', #163 ) ;
#19 = EDGE_CURVE ( 'NONE', #57, #12, #127, .T. ) ;
#20 = EDGE_LOOP ( 'NONE', ( #27, #77, #75, #42, #148, #149 ) ) ;
#21 = ORIENTED_EDGE ( 'NONE', *, *, #84, .F. ) ;
#22 = EDGE_CURVE ( 'NONE', #12, #1, #196, .T. ) ;
#23 = ADVANCED_FACE ( 'NONE', ( #119 ), #195, .T. ) ;
#24 = EDGE_CURVE ( 'NONE', #38, #3, #118, .T. ) ;
#25 = ORIENTED_EDGE ( 'NONE', *, *, #2, .F. ) ;
#26 = EDGE_LOOP ( 'NONE', ( #4, #46, #45, #123 ) ) ;
#27 = ORIENTED_EDGE ( 'NONE', *, *, #155, .T. ) ;
#28 = VERTEX_POINT ( 'NONE', #189 ) ;
#29 = ORIENTED_EDGE ( 'NONE', *, *, #31, .F. ) ;
#30 = EDGE_LOOP ( 'NONE', ( #29, #104, #25, #151, #150, #157 ) ) ;
#31 = EDGE_CURVE ( 'NONE', #28, #61, #137, .T. ) ;
#32 = ORIENTED_EDGE ( 'NONE', *, *, #34, .F. ) ;
#33 = ORIENTED_EDGE ( 'NONE', *, *, #90, .T. ) ;
#34 = EDGE_CURVE ( 'NONE', #139, #38, #100, .T. ) ;
#35 = ADVANCED_FACE ( 'NONE', ( #169 ), #194, .T. ) ;
#36 = EDGE_CURVE ( 'NONE', #38, #61, #168, .T. ) ;
#37 = ORIENTED_EDGE ( 'NONE', *, *, #36, .F. ) ;
#38 = VERTEX_POINT ( 'NONE', #227 ) ;
#39 = ORIENTED_EDGE ( 'NONE', *, *, #143, .F. ) ;
#40 = VERTEX_POINT ( 'NONE', #287 ) ;
#41 = EDGE_CURVE ( 'NONE', #85, #3, #292, .T. ) ;
#42 = ORIENTED_EDGE ( 'NONE', *, *, #114, .F. ) ;
#43 = ORIENTED_EDGE ( 'NONE', *, *, #62, .F. ) ;
#44 = ADVANCED_FACE ( 'NONE', ( #285 ), #338, .T. ) ;
#45 = ORIENTED_EDGE ( 'NONE', *, *, #155, .F. ) ;
#46 = ORIENTED_EDGE ( 'NONE', *, *, #8, .F. ) ;
#47 = ORIENTED_EDGE ( 'NONE', *, *, #110, .F. ) ;
#48 = CLOSED_SHELL ( 'NONE', ( #56, #87, #65, #35, #44, #91, #23, #14, #105, #102, #67 ) ) ;
#49 = CARTESIAN_POINT ( 'NONE',  ( -5.000000000000001800, 4.250000000000000000, -11.45643923738959900 ) ) ;
#50 = DIRECTION ( 'NONE',  ( 0.0000000000000000000, 0.0000000000000000000, -1.000000000000000000 ) ) ;
#51 = DIRECTION ( 'NONE',  ( -0.0000000000000000000, -1.000000000000000000, -0.0000000000000000000 ) ) ;
#52 = CARTESIAN_POINT ( 'NONE',  ( 0.0000000000000000000, 5.000000000000000900, 0.0000000000000000000 ) ) ;
#53 = AXIS2_PLACEMENT_3D ( 'NONE', #52, #51, #50 ) ;
#54 = CIRCLE ( 'NONE', #53, 11.75000000000000400 ) ;
#55 = CARTESIAN_POINT ( 'NONE',  ( 3.499999999999998700, 5.000000000000000900, -9.956439237389609800 ) ) ;
#56 = ADVANCED_FACE ( 'NONE', ( #220 ), #307, .T. ) ;
#57 = VERTEX_POINT ( 'NONE', #228 ) ;
#58 = EDGE_CURVE ( 'NONE', #40, #108, #221, .T. ) ;
#59 = ORIENTED_EDGE ( 'NONE', *, *, #114, .T. ) ;
#60 = EDGE_CURVE ( 'NONE', #86, #82, #277, .T. ) ;
#61 = VERTEX_POINT ( 'NONE', #306 ) ;
#62 = EDGE_CURVE ( 'NONE', #83, #40, #272, .T. ) ;
#63 = ORIENTED_EDGE ( 'NONE', *, *, #80, .T. ) ;
#64 = ORIENTED_EDGE ( 'NONE', *, *, #62, .T. ) ;
#65 = ADVANCED_FACE ( 'NONE', ( #284 ), #274, .F. ) ;
#66 = EDGE_LOOP ( 'NONE', ( #187, #186, #103, #185 ) ) ;
#67 = ADVANCED_FACE ( 'NONE', ( #288 ), #279, .F. ) ;
#68 = ORIENTED_EDGE ( 'NONE', *, *, #17, .T. ) ;
#69 = ORIENTED_EDGE ( 'NONE', *, *, #19, .F. ) ;
#70 = ORIENTED_EDGE ( 'NONE', *, *, #140, .F. ) ;
#71 = EDGE_LOOP ( 'NONE', ( #70, #109, #141, #39 ) ) ;
#72 = ORIENTED_EDGE ( 'NONE', *, *, #58, .T. ) ;
#73 = VERTEX_POINT ( 'NONE', #321 ) ;
#74 = MANIFOLD_SOLID_BREP ( 'Cut-Extrude1', #48 ) ;
#75 = ORIENTED_EDGE ( 'NONE', *, *, #16, .T. ) ;
#76 = ORIENTED_EDGE ( 'NONE', *, *, #19, .T. ) ;
#77 = ORIENTED_EDGE ( 'NONE', *, *, #6, .F. ) ;
#78 = EDGE_CURVE ( 'NONE', #7, #73, #322, .T. ) ;
#79 = ORIENTED_EDGE ( 'NONE', *, *, #6, .T. ) ;
#80 = EDGE_CURVE ( 'NONE', #108, #61, #318, .T. ) ;
#81 = EDGE_LOOP ( 'NONE', ( #63, #37, #32, #33 ) ) ;
#82 = VERTEX_POINT ( 'NONE', #268 ) ;
#83 = VERTEX_POINT ( 'NONE', #263 ) ;
#84 = EDGE_CURVE ( 'NONE', #82, #73, #255, .T. ) ;
#85 = VERTEX_POINT ( 'NONE', #258 ) ;
#86 = VERTEX_POINT ( 'NONE', #257 ) ;
#87 = ADVANCED_FACE ( 'NONE', ( #249 ), #256, .T. ) ;
#88 = ORIENTED_EDGE ( 'NONE', *, *, #111, .T. ) ;
#89 = ORIENTED_EDGE ( 'NONE', *, *, #90, .F. ) ;
#90 = EDGE_CURVE ( 'NONE', #139, #108, #317, .T. ) ;
#91 = ADVANCED_FACE ( 'NONE', ( #312 ), #278, .T. ) ;
#92 = AXIS2_PLACEMENT_3D ( 'NONE', #167, #101, #96 ) ;
#93 = DIRECTION ( 'NONE',  ( 0.0000000000000000000, -0.0000000000000000000, 1.000000000000000000 ) ) ;
#94 = DIRECTION ( 'NONE',  ( 0.0000000000000000000, 1.000000000000000000, 0.0000000000000000000 ) ) ;
#95 = CARTESIAN_POINT ( 'NONE',  ( 3.500000000000000000, 5.000000000000000900, 0.0000000000000000000 ) ) ;
#96 = DIRECTION ( 'NONE',  ( 0.0000000000000000000, 0.0000000000000000000, -1.000000000000000000 ) ) ;
#97 = DIRECTION ( 'NONE',  ( -0.0000000000000000000, 1.000000000000000000, -0.0000000000000000000 ) ) ;
#98 = VECTOR ( 'NONE', #97, 1000.000000000000000 ) ;
#99 = CARTESIAN_POINT ( 'NONE',  ( 3.500000000000000000, -1.734723475976807100E-015, -4.286263797015736600E-016 ) ) ;
#100 = LINE ( 'NONE', #99, #98 ) ;
#101 = DIRECTION ( 'NONE',  ( -0.0000000000000000000, -1.000000000000000000, -0.0000000000000000000 ) ) ;
#102 = ADVANCED_FACE ( 'NONE', ( #246 ), #266, .F. ) ;
#103 = ORIENTED_EDGE ( 'NONE', *, *, #58, .F. ) ;
#104 = ORIENTED_EDGE ( 'NONE', *, *, #17, .F. ) ;
#105 = ADVANCED_FACE ( 'NONE', ( #216 ), #309, .F. ) ;
#106 = ORIENTED_EDGE ( 'NONE', *, *, #111, .F. ) ;
#107 = ORIENTED_EDGE ( 'NONE', *, *, #24, .T. ) ;
#108 = VERTEX_POINT ( 'NONE', #308 ) ;
#109 = ORIENTED_EDGE ( 'NONE', *, *, #84, .T. ) ;
#110 = EDGE_CURVE ( 'NONE', #73, #57, #213, .T. ) ;
#111 = EDGE_CURVE ( 'NONE', #139, #85, #238, .T. ) ;
#112 = ORIENTED_EDGE ( 'NONE', *, *, #140, .T. ) ;
#113 = ORIENTED_EDGE ( 'NONE', *, *, #60, .T. ) ;
#114 = EDGE_CURVE ( 'NONE', #85, #86, #233, .T. ) ;
#115 = DIRECTION ( 'NONE',  ( 0.7071067811865493500, 0.0000000000000000000, -0.7071067811865456900 ) ) ;
#116 = DIRECTION ( 'NONE',  ( 0.7071067811865456900, 0.0000000000000000000, 0.7071067811865493500 ) ) ;
#117 = CARTESIAN_POINT ( 'NONE',  ( 3.499999999999998700, -1.734723475976807100E-015, -9.956439237389609800 ) ) ;
#118 = LINE ( 'NONE', #172, #171 ) ;
#119 = FACE_OUTER_BOUND ( 'NONE', #156, .T. ) ;
#120 = ORIENTED_EDGE ( 'NONE', *, *, #41, .F. ) ;
#121 = ORIENTED_EDGE ( 'NONE', *, *, #143, .T. ) ;
#122 = ORIENTED_EDGE ( 'NONE', *, *, #184, .F. ) ;
#123 = ORIENTED_EDGE ( 'NONE', *, *, #2, .T. ) ;
#124 = CARTESIAN_POINT ( 'NONE',  ( -4.427487278350964700, 5.000000000000000900, -10.88392651574056000 ) ) ;
#125 = PLANE ( 'NONE',  #162 ) ;
#126 = CARTESIAN_POINT ( 'NONE',  ( 0.0000000000000000000, -6.123233995736764300E-016, 0.0000000000000000000 ) ) ;
#127 = LINE ( 'NONE', #200, #199 ) ;
#128 = DIRECTION ( 'NONE',  ( 0.7071067811865483500, -0.0000000000000000000, 0.7071067811865466800 ) ) ;
#129 = VECTOR ( 'NONE', #128, 1000.000000000000000 ) ;
#130 = CARTESIAN_POINT ( 'NONE',  ( -3.500000000000001300, 5.000000000000000900, -9.956439237389600900 ) ) ;
#131 = LINE ( 'NONE', #130, #129 ) ;
#132 = CARTESIAN_POINT ( 'NONE',  ( 4.427487278350955800, -1.734723475976807100E-015, -10.88392651574056400 ) ) ;
#133 = CARTESIAN_POINT ( 'NONE',  ( 4.618790558546433700, 0.2492871219778720300, -11.07522979593603900 ) ) ;
#134 = CARTESIAN_POINT ( 'NONE',  ( 4.809599327211810000, 0.4993346318002440100, -11.26603856460141300 ) ) ;
#135 = CARTESIAN_POINT ( 'NONE',  ( 5.000000000000000900, 0.7499999999999994400, -11.45643923738960300 ) ) ;
#136 = AXIS2_PLACEMENT_3D ( 'NONE', #126, #174, #173 ) ;
#137 = LINE ( 'NONE', #166, #165 ) ;
#138 = B_SPLINE_CURVE_WITH_KNOTS ( 'NONE', 3,
 ( #135, #134, #133, #132 ),
 .UNSPECIFIED., .F., .F.,
 ( 4, 4 ),
 ( 2.935241648718683400E-007, 0.001103942758704536200 ),
 .UNSPECIFIED. ) ;
#139 = VERTEX_POINT ( 'NONE', #311 ) ;
#140 = EDGE_CURVE ( 'NONE', #82, #83, #300, .T. ) ;
#141 = ORIENTED_EDGE ( 'NONE', *, *, #110, .T. ) ;
#142 = EDGE_LOOP ( 'NONE', ( #72, #89, #88, #59, #113, #112, #64 ) ) ;
#143 = EDGE_CURVE ( 'NONE', #83, #57, #297, .T. ) ;
#144 = EDGE_LOOP ( 'NONE', ( #107, #120, #106, #146 ) ) ;
#145 = ORIENTED_EDGE ( 'NONE', *, *, #22, .T. ) ;
#146 = ORIENTED_EDGE ( 'NONE', *, *, #34, .T. ) ;
#147 = EDGE_LOOP ( 'NONE', ( #145, #68, #122, #43, #121, #76 ) ) ;
#148 = ORIENTED_EDGE ( 'NONE', *, *, #41, .T. ) ;
#149 = ORIENTED_EDGE ( 'NONE', *, *, #5, .T. ) ;
#150 = ORIENTED_EDGE ( 'NONE', *, *, #24, .F. ) ;
#151 = ORIENTED_EDGE ( 'NONE', *, *, #5, .F. ) ;
#152 = AXIS2_PLACEMENT_3D ( 'NONE', #161, #160, #159 ) ;
#153 = CARTESIAN_POINT ( 'NONE',  ( 5.000000000000000900, 0.7499999999999994400, -11.45643923738960300 ) ) ;
#154 = CIRCLE ( 'NONE', #152, 12.49999999999999800 ) ;
#155 = EDGE_CURVE ( 'NONE', #158, #18, #211, .T. ) ;
#156 = EDGE_LOOP ( 'NONE', ( #21, #188, #15, #11 ) ) ;
#157 = ORIENTED_EDGE ( 'NONE', *, *, #36, .T. ) ;
#158 = VERTEX_POINT ( 'NONE', #210 ) ;
#159 = DIRECTION ( 'NONE',  ( 0.0000000000000000000, 0.0000000000000000000, -1.000000000000000000 ) ) ;
#160 = DIRECTION ( 'NONE',  ( -0.0000000000000000000, -1.000000000000000000, -0.0000000000000000000 ) ) ;
#161 = CARTESIAN_POINT ( 'NONE',  ( 0.0000000000000000000, 4.250000000000000000, 0.0000000000000000000 ) ) ;
#162 = AXIS2_PLACEMENT_3D ( 'NONE', #117, #116, #115 ) ;
#163 = CARTESIAN_POINT ( 'NONE',  ( 4.999999999999997300, 4.250000000000000000, -11.45643923738959900 ) ) ;
#164 = DIRECTION ( 'NONE',  ( 1.306734843614347500E-016, -0.0000000000000000000, 1.000000000000000000 ) ) ;
#165 = VECTOR ( 'NONE', #164, 1000.000000000000000 ) ;
#166 = CARTESIAN_POINT ( 'NONE',  ( -3.500000000000000000, 5.000000000000000900, 4.286263797015734600E-016 ) ) ;
#167 = CARTESIAN_POINT ( 'NONE',  ( 0.0000000000000000000, 5.000000000000000900, 0.0000000000000000000 ) ) ;
#168 = CIRCLE ( 'NONE', #92, 3.500000000000000000 ) ;
#169 = FACE_OUTER_BOUND ( 'NONE', #30, .T. ) ;
#170 = DIRECTION ( 'NONE',  ( -1.306734843614346500E-016, 0.0000000000000000000, -1.000000000000000000 ) ) ;
#171 = VECTOR ( 'NONE', #170, 1000.000000000000000 ) ;
#172 = CARTESIAN_POINT ( 'NONE',  ( 3.500000000000000000, 5.000000000000000900, -4.286263797015736600E-016 ) ) ;
#173 = DIRECTION ( 'NONE',  ( 0.0000000000000000000, 0.0000000000000000000, 1.000000000000000000 ) ) ;
#174 = DIRECTION ( 'NONE',  ( 0.0000000000000000000, 1.000000000000000000, 0.0000000000000000000 ) ) ;
#175 = DIRECTION ( 'NONE',  ( -0.0000000000000000000, 1.000000000000000000, -0.0000000000000000000 ) ) ;
#176 = VECTOR ( 'NONE', #175, 1000.000000000000000 ) ;
#177 = CARTESIAN_POINT ( 'NONE',  ( 4.999999999999997300, -1.734723475976807100E-015, -11.45643923738959900 ) ) ;
#178 = LINE ( 'NONE', #177, #176 ) ;
#179 = FACE_OUTER_BOUND ( 'NONE', #20, .T. ) ;
#180 = DIRECTION ( 'NONE',  ( 0.7071067811865493500, 0.0000000000000000000, -0.7071067811865456900 ) ) ;
#181 = VECTOR ( 'NONE', #180, 1000.000000000000000 ) ;
#182 = CARTESIAN_POINT ( 'NONE',  ( 3.499999999999998700, 5.000000000000000900, -9.956439237389609800 ) ) ;
#183 = LINE ( 'NONE', #182, #181 ) ;
#184 = EDGE_CURVE ( 'NONE', #40, #28, #205, .T. ) ;
#185 = ORIENTED_EDGE ( 'NONE', *, *, #184, .T. ) ;
#186 = ORIENTED_EDGE ( 'NONE', *, *, #80, .F. ) ;
#187 = ORIENTED_EDGE ( 'NONE', *, *, #31, .T. ) ;
#188 = ORIENTED_EDGE ( 'NONE', *, *, #60, .F. ) ;
#189 = CARTESIAN_POINT ( 'NONE',  ( -3.500000000000001300, 5.000000000000000900, -9.956439237389600900 ) ) ;
#190 = CARTESIAN_POINT ( 'NONE',  ( -4.427487278350964700, 5.000000000000000900, -10.88392651574056000 ) ) ;
#191 = CARTESIAN_POINT ( 'NONE',  ( -4.618790558546440800, 4.750712878022128800, -11.07522979593603700 ) ) ;
#192 = CARTESIAN_POINT ( 'NONE',  ( -4.809599327211813600, 4.500665368199755700, -11.26603856460140900 ) ) ;
#193 = CARTESIAN_POINT ( 'NONE',  ( -5.000000000000001800, 4.250000000000000000, -11.45643923738959900 ) ) ;
#194 = PLANE ( 'NONE',  #197 ) ;
#195 = CONICAL_SURFACE ( 'NONE', #136, 11.75000000000000000, 0.7853981633974509400 ) ;
#196 = B_SPLINE_CURVE_WITH_KNOTS ( 'NONE', 3,
 ( #193, #192, #191, #190 ),
 .UNSPECIFIED., .F., .F.,
 ( 4, 4 ),
 ( 2.935241648690370800E-007, 0.001103942758704528800 ),
 .UNSPECIFIED. ) ;
#197 = AXIS2_PLACEMENT_3D ( 'NONE', #95, #94, #93 ) ;
#198 = DIRECTION ( 'NONE',  ( -0.0000000000000000000, 1.000000000000000000, -0.0000000000000000000 ) ) ;
#199 = VECTOR ( 'NONE', #198, 1000.000000000000000 ) ;
#200 = CARTESIAN_POINT ( 'NONE',  ( -5.000000000000001800, -1.734723475976807100E-015, -11.45643923738959900 ) ) ;
#201 =( NAMED_UNIT ( * ) PLANE_ANGLE_UNIT ( ) SI_UNIT ( $, .RADIAN. ) );
#202 = DIRECTION ( 'NONE',  ( -0.0000000000000000000, 1.000000000000000000, -0.0000000000000000000 ) ) ;
#203 = VECTOR ( 'NONE', #202, 1000.000000000000000 ) ;
#204 = CARTESIAN_POINT ( 'NONE',  ( -3.500000000000001300, -1.734723475976807100E-015, -9.956439237389600900 ) ) ;
#205 = LINE ( 'NONE', #204, #203 ) ;
#206 = CARTESIAN_POINT ( 'NONE',  ( 4.999999999999997300, 4.250000000000000000, -11.45643923738959900 ) ) ;
#207 = CARTESIAN_POINT ( 'NONE',  ( 4.809599327211808300, 4.500665368199754800, -11.26603856460141100 ) ) ;
#208 = CARTESIAN_POINT ( 'NONE',  ( 4.618790558546435500, 4.750712878022127100, -11.07522979593604100 ) ) ;
#209 = CARTESIAN_POINT ( 'NONE',  ( 4.427487278350958500, 5.000000000000000900, -10.88392651574056600 ) ) ;
#210 = CARTESIAN_POINT ( 'NONE',  ( 4.427487278350958500, 5.000000000000000900, -10.88392651574056600 ) ) ;
#211 = B_SPLINE_CURVE_WITH_KNOTS ( 'NONE', 3,
 ( #209, #208, #207, #206 ),
 .UNSPECIFIED., .F., .F.,
 ( 4, 4 ),
 ( 2.951472947503082700E-007, 0.001103944381834408900 ),
 .UNSPECIFIED. ) ;
#212 = CARTESIAN_POINT ( 'NONE',  ( -5.000000000000001800, 0.7499999999999961100, -11.45643923738959900 ) ) ;
#213 = CIRCLE ( 'NONE', #237, 12.50000000000000400 ) ;
#214 = DIRECTION ( 'NONE',  ( 1.306734843614347500E-016, 0.0000000000000000000, 1.000000000000000000 ) ) ;
#215 = DIRECTION ( 'NONE',  ( -1.000000000000000000, 0.0000000000000000000, 1.306734843614347500E-016 ) ) ;
#216 = FACE_OUTER_BOUND ( 'NONE', #144, .T. ) ;
#217 = AXIS2_PLACEMENT_3D ( 'NONE', #242, #241, #240 ) ;
#218 = DIRECTION ( 'NONE',  ( 0.0000000000000000000, 0.0000000000000000000, -1.000000000000000000 ) ) ;
#219 = AXIS2_PLACEMENT_3D ( 'NONE', #229, #305, #337 ) ;
#220 = FACE_OUTER_BOUND ( 'NONE', #71, .T. ) ;
#221 = LINE ( 'NONE', #226, #225 ) ;
#222 = CARTESIAN_POINT ( 'NONE',  ( 0.0000000000000000000, -6.123233995736764300E-016, 0.0000000000000000000 ) ) ;
#223 = AXIS2_PLACEMENT_3D ( 'NONE', #280, #324, #323 ) ;
#224 = DIRECTION ( 'NONE',  ( 1.306734843614347500E-016, -0.0000000000000000000, 1.000000000000000000 ) ) ;
#225 = VECTOR ( 'NONE', #224, 1000.000000000000000 ) ;
#226 = CARTESIAN_POINT ( 'NONE',  ( -3.500000000000000000, -1.734723475976807100E-015, 4.286263797015734600E-016 ) ) ;
#227 = CARTESIAN_POINT ( 'NONE',  ( 3.500000000000000000, 5.000000000000000900, -4.286263797015736600E-016 ) ) ;
#228 = CARTESIAN_POINT ( 'NONE',  ( -5.000000000000001800, 0.7499999999999961100, -11.45643923738959900 ) ) ;
#229 = CARTESIAN_POINT ( 'NONE',  ( 0.0000000000000000000, 4.250000000000000000, 0.0000000000000000000 ) ) ;
#230 = DIRECTION ( 'NONE',  ( -1.306734843614346500E-016, 0.0000000000000000000, -1.000000000000000000 ) ) ;
#231 = VECTOR ( 'NONE', #230, 1000.000000000000000 ) ;
#232 = CARTESIAN_POINT ( 'NONE',  ( 3.500000000000000000, -1.734723475976807100E-015, -4.286263797015736600E-016 ) ) ;
#233 = LINE ( 'NONE', #303, #302 ) ;
#234 = DIRECTION ( 'NONE',  ( 0.0000000000000000000, 0.0000000000000000000, -1.000000000000000000 ) ) ;
#235 = DIRECTION ( 'NONE',  ( -0.0000000000000000000, -1.000000000000000000, -0.0000000000000000000 ) ) ;
#236 = CARTESIAN_POINT ( 'NONE',  ( 0.0000000000000000000, 0.7499999999999994400, 0.0000000000000000000 ) ) ;
#237 = AXIS2_PLACEMENT_3D ( 'NONE', #236, #235, #234 ) ;
#238 = LINE ( 'NONE', #232, #231 ) ;
#239 = CARTESIAN_POINT ( 'NONE',  ( 0.0000000000000000000, -6.123233995736764300E-016, 0.0000000000000000000 ) ) ;
#240 = DIRECTION ( 'NONE',  ( -1.306734843614346500E-016, 0.0000000000000000000, -1.000000000000000000 ) ) ;
#241 = DIRECTION ( 'NONE',  ( 1.000000000000000000, 0.0000000000000000000, -1.306734843614346500E-016 ) ) ;
#242 = CARTESIAN_POINT ( 'NONE',  ( 3.500000000000000000, -1.734723475976807100E-015, -4.286263797015736600E-016 ) ) ;
#243 = CARTESIAN_POINT ( 'NONE',  ( 0.0000000000000000000, 0.0000000000000000000, 0.0000000000000000000 ) ) ;
#244 = DIRECTION ( 'NONE',  ( 0.0000000000000000000, 0.0000000000000000000, -1.000000000000000000 ) ) ;
#245 = DIRECTION ( 'NONE',  ( 0.0000000000000000000, -1.000000000000000000, -0.0000000000000000000 ) ) ;
#246 = FACE_OUTER_BOUND ( 'NONE', #66, .T. ) ;
#247 = DIRECTION ( 'NONE',  ( -0.0000000000000000000, -1.000000000000000000, -0.0000000000000000000 ) ) ;
#248 = AXIS2_PLACEMENT_3D ( 'NONE', #251, #215, #214 ) ;
#249 = FACE_OUTER_BOUND ( 'NONE', #142, .T. ) ;
#250 = CARTESIAN_POINT ( 'NONE',  ( 11.75000000000000000, -1.117490204221959800E-015, 0.0000000000000000000 ) ) ;
#251 = CARTESIAN_POINT ( 'NONE',  ( -3.500000000000000000, -1.734723475976807100E-015, 4.286263797015734600E-016 ) ) ;
#252 = DIRECTION ( 'NONE',  ( 0.0000000000000000000, 0.7071067811865456900, 0.7071067811865493500 ) ) ;
#253 = VECTOR ( 'NONE', #252, 1000.000000000000000 ) ;
#254 = CARTESIAN_POINT ( 'NONE',  ( 0.0000000000000000000, -6.123233995736764300E-016, 11.75000000000000000 ) ) ;
#255 = LINE ( 'NONE', #254, #253 ) ;
#256 = PLANE ( 'NONE',  #259 ) ;
#257 = CARTESIAN_POINT ( 'NONE',  ( 4.427487278350955800, -1.734723475976807100E-015, -10.88392651574056400 ) ) ;
#258 = CARTESIAN_POINT ( 'NONE',  ( 3.499999999999998700, -1.734723475976807100E-015, -9.956439237389609800 ) ) ;
#259 = AXIS2_PLACEMENT_3D ( 'NONE', #250, #245, #244 ) ;
#260 = DIRECTION ( 'NONE',  ( -0.0000000000000000000, 1.000000000000000000, -0.0000000000000000000 ) ) ;
#261 = VECTOR ( 'NONE', #260, 1000.000000000000000 ) ;
#262 = CARTESIAN_POINT ( 'NONE',  ( -3.500000000000000000, -1.734723475976807100E-015, 4.286263797015734600E-016 ) ) ;
#263 = CARTESIAN_POINT ( 'NONE',  ( -4.427487278350962000, -6.123233995736764300E-016, -10.88392651574055800 ) ) ;
#264 = DIRECTION ( 'NONE',  ( 0.0000000000000000000, 0.0000000000000000000, -1.000000000000000000 ) ) ;
#265 = DIRECTION ( 'NONE',  ( -0.0000000000000000000, -1.000000000000000000, -0.0000000000000000000 ) ) ;
#266 = PLANE ( 'NONE',  #248 ) ;
#267 = DIRECTION ( 'NONE',  ( -0.7071067811865466800, 0.0000000000000000000, 0.7071067811865483500 ) ) ;
#268 = CARTESIAN_POINT ( 'NONE',  ( 0.0000000000000000000, -6.123233995736764300E-016, 11.75000000000000000 ) ) ;
#269 = DIRECTION ( 'NONE',  ( 0.7071067811865483500, -0.0000000000000000000, 0.7071067811865466800 ) ) ;
#270 = VECTOR ( 'NONE', #269, 1000.000000000000000 ) ;
#271 = CARTESIAN_POINT ( 'NONE',  ( -3.500000000000001300, -1.734723475976807100E-015, -9.956439237389600900 ) ) ;
#272 = LINE ( 'NONE', #271, #270 ) ;
#273 = AXIS2_PLACEMENT_3D ( 'NONE', #325, #267, #320 ) ;
#274 = CYLINDRICAL_SURFACE ( 'NONE', #223, 3.500000000000000000 ) ;
#275 = DIRECTION ( 'NONE',  ( 0.0000000000000000000, 0.0000000000000000000, 1.000000000000000000 ) ) ;
#276 = DIRECTION ( 'NONE',  ( 0.0000000000000000000, 1.000000000000000000, 0.0000000000000000000 ) ) ;
#277 = CIRCLE ( 'NONE', #336, 11.75000000000000000 ) ;
#278 = CYLINDRICAL_SURFACE ( 'NONE', #310, 12.50000000000000000 ) ;
#279 = PLANE ( 'NONE',  #273 ) ;
#280 = CARTESIAN_POINT ( 'NONE',  ( 0.0000000000000000000, 0.0000000000000000000, 0.0000000000000000000 ) ) ;
#281 = DIRECTION ( 'NONE',  ( 0.0000000000000000000, 0.0000000000000000000, -1.000000000000000000 ) ) ;
#282 = DIRECTION ( 'NONE',  ( -0.0000000000000000000, -1.000000000000000000, -0.0000000000000000000 ) ) ;
#283 = CARTESIAN_POINT ( 'NONE',  ( 0.0000000000000000000, -6.123233995736764300E-016, 0.0000000000000000000 ) ) ;
#284 = FACE_OUTER_BOUND ( 'NONE', #81, .T. ) ;
#285 = FACE_OUTER_BOUND ( 'NONE', #26, .T. ) ;
#286 = AXIS2_PLACEMENT_3D ( 'NONE', #222, #276, #275 ) ;
#287 = CARTESIAN_POINT ( 'NONE',  ( -3.500000000000001300, -1.734723475976807100E-015, -9.956439237389600900 ) ) ;
#288 = FACE_OUTER_BOUND ( 'NONE', #147, .T. ) ;
#289 = DIRECTION ( 'NONE',  ( -0.0000000000000000000, 1.000000000000000000, -0.0000000000000000000 ) ) ;
#290 = VECTOR ( 'NONE', #289, 1000.000000000000000 ) ;
#291 = CARTESIAN_POINT ( 'NONE',  ( 3.499999999999998700, -1.734723475976807100E-015, -9.956439237389609800 ) ) ;
#292 = LINE ( 'NONE', #291, #290 ) ;
#293 = CARTESIAN_POINT ( 'NONE',  ( -4.809599327211813600, 0.4993346318002422900, -11.26603856460140700 ) ) ;
#294 = CARTESIAN_POINT ( 'NONE',  ( -4.618790558546439100, 0.2492871219778710100, -11.07522979593603700 ) ) ;
#295 = CARTESIAN_POINT ( 'NONE',  ( -4.427487278350962000, -6.123233995736764300E-016, -10.88392651574055800 ) ) ;
#296 =( LENGTH_UNIT ( ) NAMED_UNIT ( * ) SI_UNIT ( .MILLI., .METRE. ) );
#297 = B_SPLINE_CURVE_WITH_KNOTS ( 'NONE', 3,
 ( #295, #294, #293, #212 ),
 .UNSPECIFIED., .F., .F.,
 ( 4, 4 ),
 ( 2.951472947492731900E-007, 0.001103944381834408900 ),
 .UNSPECIFIED. ) ;
#298 = DIRECTION ( 'NONE',  ( 0.0000000000000000000, 0.0000000000000000000, -1.000000000000000000 ) ) ;
#299 = DIRECTION ( 'NONE',  ( -0.0000000000000000000, -1.000000000000000000, -0.0000000000000000000 ) ) ;
#300 = CIRCLE ( 'NONE', #304, 11.75000000000000000 ) ;
#301 = DIRECTION ( 'NONE',  ( 0.7071067811865493500, 0.0000000000000000000, -0.7071067811865456900 ) ) ;
#302 = VECTOR ( 'NONE', #301, 1000.000000000000000 ) ;
#303 = CARTESIAN_POINT ( 'NONE',  ( 3.499999999999998700, -1.734723475976807100E-015, -9.956439237389609800 ) ) ;
#304 = AXIS2_PLACEMENT_3D ( 'NONE', #239, #299, #298 ) ;
#305 = DIRECTION ( 'NONE',  ( -0.0000000000000000000, -1.000000000000000000, -0.0000000000000000000 ) ) ;
#306 = CARTESIAN_POINT ( 'NONE',  ( -3.500000000000000000, 5.000000000000000900, 4.286263797015734600E-016 ) ) ;
#307 = CONICAL_SURFACE ( 'NONE', #286, 11.75000000000000000, 0.7853981633974509400 ) ;
#308 = CARTESIAN_POINT ( 'NONE',  ( -3.500000000000000000, -1.734723475976807100E-015, 4.286263797015734600E-016 ) ) ;
#309 = PLANE ( 'NONE',  #217 ) ;
#310 = AXIS2_PLACEMENT_3D ( 'NONE', #243, #247, #218 ) ;
#311 = CARTESIAN_POINT ( 'NONE',  ( 3.500000000000000000, -1.734723475976807100E-015, -4.286263797015736600E-016 ) ) ;
#312 = FACE_OUTER_BOUND ( 'NONE', #10, .T. ) ;
#313 = DIRECTION ( 'NONE',  ( 0.0000000000000000000, 0.0000000000000000000, -1.000000000000000000 ) ) ;
#314 = DIRECTION ( 'NONE',  ( -0.0000000000000000000, -1.000000000000000000, -0.0000000000000000000 ) ) ;
#315 = CARTESIAN_POINT ( 'NONE',  ( 0.0000000000000000000, -1.622657008870243300E-015, 0.0000000000000000000 ) ) ;
#316 = AXIS2_PLACEMENT_3D ( 'NONE', #315, #314, #313 ) ;
#317 = CIRCLE ( 'NONE', #316, 3.500000000000000000 ) ;
#318 = LINE ( 'NONE', #262, #261 ) ;
#319 = CARTESIAN_POINT ( 'NONE',  ( 0.0000000000000000000, 0.7499999999999994400, 0.0000000000000000000 ) ) ;
#320 = DIRECTION ( 'NONE',  ( 0.7071067811865483500, 0.0000000000000000000, 0.7071067811865466800 ) ) ;
#321 = CARTESIAN_POINT ( 'NONE',  ( 0.0000000000000000000, 0.7499999999999994400, 12.50000000000000400 ) ) ;
#322 = CIRCLE ( 'NONE', #326, 12.50000000000000400 ) ;
#323 = DIRECTION ( 'NONE',  ( 0.0000000000000000000, 0.0000000000000000000, -1.000000000000000000 ) ) ;
#324 = DIRECTION ( 'NONE',  ( -0.0000000000000000000, -1.000000000000000000, -0.0000000000000000000 ) ) ;
#325 = CARTESIAN_POINT ( 'NONE',  ( -3.500000000000001300, -1.734723475976807100E-015, -9.956439237389600900 ) ) ;
#326 = AXIS2_PLACEMENT_3D ( 'NONE', #319, #265, #264 ) ;
#327 = DIRECTION ( 'NONE',  ( 1.000000000000000000, 0.0000000000000000000, 0.0000000000000000000 ) ) ;
#328 = DIRECTION ( 'NONE',  ( 0.0000000000000000000, 0.0000000000000000000, 1.000000000000000000 ) ) ;
#329 = CARTESIAN_POINT ( 'NONE',  ( 0.0000000000000000000, 0.0000000000000000000, 0.0000000000000000000 ) ) ;
#330 = AXIS2_PLACEMENT_3D ( 'NONE', #329, #328, #327 ) ;
#331 = APPLICATION_CONTEXT ( 'configuration controlled 3d designs of mechanical parts and assemblies' ) ;
#332 = ADVANCED_BREP_SHAPE_REPRESENTATION ( 'WDS-804-206', ( #74, #330 ), #333 ) ;
#333 =( GEOMETRIC_REPRESENTATION_CONTEXT ( 3 ) GLOBAL_UNCERTAINTY_ASSIGNED_CONTEXT ( ( #334 ) ) GLOBAL_UNIT_ASSIGNED_CONTEXT ( ( #296, #201, #335 ) ) REPRESENTATION_CONTEXT ( 'NONE', 'WORKASPACE' ) );
#334 = UNCERTAINTY_MEASURE_WITH_UNIT (LENGTH_MEASURE( 1.000000000000000100E-005 ), #296, 'distance_accuracy_value', 'NONE');
#335 =( NAMED_UNIT ( * ) SI_UNIT ( $, .STERADIAN. ) SOLID_ANGLE_UNIT ( ) );
#336 = AXIS2_PLACEMENT_3D ( 'NONE', #283, #282, #281 ) ;
#337 = DIRECTION ( 'NONE',  ( 0.0000000000000000000, 0.0000000000000000000, -1.000000000000000000 ) ) ;
#338 = CONICAL_SURFACE ( 'NONE', #219, 12.49999999999999800, 0.7853981633974447300 ) ;
#339 = SHAPE_DEFINITION_REPRESENTATION ( #340, #332 ) ;
#340 = PRODUCT_DEFINITION_SHAPE ( 'NONE', 'NONE',  #403 ) ;
#341 = PRODUCT_RELATED_PRODUCT_CATEGORY ( 'detail', '', ( #412 ) ) ;
#342 = CC_DESIGN_SECURITY_CLASSIFICATION ( #363, ( #382 ) ) ;
#343 = CC_DESIGN_APPROVAL ( #351, ( #363 ) ) ;
#344 = APPROVAL_DATE_TIME ( #345, #351 ) ;
#345 = DATE_AND_TIME ( #346, #347 ) ;
#346 = CALENDAR_DATE ( 2012, 10, 4 ) ;
#347 = LOCAL_TIME ( 3, 27, 32.00000000000000000, #348 ) ;
#348 = COORDINATED_UNIVERSAL_TIME_OFFSET ( 5, 0, .BEHIND. ) ;
#349 = APPROVAL_PERSON_ORGANIZATION ( #353, #351, #350 ) ;
#350 = APPROVAL_ROLE ( '' ) ;
#351 = APPROVAL ( #352, 'UNSPECIFIED' ) ;
#352 = APPROVAL_STATUS ( 'not_yet_approved' ) ;
#353 = PERSON_AND_ORGANIZATION ( #411, #410 ) ;
#354 = CC_DESIGN_DATE_AND_TIME_ASSIGNMENT ( #356, #355, ( #363 ) ) ;
#355 = DATE_TIME_ROLE ( 'classification_date' ) ;
#356 = DATE_AND_TIME ( #357, #358 ) ;
#357 = CALENDAR_DATE ( 2012, 10, 4 ) ;
#358 = LOCAL_TIME ( 3, 27, 32.00000000000000000, #359 ) ;
#359 = COORDINATED_UNIVERSAL_TIME_OFFSET ( 5, 0, .BEHIND. ) ;
#360 = CC_DESIGN_PERSON_AND_ORGANIZATION_ASSIGNMENT ( #362, #361, ( #363 ) ) ;
#361 = PERSON_AND_ORGANIZATION_ROLE ( 'classification_officer' ) ;
#362 = PERSON_AND_ORGANIZATION ( #411, #410 ) ;
#363 = SECURITY_CLASSIFICATION ( '', '', #364 ) ;
#364 = SECURITY_CLASSIFICATION_LEVEL ( 'unclassified' ) ;
#365 = CC_DESIGN_PERSON_AND_ORGANIZATION_ASSIGNMENT ( #367, #366, ( #382 ) ) ;
#366 = PERSON_AND_ORGANIZATION_ROLE ( 'design_supplier' ) ;
#367 = PERSON_AND_ORGANIZATION ( #411, #410 ) ;
#368 = CC_DESIGN_PERSON_AND_ORGANIZATION_ASSIGNMENT ( #370, #369, ( #382 ) ) ;
#369 = PERSON_AND_ORGANIZATION_ROLE ( 'creator' ) ;
#370 = PERSON_AND_ORGANIZATION ( #411, #410 ) ;
#371 = CC_DESIGN_APPROVAL ( #379, ( #382 ) ) ;
#372 = APPROVAL_DATE_TIME ( #373, #379 ) ;
#373 = DATE_AND_TIME ( #374, #375 ) ;
#374 = CALENDAR_DATE ( 2012, 10, 4 ) ;
#375 = LOCAL_TIME ( 3, 27, 32.00000000000000000, #376 ) ;
#376 = COORDINATED_UNIVERSAL_TIME_OFFSET ( 5, 0, .BEHIND. ) ;
#377 = APPROVAL_PERSON_ORGANIZATION ( #381, #379, #378 ) ;
#378 = APPROVAL_ROLE ( '' ) ;
#379 = APPROVAL ( #380, 'UNSPECIFIED' ) ;
#380 = APPROVAL_STATUS ( 'not_yet_approved' ) ;
#381 = PERSON_AND_ORGANIZATION ( #411, #410 ) ;
#382 = PRODUCT_DEFINITION_FORMATION_WITH_SPECIFIED_SOURCE ( 'ANY', '', #412, .NOT_KNOWN. ) ;
#383 = CC_DESIGN_DATE_AND_TIME_ASSIGNMENT ( #385, #384, ( #403 ) ) ;
#384 = DATE_TIME_ROLE ( 'creation_date' ) ;
#385 = DATE_AND_TIME ( #386, #387 ) ;
#386 = CALENDAR_DATE ( 2012, 10, 4 ) ;
#387 = LOCAL_TIME ( 3, 27, 32.00000000000000000, #388 ) ;
#388 = COORDINATED_UNIVERSAL_TIME_OFFSET ( 5, 0, .BEHIND. ) ;
#389 = CC_DESIGN_PERSON_AND_ORGANIZATION_ASSIGNMENT ( #391, #390, ( #403 ) ) ;
#390 = PERSON_AND_ORGANIZATION_ROLE ( 'creator' ) ;
#391 = PERSON_AND_ORGANIZATION ( #411, #410 ) ;
#392 = CC_DESIGN_APPROVAL ( #400, ( #403 ) ) ;
#393 = APPROVAL_DATE_TIME ( #394, #400 ) ;
#394 = DATE_AND_TIME ( #395, #396 ) ;
#395 = CALENDAR_DATE ( 2012, 10, 4 ) ;
#396 = LOCAL_TIME ( 3, 27, 32.00000000000000000, #397 ) ;
#397 = COORDINATED_UNIVERSAL_TIME_OFFSET ( 5, 0, .BEHIND. ) ;
#398 = APPROVAL_PERSON_ORGANIZATION ( #402, #400, #399 ) ;
#399 = APPROVAL_ROLE ( '' ) ;
#400 = APPROVAL ( #401, 'UNSPECIFIED' ) ;
#401 = APPROVAL_STATUS ( 'not_yet_approved' ) ;
#402 = PERSON_AND_ORGANIZATION ( #411, #410 ) ;
#403 = PRODUCT_DEFINITION ( 'UNKNOWN', '', #382, #404 ) ;
#404 = DESIGN_CONTEXT ( 'detailed design', #406, 'design' ) ;
#405 = APPLICATION_PROTOCOL_DEFINITION ( 'international standard', 'config_control_design', 1994, #406 ) ;
#406 = APPLICATION_CONTEXT ( 'configuration controlled 3d designs of mechanical parts and assemblies' ) ;
#407 = CC_DESIGN_PERSON_AND_ORGANIZATION_ASSIGNMENT ( #409, #408, ( #412 ) ) ;
#408 = PERSON_AND_ORGANIZATION_ROLE ( 'design_owner' ) ;
#409 = PERSON_AND_ORGANIZATION ( #411, #410 ) ;
#410 = ORGANIZATION ( 'UNSPECIFIED', 'UNSPECIFIED', '' ) ;
#411 = PERSON ( 'UNSPECIFIED', 'UNSPECIFIED', 'UNSPECIFIED', ('UNSPECIFIED'), ('UNSPECIFIED'), ('UNSPECIFIED') ) ;
#412 = PRODUCT ( 'WDS-804-206', 'WDS-804-206', '', ( #413 ) ) ;
#413 = MECHANICAL_CONTEXT ( 'NONE', #331, 'mechanical' ) ;
#414 = APPLICATION_PROTOCOL_DEFINITION ( 'international standard', 'config_control_design', 1994, #331 ) ;
ENDSEC;
END-ISO-10303-21;
