ISO-10303-21;
HEADER;
FILE_DESCRIPTION (( 'STEP AP214' ),
    '1' );
FILE_NAME ('WDS-803-216M.step',
    '2012-04-10T07:24:36',
    ( 'SysAdmin' ),
    ( 'SolidWorks' ),
    'SwSTEP 2.0',
    'SolidWorks 2012',
    '' );
FILE_SCHEMA (( 'AUTOMOTIVE_DESIGN' ));
ENDSEC;

DATA;
#1 = ORIENTED_EDGE ( 'NONE', *, *, #65, .T. ) ;
#2 = ADVANCED_FACE ( 'NONE', ( #85 ), #51, .T. ) ;
#3 = ORIENTED_EDGE ( 'NONE', *, *, #29, .T. ) ;
#4 = EDGE_LOOP ( 'NONE', ( #3, #154, #35, #34 ) ) ;
#5 = VERTEX_POINT ( 'NONE', #192 ) ;
#6 = ORIENTED_EDGE ( 'NONE', *, *, #30, .T. ) ;
#7 = ORIENTED_EDGE ( 'NONE', *, *, #9, .F. ) ;
#8 = ORIENTED_EDGE ( 'NONE', *, *, #33, .F. ) ;
#9 = EDGE_CURVE ( 'NONE', #5, #10, #198, .T. ) ;
#10 = VERTEX_POINT ( 'NONE', #199 ) ;
#11 = EDGE_CURVE ( 'NONE', #5, #28, #204, .T. ) ;
#12 = AXIS2_PLACEMENT_3D ( 'NONE', #202, #201, #200 ) ;
#13 = VERTEX_POINT ( 'NONE', #174 ) ;
#14 = EDGE_LOOP ( 'NONE', ( #59, #63, #25, #135, #26, #137 ) ) ;
#15 = ADVANCED_FACE ( 'NONE', ( #168 ), #194, .F. ) ;
#16 = ORIENTED_EDGE ( 'NONE', *, *, #21, .T. ) ;
#17 = VERTEX_POINT ( 'NONE', #203 ) ;
#18 = EDGE_CURVE ( 'NONE', #66, #13, #133, .T. ) ;
#19 = VERTEX_POINT ( 'NONE', #175 ) ;
#20 = ORIENTED_EDGE ( 'NONE', *, *, #18, .T. ) ;
#21 = EDGE_CURVE ( 'NONE', #13, #17, #127, .T. ) ;
#22 = ORIENTED_EDGE ( 'NONE', *, *, #55, .F. ) ;
#23 = VERTEX_POINT ( 'NONE', #173 ) ;
#24 = VERTEX_POINT ( 'NONE', #167 ) ;
#25 = ORIENTED_EDGE ( 'NONE', *, *, #21, .F. ) ;
#26 = ORIENTED_EDGE ( 'NONE', *, *, #136, .F. ) ;
#27 = VERTEX_POINT ( 'NONE', #193 ) ;
#28 = VERTEX_POINT ( 'NONE', #129 ) ;
#29 = EDGE_CURVE ( 'NONE', #44, #40, #120, .T. ) ;
#30 = EDGE_CURVE ( 'NONE', #28, #23, #114, .T. ) ;
#31 = ORIENTED_EDGE ( 'NONE', *, *, #11, .T. ) ;
#32 = ORIENTED_EDGE ( 'NONE', *, *, #41, .F. ) ;
#33 = EDGE_CURVE ( 'NONE', #10, #27, #134, .T. ) ;
#34 = ORIENTED_EDGE ( 'NONE', *, *, #38, .F. ) ;
#35 = ORIENTED_EDGE ( 'NONE', *, *, #11, .F. ) ;
#36 = EDGE_CURVE ( 'NONE', #62, #10, #108, .T. ) ;
#37 = EDGE_LOOP ( 'NONE', ( #144, #141, #140, #146 ) ) ;
#38 = EDGE_CURVE ( 'NONE', #44, #5, #97, .T. ) ;
#39 = ORIENTED_EDGE ( 'NONE', *, *, #36, .F. ) ;
#40 = VERTEX_POINT ( 'NONE', #98 ) ;
#41 = EDGE_CURVE ( 'NONE', #27, #23, #104, .T. ) ;
#42 = ADVANCED_FACE ( 'NONE', ( #91 ), #93, .T. ) ;
#43 = EDGE_LOOP ( 'NONE', ( #31, #6, #32, #8, #7 ) ) ;
#44 = VERTEX_POINT ( 'NONE', #73 ) ;
#45 = AXIS2_PLACEMENT_3D ( 'NONE', #172, #171, #170 ) ;
#46 = ORIENTED_EDGE ( 'NONE', *, *, #9, .T. ) ;
#47 = ORIENTED_EDGE ( 'NONE', *, *, #18, .F. ) ;
#48 = ORIENTED_EDGE ( 'NONE', *, *, #36, .T. ) ;
#49 = ADVANCED_FACE ( 'NONE', ( #128 ), #78, .T. ) ;
#50 = EDGE_LOOP ( 'NONE', ( #47, #156, #164, #151, #162 ) ) ;
#51 = CONICAL_SURFACE ( 'NONE', #12, 17.50000000000000000, 0.7853981633974473900 ) ;
#52 = EDGE_LOOP ( 'NONE', ( #56, #20, #16, #54, #22 ) ) ;
#53 = EDGE_CURVE ( 'NONE', #62, #17, #184, .T. ) ;
#54 = ORIENTED_EDGE ( 'NONE', *, *, #64, .T. ) ;
#55 = EDGE_CURVE ( 'NONE', #58, #19, #186, .T. ) ;
#56 = ORIENTED_EDGE ( 'NONE', *, *, #65, .F. ) ;
#57 = EDGE_CURVE ( 'NONE', #23, #62, #334, .T. ) ;
#58 = VERTEX_POINT ( 'NONE', #255 ) ;
#59 = ORIENTED_EDGE ( 'NONE', *, *, #57, .T. ) ;
#60 = EDGE_CURVE ( 'NONE', #24, #13, #317, .T. ) ;
#61 = ADVANCED_FACE ( 'NONE', ( #357 ), #258, .T. ) ;
#62 = VERTEX_POINT ( 'NONE', #254 ) ;
#63 = ORIENTED_EDGE ( 'NONE', *, *, #53, .T. ) ;
#64 = EDGE_CURVE ( 'NONE', #17, #19, #356, .T. ) ;
#65 = EDGE_CURVE ( 'NONE', #66, #58, #348, .T. ) ;
#66 = VERTEX_POINT ( 'NONE', #209 ) ;
#67 = DIRECTION ( 'NONE',  ( 0.0000000000000000000, 0.0000000000000000000, -1.000000000000000000 ) ) ;
#68 = DIRECTION ( 'NONE',  ( 1.000000000000000000, 0.0000000000000000000, 0.0000000000000000000 ) ) ;
#69 = PRODUCT_CONTEXT ( 'NONE', #103, 'mechanical' ) ;
#70 =( REPRESENTATION_RELATIONSHIP ('NONE','NONE', #312, #251 ) REPRESENTATION_RELATIONSHIP_WITH_TRANSFORMATION ( #208 )SHAPE_REPRESENTATION_RELATIONSHIP( ) );
#71 = SHAPE_DEFINITION_REPRESENTATION ( #72, #251 ) ;
#72 = PRODUCT_DEFINITION_SHAPE ( 'NONE', 'NONE',  #190 ) ;
#73 = CARTESIAN_POINT ( 'NONE',  ( 0.0000000000000000000, 5.200000000000001100, -17.00000000000000000 ) ) ;
#74 = DIRECTION ( 'NONE',  ( 0.0000000000000000000, 0.0000000000000000000, -1.000000000000000000 ) ) ;
#75 = DIRECTION ( 'NONE',  ( -0.0000000000000000000, -1.000000000000000000, -0.0000000000000000000 ) ) ;
#76 = APPLICATION_PROTOCOL_DEFINITION ( 'draft international standard', 'automotive_design', 1998, #103 ) ;
#77 = AXIS2_PLACEMENT_3D ( 'NONE', #183, #182, #181 ) ;
#78 = SPHERICAL_SURFACE ( 'NONE', #110, 40.00000000000000000 ) ;
#79 = ADVANCED_FACE ( 'NONE', ( #344 ), #315, .F. ) ;
#80 = EDGE_CURVE ( 'NONE', #58, #66, #297, .T. ) ;
#81 = ADVANCED_FACE ( 'NONE', ( #293 ), #340, .T. ) ;
#82 = ORIENTED_EDGE ( 'NONE', *, *, #136, .T. ) ;
#83 = ORIENTED_EDGE ( 'NONE', *, *, #30, .F. ) ;
#84 = ORIENTED_EDGE ( 'NONE', *, *, #57, .F. ) ;
#85 = FACE_OUTER_BOUND ( 'NONE', #4, .T. ) ;
#86 = CLOSED_SHELL ( 'NONE', ( #15, #61, #42, #2, #142, #81, #49, #79, #152 ) ) ;
#87 = DIRECTION ( 'NONE',  ( 0.0000000000000000000, 0.0000000000000000000, -1.000000000000000000 ) ) ;
#88 = DIRECTION ( 'NONE',  ( -0.0000000000000000000, -1.000000000000000000, -0.0000000000000000000 ) ) ;
#89 = CARTESIAN_POINT ( 'NONE',  ( 0.0000000000000000000, 2.947038011750363400, 0.0000000000000000000 ) ) ;
#90 = DIRECTION ( 'NONE',  ( 0.0000000000000000000, 0.0000000000000000000, 1.000000000000000000 ) ) ;
#91 = FACE_OUTER_BOUND ( 'NONE', #43, .T. ) ;
#92 = AXIS2_PLACEMENT_3D ( 'NONE', #122, #75, #74 ) ;
#93 = CYLINDRICAL_SURFACE ( 'NONE', #92, 17.50000000000000400 ) ;
#94 = DIRECTION ( 'NONE',  ( 0.0000000000000000000, -0.7071067811865482400, -0.7071067811865469100 ) ) ;
#95 = VECTOR ( 'NONE', #94, 999.9999999999998900 ) ;
#96 = CARTESIAN_POINT ( 'NONE',  ( 0.0000000000000000000, 4.699999999999999300, -17.50000000000000000 ) ) ;
#97 = LINE ( 'NONE', #96, #95 ) ;
#98 = CARTESIAN_POINT ( 'NONE',  ( 2.112515728529184100E-015, 5.200000000000001100, 17.00000000000000000 ) ) ;
#99 = DIRECTION ( 'NONE',  ( 0.0000000000000000000, 0.0000000000000000000, -1.000000000000000000 ) ) ;
#100 = DIRECTION ( 'NONE',  ( -0.0000000000000000000, -1.000000000000000000, -0.0000000000000000000 ) ) ;
#101 = CARTESIAN_POINT ( 'NONE',  ( 0.0000000000000000000, 2.947038011750363400, 0.0000000000000000000 ) ) ;
#102 = AXIS2_PLACEMENT_3D ( 'NONE', #101, #100, #99 ) ;
#103 = APPLICATION_CONTEXT ( 'automotive_design' ) ;
#104 = CIRCLE ( 'NONE', #121, 17.50000000000000700 ) ;
#105 = DIRECTION ( 'NONE',  ( 0.0000000000000000000, 0.0000000000000000000, -1.000000000000000000 ) ) ;
#106 = DIRECTION ( 'NONE',  ( -0.0000000000000000000, -1.000000000000000000, -0.0000000000000000000 ) ) ;
#107 = CARTESIAN_POINT ( 'NONE',  ( 0.0000000000000000000, 2.947038011750363400, 0.0000000000000000000 ) ) ;
#108 = CIRCLE ( 'NONE', #102, 17.50000000000000700 ) ;
#109 = CARTESIAN_POINT ( 'NONE',  ( 0.0000000000000000000, 38.91577443659576100, 0.0000000000000000000 ) ) ;
#110 = AXIS2_PLACEMENT_3D ( 'NONE', #109, #90, #68 ) ;
#111 = DIRECTION ( 'NONE',  ( -0.0000000000000000000, -1.000000000000000000, -0.0000000000000000000 ) ) ;
#112 = VECTOR ( 'NONE', #111, 1000.000000000000000 ) ;
#113 = CARTESIAN_POINT ( 'NONE',  ( 2.143131898507868600E-015, 0.0000000000000000000, 17.50000000000000400 ) ) ;
#114 = LINE ( 'NONE', #113, #112 ) ;
#115 = AXIS2_PLACEMENT_3D ( 'NONE', #107, #106, #105 ) ;
#116 = DIRECTION ( 'NONE',  ( 0.0000000000000000000, 0.0000000000000000000, -1.000000000000000000 ) ) ;
#117 = DIRECTION ( 'NONE',  ( -0.0000000000000000000, -1.000000000000000000, -0.0000000000000000000 ) ) ;
#118 = CARTESIAN_POINT ( 'NONE',  ( 0.0000000000000000000, 5.200000000000001100, 0.0000000000000000000 ) ) ;
#119 = AXIS2_PLACEMENT_3D ( 'NONE', #118, #117, #116 ) ;
#120 = CIRCLE ( 'NONE', #119, 17.00000000000000000 ) ;
#121 = AXIS2_PLACEMENT_3D ( 'NONE', #89, #88, #87 ) ;
#122 = CARTESIAN_POINT ( 'NONE',  ( 0.0000000000000000000, 0.0000000000000000000, 0.0000000000000000000 ) ) ;
#123 = DIRECTION ( 'NONE',  ( 0.0000000000000000000, 0.0000000000000000000, -1.000000000000000000 ) ) ;
#124 = DIRECTION ( 'NONE',  ( -0.0000000000000000000, -1.000000000000000000, -0.0000000000000000000 ) ) ;
#125 = CARTESIAN_POINT ( 'NONE',  ( 0.0000000000000000000, 0.0000000000000000000, 0.0000000000000000000 ) ) ;
#126 = AXIS2_PLACEMENT_3D ( 'NONE', #125, #124, #123 ) ;
#127 = CIRCLE ( 'NONE', #126, 9.250000000000000000 ) ;
#128 = FACE_OUTER_BOUND ( 'NONE', #148, .T. ) ;
#129 = CARTESIAN_POINT ( 'NONE',  ( 2.143131898507868200E-015, 4.699999999999999300, 17.50000000000000000 ) ) ;
#130 = DIRECTION ( 'NONE',  ( -0.0000000000000000000, -1.000000000000000000, -0.0000000000000000000 ) ) ;
#131 = VECTOR ( 'NONE', #130, 1000.000000000000000 ) ;
#132 = CARTESIAN_POINT ( 'NONE',  ( 1.132798289211301700E-015, 0.0000000000000000000, 9.250000000000000000 ) ) ;
#133 = LINE ( 'NONE', #132, #131 ) ;
#134 = CIRCLE ( 'NONE', #115, 17.50000000000000700 ) ;
#135 = ORIENTED_EDGE ( 'NONE', *, *, #60, .F. ) ;
#136 = EDGE_CURVE ( 'NONE', #27, #24, #343, .T. ) ;
#137 = ORIENTED_EDGE ( 'NONE', *, *, #41, .T. ) ;
#138 = ORIENTED_EDGE ( 'NONE', *, *, #29, .F. ) ;
#139 = ORIENTED_EDGE ( 'NONE', *, *, #150, .F. ) ;
#140 = ORIENTED_EDGE ( 'NONE', *, *, #38, .T. ) ;
#141 = ORIENTED_EDGE ( 'NONE', *, *, #150, .T. ) ;
#142 = ADVANCED_FACE ( 'NONE', ( #292 ), #280, .T. ) ;
#143 = EDGE_CURVE ( 'NONE', #28, #5, #230, .T. ) ;
#144 = ORIENTED_EDGE ( 'NONE', *, *, #149, .F. ) ;
#145 = ORIENTED_EDGE ( 'NONE', *, *, #53, .F. ) ;
#146 = ORIENTED_EDGE ( 'NONE', *, *, #143, .F. ) ;
#147 = ORIENTED_EDGE ( 'NONE', *, *, #64, .F. ) ;
#148 = EDGE_LOOP ( 'NONE', ( #145, #48, #158, #82, #161, #147 ) ) ;
#149 = EDGE_CURVE ( 'NONE', #40, #28, #281, .T. ) ;
#150 = EDGE_CURVE ( 'NONE', #40, #44, #287, .T. ) ;
#151 = ORIENTED_EDGE ( 'NONE', *, *, #159, .T. ) ;
#152 = ADVANCED_FACE ( 'NONE', ( #277, #276 ), #227, .T. ) ;
#153 = ORIENTED_EDGE ( 'NONE', *, *, #80, .T. ) ;
#154 = ORIENTED_EDGE ( 'NONE', *, *, #149, .T. ) ;
#155 = EDGE_LOOP ( 'NONE', ( #83, #157, #46, #39, #84 ) ) ;
#156 = ORIENTED_EDGE ( 'NONE', *, *, #80, .F. ) ;
#157 = ORIENTED_EDGE ( 'NONE', *, *, #143, .T. ) ;
#158 = ORIENTED_EDGE ( 'NONE', *, *, #33, .T. ) ;
#159 = EDGE_CURVE ( 'NONE', #19, #24, #214, .T. ) ;
#160 = EDGE_LOOP ( 'NONE', ( #153, #1 ) ) ;
#161 = ORIENTED_EDGE ( 'NONE', *, *, #159, .F. ) ;
#162 = ORIENTED_EDGE ( 'NONE', *, *, #60, .T. ) ;
#163 = EDGE_LOOP ( 'NONE', ( #138, #139 ) ) ;
#164 = ORIENTED_EDGE ( 'NONE', *, *, #55, .T. ) ;
#165 = CARTESIAN_POINT ( 'NONE',  ( 0.0000000000000000000, 0.0000000000000000000, 0.0000000000000000000 ) ) ;
#166 = DIRECTION ( 'NONE',  ( -0.0000000000000000000, -1.000000000000000000, -0.0000000000000000000 ) ) ;
#167 = CARTESIAN_POINT ( 'NONE',  ( 9.250000000000000000, 0.0000000000000000000, 0.0000000000000000000 ) ) ;
#168 = FACE_OUTER_BOUND ( 'NONE', #52, .T. ) ;
#169 = AXIS2_PLACEMENT_3D ( 'NONE', #165, #166, #67 ) ;
#170 = DIRECTION ( 'NONE',  ( 0.0000000000000000000, 0.0000000000000000000, -1.000000000000000000 ) ) ;
#171 = DIRECTION ( 'NONE',  ( -0.0000000000000000000, -1.000000000000000000, -0.0000000000000000000 ) ) ;
#172 = CARTESIAN_POINT ( 'NONE',  ( 0.0000000000000000000, 4.699999999999999300, 0.0000000000000000000 ) ) ;
#173 = CARTESIAN_POINT ( 'NONE',  ( 2.143131898507869000E-015, 2.947038011750363400, 17.50000000000000700 ) ) ;
#174 = CARTESIAN_POINT ( 'NONE',  ( 1.132798289211301700E-015, 0.0000000000000000000, 9.250000000000000000 ) ) ;
#175 = CARTESIAN_POINT ( 'NONE',  ( 0.0000000000000000000, 0.0000000000000000000, -9.250000000000000000 ) ) ;
#176 = PRODUCT_DEFINITION_CONTEXT ( 'detailed design', #185, 'design' ) ;
#177 = APPLICATION_PROTOCOL_DEFINITION ( 'draft international standard', 'automotive_design', 1998, #185 ) ;
#178 = DIRECTION ( 'NONE',  ( -0.0000000000000000000, -1.000000000000000000, -0.0000000000000000000 ) ) ;
#179 = VECTOR ( 'NONE', #178, 1000.000000000000000 ) ;
#180 = CARTESIAN_POINT ( 'NONE',  ( 0.0000000000000000000, 0.0000000000000000000, -9.250000000000000000 ) ) ;
#181 = DIRECTION ( 'NONE',  ( 1.000000000000000000, 0.0000000000000000000, -1.224646799147353200E-016 ) ) ;
#182 = DIRECTION ( 'NONE',  ( 1.224646799147353200E-016, -0.0000000000000000000, 1.000000000000000000 ) ) ;
#183 = CARTESIAN_POINT ( 'NONE',  ( 0.0000000000000000000, 38.91577443659576100, 0.0000000000000000000 ) ) ;
#184 = CIRCLE ( 'NONE', #77, 40.00000000000000000 ) ;
#185 = APPLICATION_CONTEXT ( 'automotive_design' ) ;
#186 = LINE ( 'NONE', #180, #179 ) ;
#187 = PRODUCT ( 'WDS-803-216M_803M_803-216M', 'WDS-803-216M_803M_803-216M', '', ( #69 ) ) ;
#188 = PRODUCT_RELATED_PRODUCT_CATEGORY ( 'part', '', ( #187 ) ) ;
#189 = PRODUCT_DEFINITION_FORMATION_WITH_SPECIFIED_SOURCE ( 'ANY', '', #187, .NOT_KNOWN. ) ;
#190 = PRODUCT_DEFINITION ( 'UNKNOWN', '', #189, #176 ) ;
#191 = MANIFOLD_SOLID_BREP ( 'Revolve1', #86 ) ;
#192 = CARTESIAN_POINT ( 'NONE',  ( 0.0000000000000000000, 4.699999999999999300, -17.50000000000000000 ) ) ;
#193 = CARTESIAN_POINT ( 'NONE',  ( 17.50000000000000400, 2.947038011750363400, 0.0000000000000000000 ) ) ;
#194 = CYLINDRICAL_SURFACE ( 'NONE', #169, 9.250000000000000000 ) ;
#195 = DIRECTION ( 'NONE',  ( -0.0000000000000000000, -1.000000000000000000, -0.0000000000000000000 ) ) ;
#196 = VECTOR ( 'NONE', #195, 1000.000000000000000 ) ;
#197 = CARTESIAN_POINT ( 'NONE',  ( 0.0000000000000000000, 0.0000000000000000000, -17.50000000000000400 ) ) ;
#198 = LINE ( 'NONE', #197, #196 ) ;
#199 = CARTESIAN_POINT ( 'NONE',  ( 0.0000000000000000000, 2.947038011750363400, -17.50000000000000700 ) ) ;
#200 = DIRECTION ( 'NONE',  ( 0.0000000000000000000, 0.0000000000000000000, -1.000000000000000000 ) ) ;
#201 = DIRECTION ( 'NONE',  ( -0.0000000000000000000, -1.000000000000000000, -0.0000000000000000000 ) ) ;
#202 = CARTESIAN_POINT ( 'NONE',  ( 0.0000000000000000000, 4.699999999999999300, 0.0000000000000000000 ) ) ;
#203 = CARTESIAN_POINT ( 'NONE',  ( -9.250000000000000000, 0.0000000000000000000, 1.637965093859585600E-015 ) ) ;
#204 = CIRCLE ( 'NONE', #45, 17.50000000000000000 ) ;
#205 = CONTEXT_DEPENDENT_SHAPE_REPRESENTATION ( #70, #207 ) ;
#206 = PRODUCT_DEFINITION_SHAPE ( 'NONE', 'NONE',  #233 ) ;
#207 = PRODUCT_DEFINITION_SHAPE ( 'NONE', 'NONE',  #363 ) ;
#208 = ITEM_DEFINED_TRANSFORMATION ( 'NONE', 'NONE', #308,  #267 ) ;
#209 = CARTESIAN_POINT ( 'NONE',  ( 1.132798289211301700E-015, 5.200000000000000200, 9.250000000000000000 ) ) ;
#210 = DIRECTION ( 'NONE',  ( 1.000000000000000000, 0.0000000000000000000, 0.0000000000000000000 ) ) ;
#211 = AXIS2_PLACEMENT_3D ( 'NONE', #345, #341, #349 ) ;
#212 = CARTESIAN_POINT ( 'NONE',  ( 0.0000000000000000000, 0.0000000000000000000, 0.0000000000000000000 ) ) ;
#213 = AXIS2_PLACEMENT_3D ( 'NONE', #212, #333, #332 ) ;
#214 = CIRCLE ( 'NONE', #213, 9.250000000000000000 ) ;
#215 = COLOUR_RGB ( '',0.8235294117647058400, 0.8705882352941176600, 0.9803921568627450600 ) ;
#216 = DIRECTION ( 'NONE',  ( 0.0000000000000000000, -0.0000000000000000000, 1.000000000000000000 ) ) ;
#217 = DIRECTION ( 'NONE',  ( 0.0000000000000000000, 1.000000000000000000, 0.0000000000000000000 ) ) ;
#218 = CARTESIAN_POINT ( 'NONE',  ( 9.250000000000000000, 5.200000000000000200, 0.0000000000000000000 ) ) ;
#219 = AXIS2_PLACEMENT_3D ( 'NONE', #218, #217, #216 ) ;
#220 = FILL_AREA_STYLE ('',( #221 ) ) ;
#221 = FILL_AREA_STYLE_COLOUR ( '', #215 ) ;
#222 = DIRECTION ( 'NONE',  ( 0.0000000000000000000, 0.0000000000000000000, -1.000000000000000000 ) ) ;
#223 = DIRECTION ( 'NONE',  ( -0.0000000000000000000, -1.000000000000000000, -0.0000000000000000000 ) ) ;
#224 = CARTESIAN_POINT ( 'NONE',  ( 0.0000000000000000000, 5.200000000000001100, 0.0000000000000000000 ) ) ;
#225 = AXIS2_PLACEMENT_3D ( 'NONE', #224, #223, #222 ) ;
#226 = DIRECTION ( 'NONE',  ( 8.659560562354926700E-017, -0.7071067811865482400, 0.7071067811865469100 ) ) ;
#227 = PLANE ( 'NONE',  #219 ) ;
#228 = DIRECTION ( 'NONE',  ( 0.0000000000000000000, 0.0000000000000000000, -1.000000000000000000 ) ) ;
#229 = DIRECTION ( 'NONE',  ( -0.0000000000000000000, -1.000000000000000000, -0.0000000000000000000 ) ) ;
#230 = CIRCLE ( 'NONE', #275, 17.50000000000000000 ) ;
#231 = PRODUCT_RELATED_PRODUCT_CATEGORY ( 'part', '', ( #237 ) ) ;
#232 = PRODUCT_DEFINITION_FORMATION_WITH_SPECIFIED_SOURCE ( 'ANY', '', #237, .NOT_KNOWN. ) ;
#233 = PRODUCT_DEFINITION ( 'UNKNOWN', '', #232, #234 ) ;
#234 = PRODUCT_DEFINITION_CONTEXT ( 'detailed design', #236, 'design' ) ;
#235 = APPLICATION_PROTOCOL_DEFINITION ( 'draft international standard', 'automotive_design', 1998, #236 ) ;
#236 = APPLICATION_CONTEXT ( 'automotive_design' ) ;
#237 = PRODUCT ( 'WDS-803-216M', 'WDS-803-216M', '', ( #238 ) ) ;
#238 = PRODUCT_CONTEXT ( 'NONE', #240, 'mechanical' ) ;
#239 = APPLICATION_PROTOCOL_DEFINITION ( 'draft international standard', 'automotive_design', 1998, #240 ) ;
#240 = APPLICATION_CONTEXT ( 'automotive_design' ) ;
#241 = UNCERTAINTY_MEASURE_WITH_UNIT (LENGTH_MEASURE( 1.000000000000000100E-005 ), #244, 'distance_accuracy_value', 'NONE');
#242 =( NAMED_UNIT ( * ) SI_UNIT ( $, .STERADIAN. ) SOLID_ANGLE_UNIT ( ) );
#243 =( NAMED_UNIT ( * ) PLANE_ANGLE_UNIT ( ) SI_UNIT ( $, .RADIAN. ) );
#244 =( LENGTH_UNIT ( ) NAMED_UNIT ( * ) SI_UNIT ( .MILLI., .METRE. ) );
#245 = MECHANICAL_DESIGN_GEOMETRIC_PRESENTATION_REPRESENTATION (  '', ( #247 ), #252 ) ;
#246 = PRESENTATION_LAYER_ASSIGNMENT (  '', '', ( #247 ) ) ;
#247 = STYLED_ITEM ( 'NONE', ( #259 ), #268 ) ;
#248 = AXIS2_PLACEMENT_3D ( 'NONE', #311, #310, #309 ) ;
#249 = AXIS2_PLACEMENT_3D ( 'NONE', #319, #314, #313 ) ;
#250 = SHAPE_REPRESENTATION_RELATIONSHIP ( 'NONE' , 'NONE' ,  #251, #268 ) ;
#251 = SHAPE_REPRESENTATION ( 'WDS-803-216M_803M_803-216M', ( #267 ), #269 ) ;
#252 =( GEOMETRIC_REPRESENTATION_CONTEXT ( 3 ) GLOBAL_UNCERTAINTY_ASSIGNED_CONTEXT ( ( #241 ) ) GLOBAL_UNIT_ASSIGNED_CONTEXT ( ( #244, #243, #242 ) ) REPRESENTATION_CONTEXT ( 'NONE', 'WORKASPACE' ) );
#253 = AXIS2_PLACEMENT_3D ( 'NONE', #337, #336, #335 ) ;
#254 = CARTESIAN_POINT ( 'NONE',  ( -17.50000000000000400, 2.947038011750363400, 2.143131898507868600E-015 ) ) ;
#255 = CARTESIAN_POINT ( 'NONE',  ( 0.0000000000000000000, 5.200000000000000200, -9.250000000000000000 ) ) ;
#256 = AXIS2_PLACEMENT_3D ( 'NONE', #360, #359, #358 ) ;
#257 = AXIS2_PLACEMENT_3D ( 'NONE', #296, #295, #294 ) ;
#258 = SPHERICAL_SURFACE ( 'NONE', #318, 40.00000000000000000 ) ;
#259 = PRESENTATION_STYLE_ASSIGNMENT (( #260 ) ) ;
#260 = SURFACE_STYLE_USAGE ( .BOTH. , #261 ) ;
#261 = SURFACE_SIDE_STYLE ('',( #262 ) ) ;
#262 = SURFACE_STYLE_FILL_AREA ( #273 ) ;
#263 = COLOUR_RGB ( '',0.8235294117647058400, 0.8705882352941176600, 0.9803921568627450600 ) ;
#264 = DIRECTION ( 'NONE',  ( 1.000000000000000000, 0.0000000000000000000, 0.0000000000000000000 ) ) ;
#265 = DIRECTION ( 'NONE',  ( 0.0000000000000000000, 0.0000000000000000000, 1.000000000000000000 ) ) ;
#266 = CARTESIAN_POINT ( 'NONE',  ( 0.0000000000000000000, 0.0000000000000000000, 0.0000000000000000000 ) ) ;
#267 = AXIS2_PLACEMENT_3D ( 'NONE', #266, #265, #264 ) ;
#268 = ADVANCED_BREP_SHAPE_REPRESENTATION ( '', ( #191, #267 ), #269 ) ;
#269 =( GEOMETRIC_REPRESENTATION_CONTEXT ( 3 ) GLOBAL_UNCERTAINTY_ASSIGNED_CONTEXT ( ( #270 ) ) GLOBAL_UNIT_ASSIGNED_CONTEXT ( ( #290, #272, #271 ) ) REPRESENTATION_CONTEXT ( 'NONE', 'WORKASPACE' ) );
#270 = UNCERTAINTY_MEASURE_WITH_UNIT (LENGTH_MEASURE( 1.000000000000000100E-005 ), #290, 'distance_accuracy_value', 'NONE');
#271 =( NAMED_UNIT ( * ) SI_UNIT ( $, .STERADIAN. ) SOLID_ANGLE_UNIT ( ) );
#272 =( NAMED_UNIT ( * ) PLANE_ANGLE_UNIT ( ) SI_UNIT ( $, .RADIAN. ) );
#273 = FILL_AREA_STYLE ('',( #274 ) ) ;
#274 = FILL_AREA_STYLE_COLOUR ( '', #263 ) ;
#275 = AXIS2_PLACEMENT_3D ( 'NONE', #288, #229, #228 ) ;
#276 = FACE_OUTER_BOUND ( 'NONE', #163, .T. ) ;
#277 = FACE_BOUND ( 'NONE', #160, .T. ) ;
#278 = CARTESIAN_POINT ( 'NONE',  ( 2.143131898507868200E-015, 4.699999999999999300, 17.50000000000000000 ) ) ;
#279 = DIRECTION ( 'NONE',  ( 0.0000000000000000000, 0.0000000000000000000, -1.000000000000000000 ) ) ;
#280 = CONICAL_SURFACE ( 'NONE', #342, 17.50000000000000000, 0.7853981633974473900 ) ;
#281 = LINE ( 'NONE', #278, #291 ) ;
#282 = DIRECTION ( 'NONE',  ( -1.000000000000000000, 0.0000000000000000000, 0.0000000000000000000 ) ) ;
#283 = DIRECTION ( 'NONE',  ( 0.0000000000000000000, 0.0000000000000000000, -1.000000000000000000 ) ) ;
#284 = CARTESIAN_POINT ( 'NONE',  ( 0.0000000000000000000, 38.91577443659576100, 0.0000000000000000000 ) ) ;
#285 = AXIS2_PLACEMENT_3D ( 'NONE', #284, #283, #282 ) ;
#286 = CARTESIAN_POINT ( 'NONE',  ( 0.0000000000000000000, 4.699999999999999300, 0.0000000000000000000 ) ) ;
#287 = CIRCLE ( 'NONE', #225, 17.00000000000000000 ) ;
#288 = CARTESIAN_POINT ( 'NONE',  ( 0.0000000000000000000, 4.699999999999999300, 0.0000000000000000000 ) ) ;
#289 = DIRECTION ( 'NONE',  ( 0.0000000000000000000, 0.0000000000000000000, -1.000000000000000000 ) ) ;
#290 =( LENGTH_UNIT ( ) NAMED_UNIT ( * ) SI_UNIT ( .MILLI., .METRE. ) );
#291 = VECTOR ( 'NONE', #226, 999.9999999999998900 ) ;
#292 = FACE_OUTER_BOUND ( 'NONE', #37, .T. ) ;
#293 = FACE_OUTER_BOUND ( 'NONE', #155, .T. ) ;
#294 = DIRECTION ( 'NONE',  ( 0.0000000000000000000, 0.0000000000000000000, -1.000000000000000000 ) ) ;
#295 = DIRECTION ( 'NONE',  ( -0.0000000000000000000, -1.000000000000000000, -0.0000000000000000000 ) ) ;
#296 = CARTESIAN_POINT ( 'NONE',  ( 0.0000000000000000000, 5.200000000000000200, 0.0000000000000000000 ) ) ;
#297 = CIRCLE ( 'NONE', #257, 9.250000000000000000 ) ;
#298 = AXIS2_PLACEMENT_3D ( 'NONE', #299, #350, #289 ) ;
#299 = CARTESIAN_POINT ( 'NONE',  ( 0.0000000000000000000, 0.0000000000000000000, 0.0000000000000000000 ) ) ;
#300 =( GEOMETRIC_REPRESENTATION_CONTEXT ( 3 ) GLOBAL_UNCERTAINTY_ASSIGNED_CONTEXT ( ( #301 ) ) GLOBAL_UNIT_ASSIGNED_CONTEXT ( ( #304, #303, #302 ) ) REPRESENTATION_CONTEXT ( 'NONE', 'WORKASPACE' ) );
#301 = UNCERTAINTY_MEASURE_WITH_UNIT (LENGTH_MEASURE( 1.000000000000000100E-005 ), #304, 'distance_accuracy_value', 'NONE');
#302 =( NAMED_UNIT ( * ) SI_UNIT ( $, .STERADIAN. ) SOLID_ANGLE_UNIT ( ) );
#303 =( NAMED_UNIT ( * ) PLANE_ANGLE_UNIT ( ) SI_UNIT ( $, .RADIAN. ) );
#304 =( LENGTH_UNIT ( ) NAMED_UNIT ( * ) SI_UNIT ( .MILLI., .METRE. ) );
#305 = DIRECTION ( 'NONE',  ( -0.2025686992108054500, -6.591949208711867000E-017, -0.9792680542630003400 ) ) ;
#306 = DIRECTION ( 'NONE',  ( 0.9792680542630001200, -1.387778780781445700E-017, -0.2025686992108055300 ) ) ;
#307 = CARTESIAN_POINT ( 'NONE',  ( 5.400648600078461600E-016, 3.152961988249636200, 5.400648600078461800E-015 ) ) ;
#308 = AXIS2_PLACEMENT_3D ( 'NONE', #307, #306, #305 ) ;
#309 = DIRECTION ( 'NONE',  ( 1.000000000000000000, 0.0000000000000000000, 0.0000000000000000000 ) ) ;
#310 = DIRECTION ( 'NONE',  ( 0.0000000000000000000, 0.0000000000000000000, 1.000000000000000000 ) ) ;
#311 = CARTESIAN_POINT ( 'NONE',  ( 0.0000000000000000000, 0.0000000000000000000, 0.0000000000000000000 ) ) ;
#312 = SHAPE_REPRESENTATION ( 'WDS-803-216M', ( #249, #308 ), #300 ) ;
#313 = DIRECTION ( 'NONE',  ( 1.000000000000000000, 0.0000000000000000000, 0.0000000000000000000 ) ) ;
#314 = DIRECTION ( 'NONE',  ( 0.0000000000000000000, 0.0000000000000000000, 1.000000000000000000 ) ) ;
#315 = CYLINDRICAL_SURFACE ( 'NONE', #211, 9.250000000000000000 ) ;
#316 = DIRECTION ( 'NONE',  ( -0.0000000000000000000, -1.000000000000000000, -0.0000000000000000000 ) ) ;
#317 = CIRCLE ( 'NONE', #256, 9.250000000000000000 ) ;
#318 = AXIS2_PLACEMENT_3D ( 'NONE', #338, #339, #210 ) ;
#319 = CARTESIAN_POINT ( 'NONE',  ( 0.0000000000000000000, 0.0000000000000000000, 0.0000000000000000000 ) ) ;
#320 =( GEOMETRIC_REPRESENTATION_CONTEXT ( 3 ) GLOBAL_UNCERTAINTY_ASSIGNED_CONTEXT ( ( #321 ) ) GLOBAL_UNIT_ASSIGNED_CONTEXT ( ( #324, #323, #322 ) ) REPRESENTATION_CONTEXT ( 'NONE', 'WORKASPACE' ) );
#321 = UNCERTAINTY_MEASURE_WITH_UNIT (LENGTH_MEASURE( 1.000000000000000100E-005 ), #324, 'distance_accuracy_value', 'NONE');
#322 =( NAMED_UNIT ( * ) SI_UNIT ( $, .STERADIAN. ) SOLID_ANGLE_UNIT ( ) );
#323 =( NAMED_UNIT ( * ) PLANE_ANGLE_UNIT ( ) SI_UNIT ( $, .RADIAN. ) );
#324 =( LENGTH_UNIT ( ) NAMED_UNIT ( * ) SI_UNIT ( .MILLI., .METRE. ) );
#325 = MECHANICAL_DESIGN_GEOMETRIC_PRESENTATION_REPRESENTATION (  '', ( #327 ), #320 ) ;
#326 = PRESENTATION_LAYER_ASSIGNMENT (  '', '', ( #327 ) ) ;
#327 = STYLED_ITEM ( 'NONE', ( #328 ), #191 ) ;
#328 = PRESENTATION_STYLE_ASSIGNMENT (( #329 ) ) ;
#329 = SURFACE_STYLE_USAGE ( .BOTH. , #330 ) ;
#330 = SURFACE_SIDE_STYLE ('',( #331 ) ) ;
#331 = SURFACE_STYLE_FILL_AREA ( #220 ) ;
#332 = DIRECTION ( 'NONE',  ( 0.0000000000000000000, 0.0000000000000000000, -1.000000000000000000 ) ) ;
#333 = DIRECTION ( 'NONE',  ( -0.0000000000000000000, -1.000000000000000000, -0.0000000000000000000 ) ) ;
#334 = CIRCLE ( 'NONE', #253, 17.50000000000000700 ) ;
#335 = DIRECTION ( 'NONE',  ( 0.0000000000000000000, 0.0000000000000000000, -1.000000000000000000 ) ) ;
#336 = DIRECTION ( 'NONE',  ( -0.0000000000000000000, -1.000000000000000000, -0.0000000000000000000 ) ) ;
#337 = CARTESIAN_POINT ( 'NONE',  ( 0.0000000000000000000, 2.947038011750363400, 0.0000000000000000000 ) ) ;
#338 = CARTESIAN_POINT ( 'NONE',  ( 0.0000000000000000000, 38.91577443659576100, 0.0000000000000000000 ) ) ;
#339 = DIRECTION ( 'NONE',  ( 0.0000000000000000000, 0.0000000000000000000, 1.000000000000000000 ) ) ;
#340 = CYLINDRICAL_SURFACE ( 'NONE', #298, 17.50000000000000400 ) ;
#341 = DIRECTION ( 'NONE',  ( -0.0000000000000000000, -1.000000000000000000, -0.0000000000000000000 ) ) ;
#342 = AXIS2_PLACEMENT_3D ( 'NONE', #286, #316, #279 ) ;
#343 = CIRCLE ( 'NONE', #285, 40.00000000000000000 ) ;
#344 = FACE_OUTER_BOUND ( 'NONE', #50, .T. ) ;
#345 = CARTESIAN_POINT ( 'NONE',  ( 0.0000000000000000000, 0.0000000000000000000, 0.0000000000000000000 ) ) ;
#346 = DIRECTION ( 'NONE',  ( 0.0000000000000000000, 0.0000000000000000000, -1.000000000000000000 ) ) ;
#347 = DIRECTION ( 'NONE',  ( -0.0000000000000000000, -1.000000000000000000, -0.0000000000000000000 ) ) ;
#348 = CIRCLE ( 'NONE', #355, 9.250000000000000000 ) ;
#349 = DIRECTION ( 'NONE',  ( 0.0000000000000000000, 0.0000000000000000000, -1.000000000000000000 ) ) ;
#350 = DIRECTION ( 'NONE',  ( -0.0000000000000000000, -1.000000000000000000, -0.0000000000000000000 ) ) ;
#351 = DIRECTION ( 'NONE',  ( 0.0000000000000000000, 0.0000000000000000000, -1.000000000000000000 ) ) ;
#352 = DIRECTION ( 'NONE',  ( -0.0000000000000000000, -1.000000000000000000, -0.0000000000000000000 ) ) ;
#353 = CARTESIAN_POINT ( 'NONE',  ( 0.0000000000000000000, 0.0000000000000000000, 0.0000000000000000000 ) ) ;
#354 = AXIS2_PLACEMENT_3D ( 'NONE', #353, #352, #351 ) ;
#355 = AXIS2_PLACEMENT_3D ( 'NONE', #361, #347, #346 ) ;
#356 = CIRCLE ( 'NONE', #354, 9.250000000000000000 ) ;
#357 = FACE_OUTER_BOUND ( 'NONE', #14, .T. ) ;
#358 = DIRECTION ( 'NONE',  ( 0.0000000000000000000, 0.0000000000000000000, -1.000000000000000000 ) ) ;
#359 = DIRECTION ( 'NONE',  ( -0.0000000000000000000, -1.000000000000000000, -0.0000000000000000000 ) ) ;
#360 = CARTESIAN_POINT ( 'NONE',  ( 0.0000000000000000000, 0.0000000000000000000, 0.0000000000000000000 ) ) ;
#361 = CARTESIAN_POINT ( 'NONE',  ( 0.0000000000000000000, 5.200000000000000200, 0.0000000000000000000 ) ) ;
#362 = SHAPE_DEFINITION_REPRESENTATION ( #206, #312 ) ;
#363 = NEXT_ASSEMBLY_USAGE_OCCURRENCE ( 'NAUO1', ' ', ' ', #233, #190, $ ) ;
ENDSEC;
END-ISO-10303-21;
