ISO-10303-21;
HEADER;
FILE_DESCRIPTION (( 'STEP AP214' ),
    '1' );
FILE_NAME ('803-212F.step',
    '2010-01-20T09:05:25',
    ( 'sysAdmin' ),
    ( 'SolidWorks' ),
    'SwSTEP 2.0',
    'SolidWorks 2010',
    '' );
FILE_SCHEMA (( 'AUTOMOTIVE_DESIGN' ));
ENDSEC;

DATA;
#1 = DIRECTION ( 'NONE',  ( 1.000000000000000000, 0.0000000000000000000, -1.224646799147353200E-016 ) ) ;
#2 = AXIS2_PLACEMENT_3D ( 'NONE', #4, #3, #8 ) ;
#3 = DIRECTION ( 'NONE',  ( -0.0000000000000000000, -1.000000000000000000, -0.0000000000000000000 ) ) ;
#4 = CARTESIAN_POINT ( 'NONE',  ( 0.0000000000000000000, 6.500000000000000000, 0.0000000000000000000 ) ) ;
#5 = CIRCLE ( 'NONE', #2, 15.00000000000000000 ) ;
#6 = DIRECTION ( 'NONE',  ( 0.0000000000000000000, 0.0000000000000000000, -1.000000000000000000 ) ) ;
#7 =( NAMED_UNIT ( * ) SI_UNIT ( $, .STERADIAN. ) SOLID_ANGLE_UNIT ( ) );
#8 = DIRECTION ( 'NONE',  ( 0.0000000000000000000, 0.0000000000000000000, -1.000000000000000000 ) ) ;
#9 = CARTESIAN_POINT ( 'NONE',  ( 0.0000000000000000000, 3.698695917434914500, 0.0000000000000000000 ) ) ;
#10 = AXIS2_PLACEMENT_3D ( 'NONE', #9, #14, #6 ) ;
#11 = CARTESIAN_POINT ( 'NONE',  ( 8.878689293818302200E-016, 0.0000000000000000000, 7.249999999999993800 ) ) ;
#12 = LINE ( 'NONE', #11, #16 ) ;
#13 = CIRCLE ( 'NONE', #10, 7.249999999999986700 ) ;
#14 = DIRECTION ( 'NONE',  ( -0.0000000000000000000, -1.000000000000000000, -0.0000000000000000000 ) ) ;
#15 = DIRECTION ( 'NONE',  ( -0.0000000000000000000, -1.000000000000000000, -0.0000000000000000000 ) ) ;
#16 = VECTOR ( 'NONE', #15, 1000.000000000000000 ) ;
#17 = CARTESIAN_POINT ( 'NONE',  ( 0.0000000000000000000, 0.0000000000000000000, 0.0000000000000000000 ) ) ;
#18 = DIRECTION ( 'NONE',  ( 0.0000000000000000000, 0.0000000000000000000, -1.000000000000000000 ) ) ;
#19 = DIRECTION ( 'NONE',  ( -0.0000000000000000000, -1.000000000000000000, -0.0000000000000000000 ) ) ;
#20 = CIRCLE ( 'NONE', #21, 7.250000000000000000 ) ;
#21 = AXIS2_PLACEMENT_3D ( 'NONE', #17, #19, #18 ) ;
#22 =( GEOMETRIC_REPRESENTATION_CONTEXT ( 3 ) GLOBAL_UNCERTAINTY_ASSIGNED_CONTEXT ( ( #23 ) ) GLOBAL_UNIT_ASSIGNED_CONTEXT ( ( #281, #275, #7 ) ) REPRESENTATION_CONTEXT ( 'NONE', 'WORKASPACE' ) );
#23 = UNCERTAINTY_MEASURE_WITH_UNIT (LENGTH_MEASURE( 1.000000000000000100E-005 ), #281, 'distance_accuracy_value', 'NONE');
#24 = AXIS2_PLACEMENT_3D ( 'NONE', #135, #136, #1 ) ;
#25 = FACE_BOUND ( 'NONE', #37, .T. ) ;
#26 = CARTESIAN_POINT ( 'NONE',  ( 15.00000000000000000, 6.499999999999997300, 0.0000000000000000000 ) ) ;
#27 = PLANE ( 'NONE',  #40 ) ;
#28 = CLOSED_SHELL ( 'NONE', ( #132, #143, #96, #83, #61, #109, #70, #76, #55, #32 ) ) ;
#29 = ORIENTED_EDGE ( 'NONE', *, *, #144, .F. ) ;
#30 = CIRCLE ( 'NONE', #140, 14.81001966203822000 ) ;
#31 = ORIENTED_EDGE ( 'NONE', *, *, #77, .F. ) ;
#32 = ADVANCED_FACE ( 'NONE', ( #134, #25 ), #27, .F. ) ;
#33 = EDGE_LOOP ( 'NONE', ( #36, #31 ) ) ;
#34 = ORIENTED_EDGE ( 'NONE', *, *, #131, .T. ) ;
#35 = ORIENTED_EDGE ( 'NONE', *, *, #62, .T. ) ;
#36 = ORIENTED_EDGE ( 'NONE', *, *, #120, .F. ) ;
#37 = EDGE_LOOP ( 'NONE', ( #51, #52 ) ) ;
#38 = DIRECTION ( 'NONE',  ( 0.0000000000000000000, 0.0000000000000000000, -1.000000000000000000 ) ) ;
#39 = DIRECTION ( 'NONE',  ( 0.0000000000000000000, -1.000000000000000000, -0.0000000000000000000 ) ) ;
#40 = AXIS2_PLACEMENT_3D ( 'NONE', #26, #39, #38 ) ;
#41 = EDGE_CURVE ( 'NONE', #44, #103, #30, .T. ) ;
#42 = ORIENTED_EDGE ( 'NONE', *, *, #43, .T. ) ;
#43 = EDGE_CURVE ( 'NONE', #44, #105, #141, .T. ) ;
#44 = VERTEX_POINT ( 'NONE', #193 ) ;
#45 = ORIENTED_EDGE ( 'NONE', *, *, #48, .T. ) ;
#46 = ORIENTED_EDGE ( 'NONE', *, *, #119, .F. ) ;
#47 = VERTEX_POINT ( 'NONE', #195 ) ;
#48 = EDGE_CURVE ( 'NONE', #47, #106, #198, .T. ) ;
#49 = EDGE_LOOP ( 'NONE', ( #50, #42, #104, #45, #29 ) ) ;
#50 = ORIENTED_EDGE ( 'NONE', *, *, #41, .F. ) ;
#51 = ORIENTED_EDGE ( 'NONE', *, *, #56, .T. ) ;
#52 = ORIENTED_EDGE ( 'NONE', *, *, #41, .T. ) ;
#53 = EDGE_LOOP ( 'NONE', ( #72, #114, #57, #35, #34 ) ) ;
#54 = ORIENTED_EDGE ( 'NONE', *, *, #74, .F. ) ;
#55 = ADVANCED_FACE ( 'NONE', ( #166 ), #160, .F. ) ;
#56 = EDGE_CURVE ( 'NONE', #103, #44, #146, .T. ) ;
#57 = ORIENTED_EDGE ( 'NONE', *, *, #144, .T. ) ;
#58 = EDGE_LOOP ( 'NONE', ( #63, #68 ) ) ;
#59 = ORIENTED_EDGE ( 'NONE', *, *, #102, .F. ) ;
#60 = ORIENTED_EDGE ( 'NONE', *, *, #62, .F. ) ;
#61 = ADVANCED_FACE ( 'NONE', ( #203 ), #156, .F. ) ;
#62 = EDGE_CURVE ( 'NONE', #106, #80, #182, .T. ) ;
#63 = ORIENTED_EDGE ( 'NONE', *, *, #112, .T. ) ;
#64 = ORIENTED_EDGE ( 'NONE', *, *, #98, .F. ) ;
#65 = ORIENTED_EDGE ( 'NONE', *, *, #119, .T. ) ;
#66 = ORIENTED_EDGE ( 'NONE', *, *, #48, .F. ) ;
#67 = EDGE_CURVE ( 'NONE', #130, #89, #185, .T. ) ;
#68 = ORIENTED_EDGE ( 'NONE', *, *, #99, .T. ) ;
#69 = EDGE_LOOP ( 'NONE', ( #78, #107, #75, #54 ) ) ;
#70 = ADVANCED_FACE ( 'NONE', ( #164 ), #151, .T. ) ;
#71 = ORIENTED_EDGE ( 'NONE', *, *, #95, .T. ) ;
#72 = ORIENTED_EDGE ( 'NONE', *, *, #43, .F. ) ;
#73 = ORIENTED_EDGE ( 'NONE', *, *, #74, .T. ) ;
#74 = EDGE_CURVE ( 'NONE', #86, #121, #191, .T. ) ;
#75 = ORIENTED_EDGE ( 'NONE', *, *, #92, .T. ) ;
#76 = ADVANCED_FACE ( 'NONE', ( #147 ), #173, .T. ) ;
#77 = EDGE_CURVE ( 'NONE', #124, #123, #5, .T. ) ;
#78 = ORIENTED_EDGE ( 'NONE', *, *, #122, .F. ) ;
#79 = EDGE_LOOP ( 'NONE', ( #126, #90, #88, #94 ) ) ;
#80 = VERTEX_POINT ( 'NONE', #142 ) ;
#81 = EDGE_CURVE ( 'NONE', #80, #89, #12, .T. ) ;
#82 = ORIENTED_EDGE ( 'NONE', *, *, #95, .F. ) ;
#83 = ADVANCED_FACE ( 'NONE', ( #202 ), #186, .F. ) ;
#84 = EDGE_LOOP ( 'NONE', ( #85, #127, #129, #46, #59 ) ) ;
#85 = ORIENTED_EDGE ( 'NONE', *, *, #131, .F. ) ;
#86 = VERTEX_POINT ( 'NONE', #268 ) ;
#87 = VERTEX_POINT ( 'NONE', #231 ) ;
#88 = ORIENTED_EDGE ( 'NONE', *, *, #91, .F. ) ;
#89 = VERTEX_POINT ( 'NONE', #235 ) ;
#90 = ORIENTED_EDGE ( 'NONE', *, *, #122, .T. ) ;
#91 = EDGE_CURVE ( 'NONE', #121, #86, #220, .T. ) ;
#92 = EDGE_CURVE ( 'NONE', #123, #121, #236, .T. ) ;
#93 = EDGE_LOOP ( 'NONE', ( #125, #101, #100, #82 ) ) ;
#94 = ORIENTED_EDGE ( 'NONE', *, *, #92, .F. ) ;
#95 = EDGE_CURVE ( 'NONE', #97, #86, #217, .T. ) ;
#96 = ADVANCED_FACE ( 'NONE', ( #250 ), #247, .T. ) ;
#97 = VERTEX_POINT ( 'NONE', #234 ) ;
#98 = EDGE_CURVE ( 'NONE', #87, #121, #216, .T. ) ;
#99 = EDGE_CURVE ( 'NONE', #87, #97, #251, .T. ) ;
#100 = ORIENTED_EDGE ( 'NONE', *, *, #91, .T. ) ;
#101 = ORIENTED_EDGE ( 'NONE', *, *, #98, .T. ) ;
#102 = EDGE_CURVE ( 'NONE', #105, #47, #227, .T. ) ;
#103 = VERTEX_POINT ( 'NONE', #259 ) ;
#104 = ORIENTED_EDGE ( 'NONE', *, *, #102, .T. ) ;
#105 = VERTEX_POINT ( 'NONE', #252 ) ;
#106 = VERTEX_POINT ( 'NONE', #237 ) ;
#107 = ORIENTED_EDGE ( 'NONE', *, *, #77, .T. ) ;
#108 = EDGE_LOOP ( 'NONE', ( #64, #110, #71, #73 ) ) ;
#109 = ADVANCED_FACE ( 'NONE', ( #224, #258 ), #233, .T. ) ;
#110 = ORIENTED_EDGE ( 'NONE', *, *, #112, .F. ) ;
#111 = EDGE_LOOP ( 'NONE', ( #113, #115 ) ) ;
#112 = EDGE_CURVE ( 'NONE', #97, #87, #271, .T. ) ;
#113 = ORIENTED_EDGE ( 'NONE', *, *, #67, .F. ) ;
#114 = ORIENTED_EDGE ( 'NONE', *, *, #56, .F. ) ;
#115 = ORIENTED_EDGE ( 'NONE', *, *, #128, .F. ) ;
#116 = ORIENTED_EDGE ( 'NONE', *, *, #81, .F. ) ;
#117 = ORIENTED_EDGE ( 'NONE', *, *, #67, .T. ) ;
#118 = EDGE_LOOP ( 'NONE', ( #116, #60, #66, #65, #117 ) ) ;
#119 = EDGE_CURVE ( 'NONE', #47, #130, #226, .T. ) ;
#120 = EDGE_CURVE ( 'NONE', #123, #124, #242, .T. ) ;
#121 = VERTEX_POINT ( 'NONE', #264 ) ;
#122 = EDGE_CURVE ( 'NONE', #124, #86, #263, .T. ) ;
#123 = VERTEX_POINT ( 'NONE', #265 ) ;
#124 = VERTEX_POINT ( 'NONE', #223 ) ;
#125 = ORIENTED_EDGE ( 'NONE', *, *, #99, .F. ) ;
#126 = ORIENTED_EDGE ( 'NONE', *, *, #120, .T. ) ;
#127 = ORIENTED_EDGE ( 'NONE', *, *, #81, .T. ) ;
#128 = EDGE_CURVE ( 'NONE', #89, #130, #20, .T. ) ;
#129 = ORIENTED_EDGE ( 'NONE', *, *, #128, .T. ) ;
#130 = VERTEX_POINT ( 'NONE', #168 ) ;
#131 = EDGE_CURVE ( 'NONE', #80, #105, #13, .T. ) ;
#132 = ADVANCED_FACE ( 'NONE', ( #150 ), #280, .F. ) ;
#133 = MANIFOLD_SOLID_BREP ( 'Cut-Revolve1', #28 ) ;
#134 = FACE_OUTER_BOUND ( 'NONE', #33, .T. ) ;
#135 = CARTESIAN_POINT ( 'NONE',  ( 0.0000000000000000000, 34.86658805020514500, 0.0000000000000000000 ) ) ;
#136 = DIRECTION ( 'NONE',  ( 1.224646799147353200E-016, -0.0000000000000000000, 1.000000000000000000 ) ) ;
#137 = DIRECTION ( 'NONE',  ( 0.0000000000000000000, 0.0000000000000000000, -1.000000000000000000 ) ) ;
#138 = DIRECTION ( 'NONE',  ( -0.0000000000000000000, -1.000000000000000000, -0.0000000000000000000 ) ) ;
#139 = CARTESIAN_POINT ( 'NONE',  ( 0.0000000000000000000, 6.499999999999995600, 0.0000000000000000000 ) ) ;
#140 = AXIS2_PLACEMENT_3D ( 'NONE', #139, #138, #137 ) ;
#141 = CIRCLE ( 'NONE', #24, 32.00000000000000000 ) ;
#142 = CARTESIAN_POINT ( 'NONE',  ( 8.878689293818299200E-016, 3.698695917434914500, 7.249999999999986700 ) ) ;
#143 = ADVANCED_FACE ( 'NONE', ( #320 ), #318, .T. ) ;
#144 = EDGE_CURVE ( 'NONE', #103, #106, #369, .T. ) ;
#145 = DIRECTION ( 'NONE',  ( -0.0000000000000000000, -1.000000000000000000, -0.0000000000000000000 ) ) ;
#146 = CIRCLE ( 'NONE', #165, 14.81001966203822000 ) ;
#147 = FACE_OUTER_BOUND ( 'NONE', #69, .T. ) ;
#148 = DIRECTION ( 'NONE',  ( -0.0000000000000000000, -1.000000000000000000, -0.0000000000000000000 ) ) ;
#149 = CARTESIAN_POINT ( 'NONE',  ( 0.0000000000000000000, 0.0000000000000000000, 0.0000000000000000000 ) ) ;
#150 = FACE_OUTER_BOUND ( 'NONE', #49, .T. ) ;
#151 = CONICAL_SURFACE ( 'NONE', #162, 14.49999999999999800, 0.7853981633974487200 ) ;
#152 = DIRECTION ( 'NONE',  ( 0.0000000000000000000, 0.0000000000000000000, -1.000000000000000000 ) ) ;
#153 = DIRECTION ( 'NONE',  ( -0.0000000000000000000, -1.000000000000000000, -0.0000000000000000000 ) ) ;
#154 = CARTESIAN_POINT ( 'NONE',  ( 0.0000000000000000000, 0.0000000000000000000, 0.0000000000000000000 ) ) ;
#155 = AXIS2_PLACEMENT_3D ( 'NONE', #154, #153, #152 ) ;
#156 = CYLINDRICAL_SURFACE ( 'NONE', #159, 7.249999999999993800 ) ;
#157 = DIRECTION ( 'NONE',  ( 0.0000000000000000000, 1.000000000000000000, 0.0000000000000000000 ) ) ;
#158 = CARTESIAN_POINT ( 'NONE',  ( 0.0000000000000000000, 0.0000000000000000000, 0.0000000000000000000 ) ) ;
#159 = AXIS2_PLACEMENT_3D ( 'NONE', #163, #145, #184 ) ;
#160 = SPHERICAL_SURFACE ( 'NONE', #197, 32.00000000000000000 ) ;
#161 = CARTESIAN_POINT ( 'NONE',  ( 0.0000000000000000000, 34.86658805020514500, 0.0000000000000000000 ) ) ;
#162 = AXIS2_PLACEMENT_3D ( 'NONE', #158, #157, #174 ) ;
#163 = CARTESIAN_POINT ( 'NONE',  ( 0.0000000000000000000, 0.0000000000000000000, 0.0000000000000000000 ) ) ;
#164 = FACE_OUTER_BOUND ( 'NONE', #108, .T. ) ;
#165 = AXIS2_PLACEMENT_3D ( 'NONE', #200, #181, #194 ) ;
#166 = FACE_OUTER_BOUND ( 'NONE', #53, .T. ) ;
#167 = AXIS2_PLACEMENT_3D ( 'NONE', #149, #148, #192 ) ;
#168 = CARTESIAN_POINT ( 'NONE',  ( 0.0000000000000000000, 0.0000000000000000000, -7.250000000000000000 ) ) ;
#169 = DIRECTION ( 'NONE',  ( 0.0000000000000000000, 0.0000000000000000000, -1.000000000000000000 ) ) ;
#170 = DIRECTION ( 'NONE',  ( -0.0000000000000000000, -1.000000000000000000, -0.0000000000000000000 ) ) ;
#171 = CARTESIAN_POINT ( 'NONE',  ( 0.0000000000000000000, 0.0000000000000000000, 0.0000000000000000000 ) ) ;
#172 = AXIS2_PLACEMENT_3D ( 'NONE', #171, #170, #169 ) ;
#173 = CYLINDRICAL_SURFACE ( 'NONE', #167, 15.00000000000000000 ) ;
#174 = DIRECTION ( 'NONE',  ( 0.0000000000000000000, 0.0000000000000000000, 1.000000000000000000 ) ) ;
#175 = DIRECTION ( 'NONE',  ( 0.0000000000000000000, 0.0000000000000000000, -1.000000000000000000 ) ) ;
#176 = DIRECTION ( 'NONE',  ( -0.0000000000000000000, -1.000000000000000000, -0.0000000000000000000 ) ) ;
#177 = CARTESIAN_POINT ( 'NONE',  ( 0.0000000000000000000, 3.698695917434914500, 0.0000000000000000000 ) ) ;
#178 = AXIS2_PLACEMENT_3D ( 'NONE', #177, #176, #175 ) ;
#179 = AXIS2_PLACEMENT_3D ( 'NONE', #196, #199, #183 ) ;
#180 = DIRECTION ( 'NONE',  ( 1.000000000000000000, 0.0000000000000000000, 0.0000000000000000000 ) ) ;
#181 = DIRECTION ( 'NONE',  ( -0.0000000000000000000, -1.000000000000000000, -0.0000000000000000000 ) ) ;
#182 = CIRCLE ( 'NONE', #178, 7.249999999999986700 ) ;
#183 = DIRECTION ( 'NONE',  ( 0.0000000000000000000, 0.0000000000000000000, -1.000000000000000000 ) ) ;
#184 = DIRECTION ( 'NONE',  ( 0.0000000000000000000, 0.0000000000000000000, -1.000000000000000000 ) ) ;
#185 = CIRCLE ( 'NONE', #155, 7.250000000000000000 ) ;
#186 = CYLINDRICAL_SURFACE ( 'NONE', #172, 7.249999999999993800 ) ;
#187 = DIRECTION ( 'NONE',  ( 0.0000000000000000000, 0.0000000000000000000, -1.000000000000000000 ) ) ;
#188 = DIRECTION ( 'NONE',  ( -0.0000000000000000000, -1.000000000000000000, -0.0000000000000000000 ) ) ;
#189 = CARTESIAN_POINT ( 'NONE',  ( 0.0000000000000000000, 0.5000000000000000000, 0.0000000000000000000 ) ) ;
#190 = AXIS2_PLACEMENT_3D ( 'NONE', #189, #188, #187 ) ;
#191 = CIRCLE ( 'NONE', #190, 15.00000000000000000 ) ;
#192 = DIRECTION ( 'NONE',  ( 0.0000000000000000000, 0.0000000000000000000, -1.000000000000000000 ) ) ;
#193 = CARTESIAN_POINT ( 'NONE',  ( -14.81001966203821700, 6.499999999999993800, 1.813704317442446600E-015 ) ) ;
#194 = DIRECTION ( 'NONE',  ( 0.0000000000000000000, 0.0000000000000000000, -1.000000000000000000 ) ) ;
#195 = CARTESIAN_POINT ( 'NONE',  ( 0.0000000000000000000, 3.698695917434914500, -7.249999999999986700 ) ) ;
#196 = CARTESIAN_POINT ( 'NONE',  ( 0.0000000000000000000, 3.698695917434914500, 0.0000000000000000000 ) ) ;
#197 = AXIS2_PLACEMENT_3D ( 'NONE', #161, #201, #180 ) ;
#198 = CIRCLE ( 'NONE', #179, 7.249999999999986700 ) ;
#199 = DIRECTION ( 'NONE',  ( -0.0000000000000000000, -1.000000000000000000, -0.0000000000000000000 ) ) ;
#200 = CARTESIAN_POINT ( 'NONE',  ( 0.0000000000000000000, 6.499999999999995600, 0.0000000000000000000 ) ) ;
#201 = DIRECTION ( 'NONE',  ( 0.0000000000000000000, 0.0000000000000000000, 1.000000000000000000 ) ) ;
#202 = FACE_OUTER_BOUND ( 'NONE', #84, .T. ) ;
#203 = FACE_OUTER_BOUND ( 'NONE', #118, .T. ) ;
#204 = DIRECTION ( 'NONE',  ( -0.0000000000000000000, -1.000000000000000000, -0.0000000000000000000 ) ) ;
#205 = CARTESIAN_POINT ( 'NONE',  ( 0.0000000000000000000, 0.0000000000000000000, -15.00000000000000000 ) ) ;
#206 = CARTESIAN_POINT ( 'NONE',  ( 0.0000000000000000000, 0.5000000000000000000, 0.0000000000000000000 ) ) ;
#207 = DIRECTION ( 'NONE',  ( 0.0000000000000000000, 0.0000000000000000000, -1.000000000000000000 ) ) ;
#208 = DIRECTION ( 'NONE',  ( -0.0000000000000000000, -1.000000000000000000, -0.0000000000000000000 ) ) ;
#209 = AXIS2_PLACEMENT_3D ( 'NONE', #261, #222, #221 ) ;
#210 = DIRECTION ( 'NONE',  ( 0.0000000000000000000, 0.0000000000000000000, -1.000000000000000000 ) ) ;
#211 = DIRECTION ( 'NONE',  ( 0.0000000000000000000, -1.000000000000000000, -0.0000000000000000000 ) ) ;
#212 = CARTESIAN_POINT ( 'NONE',  ( 0.0000000000000000000, 0.0000000000000000000, 14.49999999999999800 ) ) ;
#213 = DIRECTION ( 'NONE',  ( 8.659560562354937800E-017, 0.7071067811865472400, -0.7071067811865479100 ) ) ;
#214 = VECTOR ( 'NONE', #213, 999.9999999999998900 ) ;
#215 = CARTESIAN_POINT ( 'NONE',  ( 1.775737858763662000E-015, 0.0000000000000000000, -14.49999999999999800 ) ) ;
#216 = LINE ( 'NONE', #215, #214 ) ;
#217 = LINE ( 'NONE', #212, #249 ) ;
#218 = VECTOR ( 'NONE', #204, 1000.000000000000000 ) ;
#219 = AXIS2_PLACEMENT_3D ( 'NONE', #206, #208, #207 ) ;
#220 = CIRCLE ( 'NONE', #219, 15.00000000000000000 ) ;
#221 = DIRECTION ( 'NONE',  ( 0.0000000000000000000, 0.0000000000000000000, -1.000000000000000000 ) ) ;
#222 = DIRECTION ( 'NONE',  ( -0.0000000000000000000, -1.000000000000000000, -0.0000000000000000000 ) ) ;
#223 = CARTESIAN_POINT ( 'NONE',  ( 1.836970198721029600E-015, 6.500000000000000000, 15.00000000000000000 ) ) ;
#224 = FACE_OUTER_BOUND ( 'NONE', #58, .T. ) ;
#225 = CARTESIAN_POINT ( 'NONE',  ( 0.0000000000000000000, 0.0000000000000000000, -7.249999999999993800 ) ) ;
#226 = LINE ( 'NONE', #225, #238 ) ;
#227 = CIRCLE ( 'NONE', #241, 7.249999999999986700 ) ;
#228 = DIRECTION ( 'NONE',  ( -0.0000000000000000000, -1.000000000000000000, -0.0000000000000000000 ) ) ;
#229 = VECTOR ( 'NONE', #228, 1000.000000000000000 ) ;
#230 = DIRECTION ( 'NONE',  ( 0.0000000000000000000, 1.000000000000000000, 0.0000000000000000000 ) ) ;
#231 = CARTESIAN_POINT ( 'NONE',  ( 1.806354028742345800E-015, 0.0000000000000000000, -14.49999999999999800 ) ) ;
#232 = CARTESIAN_POINT ( 'NONE',  ( 7.250000000000000000, 0.0000000000000000000, 0.0000000000000000000 ) ) ;
#233 = PLANE ( 'NONE',  #270 ) ;
#234 = CARTESIAN_POINT ( 'NONE',  ( 0.0000000000000000000, 0.0000000000000000000, 14.49999999999999800 ) ) ;
#235 = CARTESIAN_POINT ( 'NONE',  ( 8.878689293818310100E-016, 0.0000000000000000000, 7.249999999999999100 ) ) ;
#236 = LINE ( 'NONE', #205, #218 ) ;
#237 = CARTESIAN_POINT ( 'NONE',  ( 7.249999999999986700, 3.698695917434914500, 0.0000000000000000000 ) ) ;
#238 = VECTOR ( 'NONE', #266, 1000.000000000000000 ) ;
#239 = DIRECTION ( 'NONE',  ( 0.0000000000000000000, 0.0000000000000000000, -1.000000000000000000 ) ) ;
#240 = DIRECTION ( 'NONE',  ( -0.0000000000000000000, -1.000000000000000000, -0.0000000000000000000 ) ) ;
#241 = AXIS2_PLACEMENT_3D ( 'NONE', #257, #240, #239 ) ;
#242 = CIRCLE ( 'NONE', #209, 15.00000000000000000 ) ;
#243 = DIRECTION ( 'NONE',  ( 0.0000000000000000000, 0.0000000000000000000, -1.000000000000000000 ) ) ;
#244 = DIRECTION ( 'NONE',  ( -0.0000000000000000000, -1.000000000000000000, -0.0000000000000000000 ) ) ;
#245 = CARTESIAN_POINT ( 'NONE',  ( 0.0000000000000000000, 0.0000000000000000000, 0.0000000000000000000 ) ) ;
#246 = AXIS2_PLACEMENT_3D ( 'NONE', #245, #244, #243 ) ;
#247 = CONICAL_SURFACE ( 'NONE', #256, 14.49999999999999800, 0.7853981633974487200 ) ;
#248 = DIRECTION ( 'NONE',  ( 0.0000000000000000000, 0.7071067811865472400, 0.7071067811865479100 ) ) ;
#249 = VECTOR ( 'NONE', #248, 999.9999999999998900 ) ;
#250 = FACE_OUTER_BOUND ( 'NONE', #93, .T. ) ;
#251 = CIRCLE ( 'NONE', #267, 14.49999999999999800 ) ;
#252 = CARTESIAN_POINT ( 'NONE',  ( -7.249999999999986700, 3.698695917434914500, 1.350786623412138400E-015 ) ) ;
#253 = CARTESIAN_POINT ( 'NONE',  ( 0.0000000000000000000, 0.0000000000000000000, 0.0000000000000000000 ) ) ;
#254 = CARTESIAN_POINT ( 'NONE',  ( 0.0000000000000000000, 0.0000000000000000000, 0.0000000000000000000 ) ) ;
#255 = DIRECTION ( 'NONE',  ( 0.0000000000000000000, 0.0000000000000000000, 1.000000000000000000 ) ) ;
#256 = AXIS2_PLACEMENT_3D ( 'NONE', #254, #230, #255 ) ;
#257 = CARTESIAN_POINT ( 'NONE',  ( 0.0000000000000000000, 3.698695917434914500, 0.0000000000000000000 ) ) ;
#258 = FACE_BOUND ( 'NONE', #111, .T. ) ;
#259 = CARTESIAN_POINT ( 'NONE',  ( 14.81001966203821700, 6.499999999999993800, 0.0000000000000000000 ) ) ;
#260 = DIRECTION ( 'NONE',  ( 0.0000000000000000000, 0.0000000000000000000, -1.000000000000000000 ) ) ;
#261 = CARTESIAN_POINT ( 'NONE',  ( 0.0000000000000000000, 6.500000000000000000, 0.0000000000000000000 ) ) ;
#262 = CARTESIAN_POINT ( 'NONE',  ( 1.836970198721029600E-015, 0.0000000000000000000, 15.00000000000000000 ) ) ;
#263 = LINE ( 'NONE', #262, #229 ) ;
#264 = CARTESIAN_POINT ( 'NONE',  ( 1.836970198721029600E-015, 0.5000000000000000000, -15.00000000000000000 ) ) ;
#265 = CARTESIAN_POINT ( 'NONE',  ( 0.0000000000000000000, 6.500000000000000000, -15.00000000000000000 ) ) ;
#266 = DIRECTION ( 'NONE',  ( -0.0000000000000000000, -1.000000000000000000, -0.0000000000000000000 ) ) ;
#267 = AXIS2_PLACEMENT_3D ( 'NONE', #253, #269, #260 ) ;
#268 = CARTESIAN_POINT ( 'NONE',  ( 0.0000000000000000000, 0.5000000000000000000, 15.00000000000000000 ) ) ;
#269 = DIRECTION ( 'NONE',  ( -0.0000000000000000000, -1.000000000000000000, -0.0000000000000000000 ) ) ;
#270 = AXIS2_PLACEMENT_3D ( 'NONE', #232, #211, #210 ) ;
#271 = CIRCLE ( 'NONE', #246, 14.49999999999999800 ) ;
#272 = DIRECTION ( 'NONE',  ( 0.0000000000000000000, 0.0000000000000000000, 1.000000000000000000 ) ) ;
#273 = SURFACE_STYLE_USAGE ( .BOTH. , #274 ) ;
#274 = SURFACE_SIDE_STYLE ('',( #276 ) ) ;
#275 =( NAMED_UNIT ( * ) PLANE_ANGLE_UNIT ( ) SI_UNIT ( $, .RADIAN. ) );
#276 = SURFACE_STYLE_FILL_AREA ( #277 ) ;
#277 = FILL_AREA_STYLE ('',( #287 ) ) ;
#278 = PRESENTATION_STYLE_ASSIGNMENT (( #273 ) ) ;
#279 = STYLED_ITEM ( 'NONE', ( #278 ), #133 ) ;
#280 = SPHERICAL_SURFACE ( 'NONE', #288, 32.00000000000000000 ) ;
#281 =( LENGTH_UNIT ( ) NAMED_UNIT ( * ) SI_UNIT ( .MILLI., .METRE. ) );
#282 = CARTESIAN_POINT ( 'NONE',  ( 0.0000000000000000000, 34.86658805020514500, 0.0000000000000000000 ) ) ;
#283 = MECHANICAL_DESIGN_GEOMETRIC_PRESENTATION_REPRESENTATION (  '', ( #279 ), #22 ) ;
#284 = PRESENTATION_LAYER_ASSIGNMENT (  '', '', ( #279 ) ) ;
#285 = DIRECTION ( 'NONE',  ( 1.000000000000000000, 0.0000000000000000000, 0.0000000000000000000 ) ) ;
#286 = COLOUR_RGB ( '',0.8235294117647058400, 0.8705882352941176600, 0.9803921568627450600 ) ;
#287 = FILL_AREA_STYLE_COLOUR ( '', #286 ) ;
#288 = AXIS2_PLACEMENT_3D ( 'NONE', #282, #272, #285 ) ;
#289 = DIRECTION ( 'NONE',  ( 0.0000000000000000000, 0.0000000000000000000, -1.000000000000000000 ) ) ;
#290 = SURFACE_STYLE_FILL_AREA ( #291 ) ;
#291 = FILL_AREA_STYLE ('',( #292 ) ) ;
#292 = FILL_AREA_STYLE_COLOUR ( '', #345 ) ;
#293 = CARTESIAN_POINT ( 'NONE',  ( 0.0000000000000000000, 0.0000000000000000000, 0.0000000000000000000 ) ) ;
#294 = DIRECTION ( 'NONE',  ( -1.000000000000000000, 0.0000000000000000000, 0.0000000000000000000 ) ) ;
#295 = AXIS2_PLACEMENT_3D ( 'NONE', #354, #289, #294 ) ;
#296 = DIRECTION ( 'NONE',  ( 0.0000000000000000000, 0.0000000000000000000, -1.000000000000000000 ) ) ;
#297 =( NAMED_UNIT ( * ) SI_UNIT ( $, .STERADIAN. ) SOLID_ANGLE_UNIT ( ) );
#298 =( NAMED_UNIT ( * ) PLANE_ANGLE_UNIT ( ) SI_UNIT ( $, .RADIAN. ) );
#299 =( LENGTH_UNIT ( ) NAMED_UNIT ( * ) SI_UNIT ( .MILLI., .METRE. ) );
#300 = MECHANICAL_DESIGN_GEOMETRIC_PRESENTATION_REPRESENTATION (  '', ( #302 ), #308 ) ;
#301 = PRESENTATION_LAYER_ASSIGNMENT (  '', '', ( #302 ) ) ;
#302 = STYLED_ITEM ( 'NONE', ( #303 ), #353 ) ;
#303 = PRESENTATION_STYLE_ASSIGNMENT (( #304 ) ) ;
#304 = SURFACE_STYLE_USAGE ( .BOTH. , #305 ) ;
#305 = SURFACE_SIDE_STYLE ('',( #290 ) ) ;
#306 =( GEOMETRIC_REPRESENTATION_CONTEXT ( 3 ) GLOBAL_UNCERTAINTY_ASSIGNED_CONTEXT ( ( #356 ) ) GLOBAL_UNIT_ASSIGNED_CONTEXT ( ( #344, #307, #357 ) ) REPRESENTATION_CONTEXT ( 'NONE', 'WORKASPACE' ) );
#307 =( NAMED_UNIT ( * ) PLANE_ANGLE_UNIT ( ) SI_UNIT ( $, .RADIAN. ) );
#308 =( GEOMETRIC_REPRESENTATION_CONTEXT ( 3 ) GLOBAL_UNCERTAINTY_ASSIGNED_CONTEXT ( ( #309 ) ) GLOBAL_UNIT_ASSIGNED_CONTEXT ( ( #299, #298, #297 ) ) REPRESENTATION_CONTEXT ( 'NONE', 'WORKASPACE' ) );
#309 = UNCERTAINTY_MEASURE_WITH_UNIT (LENGTH_MEASURE( 1.000000000000000100E-005 ), #299, 'distance_accuracy_value', 'NONE');
#310 = PRODUCT_DEFINITION_SHAPE ( 'NONE', 'NONE',  #314 ) ;
#311 = PRODUCT_RELATED_PRODUCT_CATEGORY ( 'part', '', ( #346 ) ) ;
#312 = PRODUCT_DEFINITION_FORMATION_WITH_SPECIFIED_SOURCE ( 'ANY', '', #346, .NOT_KNOWN. ) ;
#313 =( REPRESENTATION_RELATIONSHIP ('NONE','NONE', #332, #336 ) REPRESENTATION_RELATIONSHIP_WITH_TRANSFORMATION ( #371 )SHAPE_REPRESENTATION_RELATIONSHIP( ) );
#314 = PRODUCT_DEFINITION ( 'UNKNOWN', '', #312, #315 ) ;
#315 = PRODUCT_DEFINITION_CONTEXT ( 'detailed design', #317, 'design' ) ;
#316 = APPLICATION_PROTOCOL_DEFINITION ( 'draft international standard', 'automotive_design', 1998, #317 ) ;
#317 = APPLICATION_CONTEXT ( 'automotive_design' ) ;
#318 = CYLINDRICAL_SURFACE ( 'NONE', #370, 15.00000000000000000 ) ;
#319 = PRODUCT_DEFINITION_SHAPE ( 'NONE', 'NONE',  #323 ) ;
#320 = FACE_OUTER_BOUND ( 'NONE', #79, .T. ) ;
#321 = PRODUCT_RELATED_PRODUCT_CATEGORY ( 'part', '', ( #328 ) ) ;
#322 = PRODUCT_DEFINITION_FORMATION_WITH_SPECIFIED_SOURCE ( 'ANY', '', #328, .NOT_KNOWN. ) ;
#323 = PRODUCT_DEFINITION ( 'UNKNOWN', '', #322, #324 ) ;
#324 = PRODUCT_DEFINITION_CONTEXT ( 'detailed design', #326, 'design' ) ;
#325 = APPLICATION_PROTOCOL_DEFINITION ( 'draft international standard', 'automotive_design', 1998, #326 ) ;
#326 = APPLICATION_CONTEXT ( 'automotive_design' ) ;
#327 = SHAPE_DEFINITION_REPRESENTATION ( #310, #336 ) ;
#328 = PRODUCT ( '803-212F', '803-212F', '', ( #329 ) ) ;
#329 = PRODUCT_CONTEXT ( 'NONE', #337, 'mechanical' ) ;
#330 = APPLICATION_PROTOCOL_DEFINITION ( 'draft international standard', 'automotive_design', 1998, #337 ) ;
#331 = CARTESIAN_POINT ( 'NONE',  ( 0.0000000000000000000, 0.0000000000000000000, 0.0000000000000000000 ) ) ;
#332 = SHAPE_REPRESENTATION ( '803-212F', ( #335, #363 ), #341 ) ;
#333 = SHAPE_REPRESENTATION_RELATIONSHIP ( 'NONE' , 'NONE' ,  #336, #353 ) ;
#334 = DIRECTION ( 'NONE',  ( 1.000000000000000000, 0.0000000000000000000, 0.0000000000000000000 ) ) ;
#335 = AXIS2_PLACEMENT_3D ( 'NONE', #293, #368, #334 ) ;
#336 = SHAPE_REPRESENTATION ( '803-212F_803F_803-212F', ( #352 ), #306 ) ;
#337 = APPLICATION_CONTEXT ( 'automotive_design' ) ;
#338 = CONTEXT_DEPENDENT_SHAPE_REPRESENTATION ( #313, #373 ) ;
#339 = NEXT_ASSEMBLY_USAGE_OCCURRENCE ( 'NAUO1', ' ', ' ', #323, #314, $ ) ;
#340 = SHAPE_DEFINITION_REPRESENTATION ( #319, #332 ) ;
#341 =( GEOMETRIC_REPRESENTATION_CONTEXT ( 3 ) GLOBAL_UNCERTAINTY_ASSIGNED_CONTEXT ( ( #342 ) ) GLOBAL_UNIT_ASSIGNED_CONTEXT ( ( #359, #358, #343 ) ) REPRESENTATION_CONTEXT ( 'NONE', 'WORKASPACE' ) );
#342 = UNCERTAINTY_MEASURE_WITH_UNIT (LENGTH_MEASURE( 1.000000000000000100E-005 ), #359, 'distance_accuracy_value', 'NONE');
#343 =( NAMED_UNIT ( * ) SI_UNIT ( $, .STERADIAN. ) SOLID_ANGLE_UNIT ( ) );
#344 =( LENGTH_UNIT ( ) NAMED_UNIT ( * ) SI_UNIT ( .MILLI., .METRE. ) );
#345 = COLOUR_RGB ( '',0.8235294117647058400, 0.8705882352941176600, 0.9803921568627450600 ) ;
#346 = PRODUCT ( '803-212F_803F_803-212F', '803-212F_803F_803-212F', '', ( #347 ) ) ;
#347 = PRODUCT_CONTEXT ( 'NONE', #372, 'mechanical' ) ;
#348 = APPLICATION_PROTOCOL_DEFINITION ( 'draft international standard', 'automotive_design', 1998, #372 ) ;
#349 = DIRECTION ( 'NONE',  ( 1.000000000000000000, 0.0000000000000000000, 0.0000000000000000000 ) ) ;
#350 = DIRECTION ( 'NONE',  ( 0.0000000000000000000, 0.0000000000000000000, 1.000000000000000000 ) ) ;
#351 = CARTESIAN_POINT ( 'NONE',  ( 0.0000000000000000000, 0.0000000000000000000, 0.0000000000000000000 ) ) ;
#352 = AXIS2_PLACEMENT_3D ( 'NONE', #351, #350, #349 ) ;
#353 = ADVANCED_BREP_SHAPE_REPRESENTATION ( '', ( #133, #352 ), #306 ) ;
#354 = CARTESIAN_POINT ( 'NONE',  ( 0.0000000000000000000, 34.86658805020514500, 0.0000000000000000000 ) ) ;
#355 = DIRECTION ( 'NONE',  ( -0.0000000000000000000, -1.000000000000000000, -0.0000000000000000000 ) ) ;
#356 = UNCERTAINTY_MEASURE_WITH_UNIT (LENGTH_MEASURE( 1.000000000000000100E-005 ), #344, 'distance_accuracy_value', 'NONE');
#357 =( NAMED_UNIT ( * ) SI_UNIT ( $, .STERADIAN. ) SOLID_ANGLE_UNIT ( ) );
#358 =( NAMED_UNIT ( * ) PLANE_ANGLE_UNIT ( ) SI_UNIT ( $, .RADIAN. ) );
#359 =( LENGTH_UNIT ( ) NAMED_UNIT ( * ) SI_UNIT ( .MILLI., .METRE. ) );
#360 = DIRECTION ( 'NONE',  ( 1.000000000000000000, 0.0000000000000000000, 0.0000000000000000000 ) ) ;
#361 = DIRECTION ( 'NONE',  ( 0.0000000000000000000, 0.0000000000000000000, 1.000000000000000000 ) ) ;
#362 = CARTESIAN_POINT ( 'NONE',  ( 0.0000000000000000000, 0.0000000000000000000, 0.0000000000000000000 ) ) ;
#363 = AXIS2_PLACEMENT_3D ( 'NONE', #362, #361, #360 ) ;
#364 = DIRECTION ( 'NONE',  ( 1.000000000000000000, 0.0000000000000000000, 0.0000000000000000000 ) ) ;
#365 = DIRECTION ( 'NONE',  ( 0.0000000000000000000, 0.0000000000000000000, 1.000000000000000000 ) ) ;
#366 = CARTESIAN_POINT ( 'NONE',  ( 0.0000000000000000000, 0.0000000000000000000, 0.0000000000000000000 ) ) ;
#367 = AXIS2_PLACEMENT_3D ( 'NONE', #366, #365, #364 ) ;
#368 = DIRECTION ( 'NONE',  ( 0.0000000000000000000, 0.0000000000000000000, 1.000000000000000000 ) ) ;
#369 = CIRCLE ( 'NONE', #295, 32.00000000000000000 ) ;
#370 = AXIS2_PLACEMENT_3D ( 'NONE', #331, #355, #296 ) ;
#371 = ITEM_DEFINED_TRANSFORMATION ( 'NONE', 'NONE', #363,  #352 ) ;
#372 = APPLICATION_CONTEXT ( 'automotive_design' ) ;
#373 = PRODUCT_DEFINITION_SHAPE ( 'NONE', 'NONE',  #339 ) ;
ENDSEC;
END-ISO-10303-21;
