ISO-10303-21;
HEADER;
FILE_DESCRIPTION (( 'STEP AP214' ),
    '1' );
FILE_NAME ('803-210M.step',
    '2010-01-12T10:42:30',
    ( 'SysAdmin' ),
    ( 'SolidWorks' ),
    'SwSTEP 2.0',
    'SolidWorks 2010',
    '' );
FILE_SCHEMA (( 'AUTOMOTIVE_DESIGN' ));
ENDSEC;

DATA;
#1 = ORIENTED_EDGE ( 'NONE', *, *, #7, .F. ) ;
#2 = ORIENTED_EDGE ( 'NONE', *, *, #56, .F. ) ;
#3 = ADVANCED_FACE ( 'NONE', ( #81 ), #120, .F. ) ;
#4 = ORIENTED_EDGE ( 'NONE', *, *, #22, .F. ) ;
#5 = DIRECTION ( 'NONE',  ( 0.0000000000000000000, 0.0000000000000000000, -1.000000000000000000 ) ) ;
#6 = EDGE_LOOP ( 'NONE', ( #4, #14 ) ) ;
#7 = EDGE_CURVE ( 'NONE', #86, #66, #80, .T. ) ;
#8 = ADVANCED_FACE ( 'NONE', ( #143, #172 ), #232, .T. ) ;
#9 = ORIENTED_EDGE ( 'NONE', *, *, #7, .T. ) ;
#10 = ORIENTED_EDGE ( 'NONE', *, *, #24, .T. ) ;
#11 = ORIENTED_EDGE ( 'NONE', *, *, #28, .T. ) ;
#12 = ORIENTED_EDGE ( 'NONE', *, *, #54, .F. ) ;
#13 = ORIENTED_EDGE ( 'NONE', *, *, #61, .T. ) ;
#14 = ORIENTED_EDGE ( 'NONE', *, *, #63, .F. ) ;
#15 = VERTEX_POINT ( 'NONE', #228 ) ;
#16 = CLOSED_SHELL ( 'NONE', ( #67, #91, #104, #50, #52, #39, #26, #3, #8 ) ) ;
#17 = EDGE_CURVE ( 'NONE', #47, #94, #173, .T. ) ;
#18 = EDGE_LOOP ( 'NONE', ( #9, #10 ) ) ;
#19 = EDGE_CURVE ( 'NONE', #47, #89, #233, .T. ) ;
#20 = ORIENTED_EDGE ( 'NONE', *, *, #23, .T. ) ;
#21 = ORIENTED_EDGE ( 'NONE', *, *, #54, .T. ) ;
#22 = EDGE_CURVE ( 'NONE', #100, #103, #210, .T. ) ;
#23 = EDGE_CURVE ( 'NONE', #66, #72, #211, .T. ) ;
#24 = EDGE_CURVE ( 'NONE', #66, #86, #222, .T. ) ;
#25 = EDGE_LOOP ( 'NONE', ( #44, #1, #13, #11, #21 ) ) ;
#26 = ADVANCED_FACE ( 'NONE', ( #201 ), #221, .T. ) ;
#27 = ORIENTED_EDGE ( 'NONE', *, *, #102, .T. ) ;
#28 = EDGE_CURVE ( 'NONE', #55, #94, #200, .T. ) ;
#29 = ORIENTED_EDGE ( 'NONE', *, *, #17, .T. ) ;
#30 = ORIENTED_EDGE ( 'NONE', *, *, #28, .F. ) ;
#31 = ORIENTED_EDGE ( 'NONE', *, *, #34, .F. ) ;
#32 = EDGE_LOOP ( 'NONE', ( #35, #37, #27, #29, #30, #2 ) ) ;
#33 = EDGE_CURVE ( 'NONE', #15, #62, #157, .T. ) ;
#34 = EDGE_CURVE ( 'NONE', #90, #58, #202, .T. ) ;
#35 = ORIENTED_EDGE ( 'NONE', *, *, #57, .F. ) ;
#36 = ORIENTED_EDGE ( 'NONE', *, *, #109, .F. ) ;
#37 = ORIENTED_EDGE ( 'NONE', *, *, #34, .T. ) ;
#38 = ORIENTED_EDGE ( 'NONE', *, *, #77, .T. ) ;
#39 = ADVANCED_FACE ( 'NONE', ( #199 ), #162, .T. ) ;
#40 = ORIENTED_EDGE ( 'NONE', *, *, #65, .F. ) ;
#41 = UNCERTAINTY_MEASURE_WITH_UNIT (LENGTH_MEASURE( 1.000000000000000100E-005 ), #234, 'distance_accuracy_value', 'NONE');
#42 =( NAMED_UNIT ( * ) SI_UNIT ( $, .STERADIAN. ) SOLID_ANGLE_UNIT ( ) );
#43 = EDGE_LOOP ( 'NONE', ( #36, #45, #38, #31, #40 ) ) ;
#44 = ORIENTED_EDGE ( 'NONE', *, *, #23, .F. ) ;
#45 = ORIENTED_EDGE ( 'NONE', *, *, #33, .T. ) ;
#46 = ORIENTED_EDGE ( 'NONE', *, *, #33, .F. ) ;
#47 = VERTEX_POINT ( 'NONE', #149 ) ;
#48 =( NAMED_UNIT ( * ) PLANE_ANGLE_UNIT ( ) SI_UNIT ( $, .RADIAN. ) );
#49 = EDGE_LOOP ( 'NONE', ( #70, #20, #68, #60, #87 ) ) ;
#50 = ADVANCED_FACE ( 'NONE', ( #197 ), #171, .T. ) ;
#51 = ORIENTED_EDGE ( 'NONE', *, *, #99, .F. ) ;
#52 = ADVANCED_FACE ( 'NONE', ( #144 ), #196, .T. ) ;
#53 = EDGE_LOOP ( 'NONE', ( #97, #96, #78, #51 ) ) ;
#54 = EDGE_CURVE ( 'NONE', #94, #72, #190, .T. ) ;
#55 = VERTEX_POINT ( 'NONE', #168 ) ;
#56 = EDGE_CURVE ( 'NONE', #69, #55, #191, .T. ) ;
#57 = EDGE_CURVE ( 'NONE', #90, #69, #146, .T. ) ;
#58 = VERTEX_POINT ( 'NONE', #175 ) ;
#59 = ORIENTED_EDGE ( 'NONE', *, *, #99, .T. ) ;
#60 = ORIENTED_EDGE ( 'NONE', *, *, #56, .T. ) ;
#61 = EDGE_CURVE ( 'NONE', #86, #55, #310, .T. ) ;
#62 = VERTEX_POINT ( 'NONE', #180 ) ;
#63 = EDGE_CURVE ( 'NONE', #103, #100, #176, .T. ) ;
#64 = EDGE_LOOP ( 'NONE', ( #74, #88, #59, #46 ) ) ;
#65 = EDGE_CURVE ( 'NONE', #89, #90, #181, .T. ) ;
#66 = VERTEX_POINT ( 'NONE', #296 ) ;
#67 = ADVANCED_FACE ( 'NONE', ( #295 ), #177, .F. ) ;
#68 = ORIENTED_EDGE ( 'NONE', *, *, #73, .T. ) ;
#69 = VERTEX_POINT ( 'NONE', #303 ) ;
#70 = ORIENTED_EDGE ( 'NONE', *, *, #24, .F. ) ;
#71 = EDGE_LOOP ( 'NONE', ( #84, #95, #92, #12, #85, #101 ) ) ;
#72 = VERTEX_POINT ( 'NONE', #292 ) ;
#73 = EDGE_CURVE ( 'NONE', #72, #69, #289, .T. ) ;
#74 = ORIENTED_EDGE ( 'NONE', *, *, #98, .F. ) ;
#75 = MANIFOLD_SOLID_BREP ( 'Revolve1', #16 ) ;
#76 = ORIENTED_EDGE ( 'NONE', *, *, #102, .F. ) ;
#77 = EDGE_CURVE ( 'NONE', #62, #58, #129, .T. ) ;
#78 = ORIENTED_EDGE ( 'NONE', *, *, #110, .F. ) ;
#79 =( GEOMETRIC_REPRESENTATION_CONTEXT ( 3 ) GLOBAL_UNCERTAINTY_ASSIGNED_CONTEXT ( ( #41 ) ) GLOBAL_UNIT_ASSIGNED_CONTEXT ( ( #234, #48, #42 ) ) REPRESENTATION_CONTEXT ( 'NONE', 'WORKASPACE' ) );
#80 = CIRCLE ( 'NONE', #112, 6.000000000000000000 ) ;
#81 = FACE_OUTER_BOUND ( 'NONE', #25, .T. ) ;
#82 = DIRECTION ( 'NONE',  ( 1.000000000000000000, 0.0000000000000000000, 0.0000000000000000000 ) ) ;
#83 = DIRECTION ( 'NONE',  ( 0.0000000000000000000, 0.0000000000000000000, 1.000000000000000000 ) ) ;
#84 = ORIENTED_EDGE ( 'NONE', *, *, #65, .T. ) ;
#85 = ORIENTED_EDGE ( 'NONE', *, *, #17, .F. ) ;
#86 = VERTEX_POINT ( 'NONE', #288 ) ;
#87 = ORIENTED_EDGE ( 'NONE', *, *, #61, .F. ) ;
#88 = ORIENTED_EDGE ( 'NONE', *, *, #63, .T. ) ;
#89 = VERTEX_POINT ( 'NONE', #283 ) ;
#90 = VERTEX_POINT ( 'NONE', #127 ) ;
#91 = ADVANCED_FACE ( 'NONE', ( #122 ), #284, .T. ) ;
#92 = ORIENTED_EDGE ( 'NONE', *, *, #73, .F. ) ;
#93 = EDGE_LOOP ( 'NONE', ( #108, #105, #106, #76, #107 ) ) ;
#94 = VERTEX_POINT ( 'NONE', #142 ) ;
#95 = ORIENTED_EDGE ( 'NONE', *, *, #57, .T. ) ;
#96 = ORIENTED_EDGE ( 'NONE', *, *, #98, .T. ) ;
#97 = ORIENTED_EDGE ( 'NONE', *, *, #22, .T. ) ;
#98 = EDGE_CURVE ( 'NONE', #103, #15, #276, .T. ) ;
#99 = EDGE_CURVE ( 'NONE', #100, #62, #272, .T. ) ;
#100 = VERTEX_POINT ( 'NONE', #121 ) ;
#101 = ORIENTED_EDGE ( 'NONE', *, *, #19, .T. ) ;
#102 = EDGE_CURVE ( 'NONE', #58, #47, #279, .T. ) ;
#103 = VERTEX_POINT ( 'NONE', #267 ) ;
#104 = ADVANCED_FACE ( 'NONE', ( #260 ), #277, .T. ) ;
#105 = ORIENTED_EDGE ( 'NONE', *, *, #109, .T. ) ;
#106 = ORIENTED_EDGE ( 'NONE', *, *, #19, .F. ) ;
#107 = ORIENTED_EDGE ( 'NONE', *, *, #77, .F. ) ;
#108 = ORIENTED_EDGE ( 'NONE', *, *, #110, .T. ) ;
#109 = EDGE_CURVE ( 'NONE', #15, #89, #257, .T. ) ;
#110 = EDGE_CURVE ( 'NONE', #62, #15, #268, .T. ) ;
#111 = DIRECTION ( 'NONE',  ( -0.0000000000000000000, -1.000000000000000000, -0.0000000000000000000 ) ) ;
#112 = AXIS2_PLACEMENT_3D ( 'NONE', #119, #111, #5 ) ;
#113 = AXIS2_PLACEMENT_3D ( 'NONE', #114, #83, #82 ) ;
#114 = CARTESIAN_POINT ( 'NONE',  ( 0.0000000000000000000, 0.0000000000000000000, 0.0000000000000000000 ) ) ;
#115 = DIRECTION ( 'NONE',  ( 0.0000000000000000000, 0.0000000000000000000, -1.000000000000000000 ) ) ;
#116 = DIRECTION ( 'NONE',  ( -0.0000000000000000000, -1.000000000000000000, -0.0000000000000000000 ) ) ;
#117 = CARTESIAN_POINT ( 'NONE',  ( 0.0000000000000000000, 0.0000000000000000000, 0.0000000000000000000 ) ) ;
#118 = AXIS2_PLACEMENT_3D ( 'NONE', #117, #116, #115 ) ;
#119 = CARTESIAN_POINT ( 'NONE',  ( 0.0000000000000000000, 4.499999999999999100, 0.0000000000000000000 ) ) ;
#120 = CYLINDRICAL_SURFACE ( 'NONE', #118, 6.000000000000000000 ) ;
#121 = CARTESIAN_POINT ( 'NONE',  ( 0.0000000000000000000, 4.499999999999999100, -10.49999999999999800 ) ) ;
#122 = FACE_OUTER_BOUND ( 'NONE', #71, .T. ) ;
#123 = CARTESIAN_POINT ( 'NONE',  ( 0.0000000000000000000, 24.26932219902319700, 0.0000000000000000000 ) ) ;
#124 = AXIS2_PLACEMENT_3D ( 'NONE', #123, #141, #278 ) ;
#125 = DIRECTION ( 'NONE',  ( -0.0000000000000000000, -1.000000000000000000, -0.0000000000000000000 ) ) ;
#126 = VECTOR ( 'NONE', #125, 1000.000000000000000 ) ;
#127 = CARTESIAN_POINT ( 'NONE',  ( -10.99999999999999500, 1.819377878379544900, 1.347111479062087800E-015 ) ) ;
#128 = CARTESIAN_POINT ( 'NONE',  ( 0.0000000000000000000, 0.0000000000000000000, -10.99999999999999600 ) ) ;
#129 = LINE ( 'NONE', #128, #126 ) ;
#130 =( GEOMETRIC_REPRESENTATION_CONTEXT ( 3 ) GLOBAL_UNCERTAINTY_ASSIGNED_CONTEXT ( ( #131 ) ) GLOBAL_UNIT_ASSIGNED_CONTEXT ( ( #134, #133, #132 ) ) REPRESENTATION_CONTEXT ( 'NONE', 'WORKASPACE' ) );
#131 = UNCERTAINTY_MEASURE_WITH_UNIT (LENGTH_MEASURE( 1.000000000000000100E-005 ), #134, 'distance_accuracy_value', 'NONE');
#132 =( NAMED_UNIT ( * ) SI_UNIT ( $, .STERADIAN. ) SOLID_ANGLE_UNIT ( ) );
#133 =( NAMED_UNIT ( * ) PLANE_ANGLE_UNIT ( ) SI_UNIT ( $, .RADIAN. ) );
#134 =( LENGTH_UNIT ( ) NAMED_UNIT ( * ) SI_UNIT ( .MILLI., .METRE. ) );
#135 = MECHANICAL_DESIGN_GEOMETRIC_PRESENTATION_REPRESENTATION (  '', ( #137 ), #130 ) ;
#136 = PRESENTATION_LAYER_ASSIGNMENT (  '', '', ( #137 ) ) ;
#137 = STYLED_ITEM ( 'NONE', ( #138 ), #75 ) ;
#138 = PRESENTATION_STYLE_ASSIGNMENT (( #139 ) ) ;
#139 = SURFACE_STYLE_USAGE ( .BOTH. , #140 ) ;
#140 = SURFACE_SIDE_STYLE ('',( #290 ) ) ;
#141 = DIRECTION ( 'NONE',  ( 0.0000000000000000000, 0.0000000000000000000, 1.000000000000000000 ) ) ;
#142 = CARTESIAN_POINT ( 'NONE',  ( 6.000000000000000000, 0.0000000000000000000, 0.0000000000000000000 ) ) ;
#143 = FACE_BOUND ( 'NONE', #18, .T. ) ;
#144 = FACE_OUTER_BOUND ( 'NONE', #64, .T. ) ;
#145 = AXIS2_PLACEMENT_3D ( 'NONE', #167, #184, #183 ) ;
#146 = CIRCLE ( 'NONE', #182, 25.00000000000000000 ) ;
#147 = DIRECTION ( 'NONE',  ( 0.0000000000000000000, 0.0000000000000000000, -1.000000000000000000 ) ) ;
#148 = DIRECTION ( 'NONE',  ( -0.0000000000000000000, -1.000000000000000000, -0.0000000000000000000 ) ) ;
#149 = CARTESIAN_POINT ( 'NONE',  ( 10.99999999999999500, 1.819377878379544900, 0.0000000000000000000 ) ) ;
#150 = AXIS2_PLACEMENT_3D ( 'NONE', #166, #158, #151 ) ;
#151 = DIRECTION ( 'NONE',  ( 0.0000000000000000000, 0.0000000000000000000, -1.000000000000000000 ) ) ;
#152 = AXIS2_PLACEMENT_3D ( 'NONE', #165, #148, #147 ) ;
#153 = DIRECTION ( 'NONE',  ( 0.0000000000000000000, 0.0000000000000000000, -1.000000000000000000 ) ) ;
#154 = DIRECTION ( 'NONE',  ( -0.0000000000000000000, -1.000000000000000000, -0.0000000000000000000 ) ) ;
#155 = CARTESIAN_POINT ( 'NONE',  ( 0.0000000000000000000, 4.000000000000000000, 0.0000000000000000000 ) ) ;
#156 = AXIS2_PLACEMENT_3D ( 'NONE', #155, #154, #153 ) ;
#157 = CIRCLE ( 'NONE', #156, 11.00000000000000000 ) ;
#158 = DIRECTION ( 'NONE',  ( -0.0000000000000000000, -1.000000000000000000, -0.0000000000000000000 ) ) ;
#159 = DIRECTION ( 'NONE',  ( 0.0000000000000000000, 0.0000000000000000000, -1.000000000000000000 ) ) ;
#160 = DIRECTION ( 'NONE',  ( -0.0000000000000000000, -1.000000000000000000, -0.0000000000000000000 ) ) ;
#161 = CARTESIAN_POINT ( 'NONE',  ( 0.0000000000000000000, 0.0000000000000000000, 0.0000000000000000000 ) ) ;
#162 = CYLINDRICAL_SURFACE ( 'NONE', #150, 10.99999999999999600 ) ;
#163 = AXIS2_PLACEMENT_3D ( 'NONE', #161, #160, #159 ) ;
#164 = DIRECTION ( 'NONE',  ( 1.000000000000000000, 0.0000000000000000000, 0.0000000000000000000 ) ) ;
#165 = CARTESIAN_POINT ( 'NONE',  ( 0.0000000000000000000, 1.819377878379543100, 0.0000000000000000000 ) ) ;
#166 = CARTESIAN_POINT ( 'NONE',  ( 0.0000000000000000000, 0.0000000000000000000, 0.0000000000000000000 ) ) ;
#167 = CARTESIAN_POINT ( 'NONE',  ( 0.0000000000000000000, 0.0000000000000000000, 0.0000000000000000000 ) ) ;
#168 = CARTESIAN_POINT ( 'NONE',  ( 0.0000000000000000000, 0.0000000000000000000, -6.000000000000000000 ) ) ;
#169 = DIRECTION ( 'NONE',  ( 0.0000000000000000000, 0.0000000000000000000, -1.000000000000000000 ) ) ;
#170 = DIRECTION ( 'NONE',  ( -0.0000000000000000000, -1.000000000000000000, -0.0000000000000000000 ) ) ;
#171 = CONICAL_SURFACE ( 'NONE', #195, 11.00000000000000000, 0.7853981633974501700 ) ;
#172 = FACE_OUTER_BOUND ( 'NONE', #6, .T. ) ;
#173 = CIRCLE ( 'NONE', #219, 25.00000000000000000 ) ;
#174 = AXIS2_PLACEMENT_3D ( 'NONE', #301, #300, #299 ) ;
#175 = CARTESIAN_POINT ( 'NONE',  ( 0.0000000000000000000, 1.819377878379543100, -10.99999999999999300 ) ) ;
#176 = CIRCLE ( 'NONE', #174, 10.49999999999999800 ) ;
#177 = CYLINDRICAL_SURFACE ( 'NONE', #297, 6.000000000000000000 ) ;
#178 = DIRECTION ( 'NONE',  ( 0.0000000000000000000, 0.0000000000000000000, -1.000000000000000000 ) ) ;
#179 = DIRECTION ( 'NONE',  ( -0.0000000000000000000, -1.000000000000000000, -0.0000000000000000000 ) ) ;
#180 = CARTESIAN_POINT ( 'NONE',  ( 0.0000000000000000000, 4.000000000000000000, -11.00000000000000000 ) ) ;
#181 = CIRCLE ( 'NONE', #298, 10.99999999999999300 ) ;
#182 = AXIS2_PLACEMENT_3D ( 'NONE', #313, #312, #311 ) ;
#183 = DIRECTION ( 'NONE',  ( 0.0000000000000000000, 0.0000000000000000000, -1.000000000000000000 ) ) ;
#184 = DIRECTION ( 'NONE',  ( -0.0000000000000000000, -1.000000000000000000, -0.0000000000000000000 ) ) ;
#185 = AXIS2_PLACEMENT_3D ( 'NONE', #186, #179, #178 ) ;
#186 = CARTESIAN_POINT ( 'NONE',  ( 0.0000000000000000000, 0.0000000000000000000, 0.0000000000000000000 ) ) ;
#187 = DIRECTION ( 'NONE',  ( 0.0000000000000000000, 0.0000000000000000000, -1.000000000000000000 ) ) ;
#188 = DIRECTION ( 'NONE',  ( -0.0000000000000000000, -1.000000000000000000, -0.0000000000000000000 ) ) ;
#189 = CARTESIAN_POINT ( 'NONE',  ( 0.0000000000000000000, 4.000000000000000000, 0.0000000000000000000 ) ) ;
#190 = CIRCLE ( 'NONE', #145, 6.000000000000000000 ) ;
#191 = CIRCLE ( 'NONE', #185, 6.000000000000000000 ) ;
#192 = DIRECTION ( 'NONE',  ( 0.0000000000000000000, 0.0000000000000000000, -1.000000000000000000 ) ) ;
#193 = DIRECTION ( 'NONE',  ( -0.0000000000000000000, -1.000000000000000000, -0.0000000000000000000 ) ) ;
#194 = CARTESIAN_POINT ( 'NONE',  ( 0.0000000000000000000, 4.000000000000000000, 0.0000000000000000000 ) ) ;
#195 = AXIS2_PLACEMENT_3D ( 'NONE', #194, #193, #192 ) ;
#196 = CONICAL_SURFACE ( 'NONE', #198, 11.00000000000000000, 0.7853981633974501700 ) ;
#197 = FACE_OUTER_BOUND ( 'NONE', #53, .T. ) ;
#198 = AXIS2_PLACEMENT_3D ( 'NONE', #189, #188, #187 ) ;
#199 = FACE_OUTER_BOUND ( 'NONE', #43, .T. ) ;
#200 = CIRCLE ( 'NONE', #163, 6.000000000000000000 ) ;
#201 = FACE_OUTER_BOUND ( 'NONE', #32, .T. ) ;
#202 = CIRCLE ( 'NONE', #152, 10.99999999999999300 ) ;
#203 = DIRECTION ( 'NONE',  ( -0.0000000000000000000, -1.000000000000000000, -0.0000000000000000000 ) ) ;
#204 = VECTOR ( 'NONE', #203, 1000.000000000000000 ) ;
#205 = CARTESIAN_POINT ( 'NONE',  ( 0.0000000000000000000, 24.26932219902319700, 0.0000000000000000000 ) ) ;
#206 = DIRECTION ( 'NONE',  ( 0.0000000000000000000, 0.0000000000000000000, -1.000000000000000000 ) ) ;
#207 = DIRECTION ( 'NONE',  ( -0.0000000000000000000, -1.000000000000000000, -0.0000000000000000000 ) ) ;
#208 = CARTESIAN_POINT ( 'NONE',  ( 0.0000000000000000000, 4.499999999999999100, 0.0000000000000000000 ) ) ;
#209 = AXIS2_PLACEMENT_3D ( 'NONE', #208, #207, #206 ) ;
#210 = CIRCLE ( 'NONE', #209, 10.49999999999999800 ) ;
#211 = LINE ( 'NONE', #223, #204 ) ;
#212 = CARTESIAN_POINT ( 'NONE',  ( 0.0000000000000000000, 4.499999999999999100, 0.0000000000000000000 ) ) ;
#213 = DIRECTION ( 'NONE',  ( 0.0000000000000000000, 0.0000000000000000000, -1.000000000000000000 ) ) ;
#214 = DIRECTION ( 'NONE',  ( 0.0000000000000000000, 0.0000000000000000000, 1.000000000000000000 ) ) ;
#215 = AXIS2_PLACEMENT_3D ( 'NONE', #212, #170, #169 ) ;
#216 = DIRECTION ( 'NONE',  ( -0.0000000000000000000, -1.000000000000000000, -0.0000000000000000000 ) ) ;
#217 = DIRECTION ( 'NONE',  ( -1.000000000000000000, 0.0000000000000000000, 0.0000000000000000000 ) ) ;
#218 = DIRECTION ( 'NONE',  ( 0.0000000000000000000, 0.0000000000000000000, -1.000000000000000000 ) ) ;
#219 = AXIS2_PLACEMENT_3D ( 'NONE', #230, #218, #217 ) ;
#220 = CARTESIAN_POINT ( 'NONE',  ( 0.0000000000000000000, 1.819377878379543100, 0.0000000000000000000 ) ) ;
#221 = SPHERICAL_SURFACE ( 'NONE', #231, 25.00000000000000000 ) ;
#222 = CIRCLE ( 'NONE', #215, 6.000000000000000000 ) ;
#223 = CARTESIAN_POINT ( 'NONE',  ( 7.347880794884119700E-016, 0.0000000000000000000, 6.000000000000000000 ) ) ;
#224 = DIRECTION ( 'NONE',  ( 0.0000000000000000000, -0.0000000000000000000, 1.000000000000000000 ) ) ;
#225 = DIRECTION ( 'NONE',  ( 0.0000000000000000000, 1.000000000000000000, 0.0000000000000000000 ) ) ;
#226 = CARTESIAN_POINT ( 'NONE',  ( 6.000000000000000000, 4.499999999999999100, 0.0000000000000000000 ) ) ;
#227 = AXIS2_PLACEMENT_3D ( 'NONE', #226, #225, #224 ) ;
#228 = CARTESIAN_POINT ( 'NONE',  ( 1.347111479062088400E-015, 4.000000000000000000, 11.00000000000000000 ) ) ;
#229 = AXIS2_PLACEMENT_3D ( 'NONE', #220, #216, #213 ) ;
#230 = CARTESIAN_POINT ( 'NONE',  ( 0.0000000000000000000, 24.26932219902319700, 0.0000000000000000000 ) ) ;
#231 = AXIS2_PLACEMENT_3D ( 'NONE', #205, #214, #164 ) ;
#232 = PLANE ( 'NONE',  #227 ) ;
#233 = CIRCLE ( 'NONE', #229, 10.99999999999999300 ) ;
#234 =( LENGTH_UNIT ( ) NAMED_UNIT ( * ) SI_UNIT ( .MILLI., .METRE. ) );
#235 = DIRECTION ( 'NONE',  ( -0.2025686992108054500, -6.591949208711867000E-017, -0.9792680542630003400 ) ) ;
#236 = DIRECTION ( 'NONE',  ( 0.9792680542630001200, -1.387778780781445700E-017, -0.2025686992108055300 ) ) ;
#237 = CARTESIAN_POINT ( 'NONE',  ( 5.400648600078461600E-016, 3.152961988249636200, 5.400648600078461800E-015 ) ) ;
#238 = AXIS2_PLACEMENT_3D ( 'NONE', #237, #236, #235 ) ;
#239 = DIRECTION ( 'NONE',  ( 1.000000000000000000, 0.0000000000000000000, 0.0000000000000000000 ) ) ;
#240 = DIRECTION ( 'NONE',  ( 0.0000000000000000000, 0.0000000000000000000, 1.000000000000000000 ) ) ;
#241 = CARTESIAN_POINT ( 'NONE',  ( 0.0000000000000000000, 0.0000000000000000000, 0.0000000000000000000 ) ) ;
#242 = AXIS2_PLACEMENT_3D ( 'NONE', #241, #240, #239 ) ;
#243 = SHAPE_REPRESENTATION ( '803-210M', ( #113, #238 ), #79 ) ;
#244 = SHAPE_REPRESENTATION_RELATIONSHIP ( 'NONE' , 'NONE' ,  #245, #325 ) ;
#245 = SHAPE_REPRESENTATION ( '803-210M_803M_803-210M', ( #324 ), #326 ) ;
#246 =( GEOMETRIC_REPRESENTATION_CONTEXT ( 3 ) GLOBAL_UNCERTAINTY_ASSIGNED_CONTEXT ( ( #247 ) ) GLOBAL_UNIT_ASSIGNED_CONTEXT ( ( #314, #249, #248 ) ) REPRESENTATION_CONTEXT ( 'NONE', 'WORKASPACE' ) );
#247 = UNCERTAINTY_MEASURE_WITH_UNIT (LENGTH_MEASURE( 1.000000000000000100E-005 ), #314, 'distance_accuracy_value', 'NONE');
#248 =( NAMED_UNIT ( * ) SI_UNIT ( $, .STERADIAN. ) SOLID_ANGLE_UNIT ( ) );
#249 =( NAMED_UNIT ( * ) PLANE_ANGLE_UNIT ( ) SI_UNIT ( $, .RADIAN. ) );
#250 = COLOUR_RGB ( '',0.8235294117647058400, 0.8705882352941176600, 0.9803921568627450600 ) ;
#251 = DIRECTION ( 'NONE',  ( -0.0000000000000000000, -1.000000000000000000, -0.0000000000000000000 ) ) ;
#252 = VECTOR ( 'NONE', #251, 1000.000000000000000 ) ;
#253 = CARTESIAN_POINT ( 'NONE',  ( 1.347111479062088000E-015, 0.0000000000000000000, 10.99999999999999600 ) ) ;
#254 = DIRECTION ( 'NONE',  ( 0.0000000000000000000, 0.0000000000000000000, -1.000000000000000000 ) ) ;
#255 = CARTESIAN_POINT ( 'NONE',  ( 0.0000000000000000000, 4.000000000000000000, 0.0000000000000000000 ) ) ;
#256 = AXIS2_PLACEMENT_3D ( 'NONE', #266, #265, #254 ) ;
#257 = LINE ( 'NONE', #253, #252 ) ;
#258 =( LENGTH_UNIT ( ) NAMED_UNIT ( * ) SI_UNIT ( .MILLI., .METRE. ) );
#259 = AXIS2_PLACEMENT_3D ( 'NONE', #255, #334, #333 ) ;
#260 = FACE_OUTER_BOUND ( 'NONE', #93, .T. ) ;
#261 = DIRECTION ( 'NONE',  ( 0.0000000000000000000, 0.0000000000000000000, -1.000000000000000000 ) ) ;
#262 = DIRECTION ( 'NONE',  ( -0.0000000000000000000, -1.000000000000000000, -0.0000000000000000000 ) ) ;
#263 = CARTESIAN_POINT ( 'NONE',  ( 0.0000000000000000000, 1.819377878379543100, 0.0000000000000000000 ) ) ;
#264 = AXIS2_PLACEMENT_3D ( 'NONE', #263, #262, #261 ) ;
#265 = DIRECTION ( 'NONE',  ( -0.0000000000000000000, -1.000000000000000000, -0.0000000000000000000 ) ) ;
#266 = CARTESIAN_POINT ( 'NONE',  ( 0.0000000000000000000, 0.0000000000000000000, 0.0000000000000000000 ) ) ;
#267 = CARTESIAN_POINT ( 'NONE',  ( 1.316495309083404400E-015, 4.499999999999999100, 10.49999999999999800 ) ) ;
#268 = CIRCLE ( 'NONE', #259, 11.00000000000000000 ) ;
#269 = DIRECTION ( 'NONE',  ( 0.0000000000000000000, -0.7071067811865462400, -0.7071067811865489100 ) ) ;
#270 = VECTOR ( 'NONE', #269, 999.9999999999998900 ) ;
#271 = CARTESIAN_POINT ( 'NONE',  ( 0.0000000000000000000, 4.000000000000000000, -11.00000000000000000 ) ) ;
#272 = LINE ( 'NONE', #271, #270 ) ;
#273 = DIRECTION ( 'NONE',  ( 8.659560562354950100E-017, -0.7071067811865462400, 0.7071067811865489100 ) ) ;
#274 = VECTOR ( 'NONE', #273, 999.9999999999998900 ) ;
#275 = CARTESIAN_POINT ( 'NONE',  ( 1.347111479062088400E-015, 4.000000000000000000, 11.00000000000000000 ) ) ;
#276 = LINE ( 'NONE', #275, #274 ) ;
#277 = CYLINDRICAL_SURFACE ( 'NONE', #256, 10.99999999999999600 ) ;
#278 = DIRECTION ( 'NONE',  ( 1.000000000000000000, 0.0000000000000000000, 0.0000000000000000000 ) ) ;
#279 = CIRCLE ( 'NONE', #264, 10.99999999999999300 ) ;
#280 = DIRECTION ( 'NONE',  ( 0.0000000000000000000, 0.0000000000000000000, -1.000000000000000000 ) ) ;
#281 = DIRECTION ( 'NONE',  ( -0.0000000000000000000, -1.000000000000000000, -0.0000000000000000000 ) ) ;
#282 = AXIS2_PLACEMENT_3D ( 'NONE', #305, #281, #280 ) ;
#283 = CARTESIAN_POINT ( 'NONE',  ( 1.347111479062087800E-015, 1.819377878379543100, 10.99999999999999300 ) ) ;
#284 = SPHERICAL_SURFACE ( 'NONE', #124, 25.00000000000000000 ) ;
#285 = DIRECTION ( 'NONE',  ( 0.0000000000000000000, 0.0000000000000000000, -1.000000000000000000 ) ) ;
#286 = DIRECTION ( 'NONE',  ( -0.0000000000000000000, -1.000000000000000000, -0.0000000000000000000 ) ) ;
#287 = CARTESIAN_POINT ( 'NONE',  ( 0.0000000000000000000, 0.0000000000000000000, 0.0000000000000000000 ) ) ;
#288 = CARTESIAN_POINT ( 'NONE',  ( 0.0000000000000000000, 4.499999999999999100, -6.000000000000000000 ) ) ;
#289 = CIRCLE ( 'NONE', #282, 6.000000000000000000 ) ;
#290 = SURFACE_STYLE_FILL_AREA ( #291 ) ;
#291 = FILL_AREA_STYLE ('',( #307 ) ) ;
#292 = CARTESIAN_POINT ( 'NONE',  ( 7.347880794884119700E-016, 0.0000000000000000000, 6.000000000000000000 ) ) ;
#293 = DIRECTION ( 'NONE',  ( 0.0000000000000000000, 0.0000000000000000000, -1.000000000000000000 ) ) ;
#294 = DIRECTION ( 'NONE',  ( -0.0000000000000000000, -1.000000000000000000, -0.0000000000000000000 ) ) ;
#295 = FACE_OUTER_BOUND ( 'NONE', #49, .T. ) ;
#296 = CARTESIAN_POINT ( 'NONE',  ( 7.347880794884119700E-016, 4.499999999999999100, 6.000000000000000000 ) ) ;
#297 = AXIS2_PLACEMENT_3D ( 'NONE', #287, #286, #285 ) ;
#298 = AXIS2_PLACEMENT_3D ( 'NONE', #302, #294, #293 ) ;
#299 = DIRECTION ( 'NONE',  ( 0.0000000000000000000, 0.0000000000000000000, -1.000000000000000000 ) ) ;
#300 = DIRECTION ( 'NONE',  ( -0.0000000000000000000, -1.000000000000000000, -0.0000000000000000000 ) ) ;
#301 = CARTESIAN_POINT ( 'NONE',  ( 0.0000000000000000000, 4.499999999999999100, 0.0000000000000000000 ) ) ;
#302 = CARTESIAN_POINT ( 'NONE',  ( 0.0000000000000000000, 1.819377878379543100, 0.0000000000000000000 ) ) ;
#303 = CARTESIAN_POINT ( 'NONE',  ( -6.000000000000000000, 0.0000000000000000000, 1.040949779275249700E-015 ) ) ;
#304 = DIRECTION ( 'NONE',  ( -0.0000000000000000000, -1.000000000000000000, -0.0000000000000000000 ) ) ;
#305 = CARTESIAN_POINT ( 'NONE',  ( 0.0000000000000000000, 0.0000000000000000000, 0.0000000000000000000 ) ) ;
#306 = COLOUR_RGB ( '',0.8235294117647058400, 0.8705882352941176600, 0.9803921568627450600 ) ;
#307 = FILL_AREA_STYLE_COLOUR ( '', #306 ) ;
#308 = VECTOR ( 'NONE', #304, 1000.000000000000000 ) ;
#309 = CARTESIAN_POINT ( 'NONE',  ( 0.0000000000000000000, 0.0000000000000000000, -6.000000000000000000 ) ) ;
#310 = LINE ( 'NONE', #309, #308 ) ;
#311 = DIRECTION ( 'NONE',  ( 1.000000000000000000, 0.0000000000000000000, -1.224646799147353200E-016 ) ) ;
#312 = DIRECTION ( 'NONE',  ( 1.224646799147353200E-016, -0.0000000000000000000, 1.000000000000000000 ) ) ;
#313 = CARTESIAN_POINT ( 'NONE',  ( 0.0000000000000000000, 24.26932219902319700, 0.0000000000000000000 ) ) ;
#314 =( LENGTH_UNIT ( ) NAMED_UNIT ( * ) SI_UNIT ( .MILLI., .METRE. ) );
#315 = MECHANICAL_DESIGN_GEOMETRIC_PRESENTATION_REPRESENTATION (  '', ( #317 ), #246 ) ;
#316 = PRESENTATION_LAYER_ASSIGNMENT (  '', '', ( #317 ) ) ;
#317 = STYLED_ITEM ( 'NONE', ( #318 ), #325 ) ;
#318 = PRESENTATION_STYLE_ASSIGNMENT (( #319 ) ) ;
#319 = SURFACE_STYLE_USAGE ( .BOTH. , #330 ) ;
#320 = FILL_AREA_STYLE_COLOUR ( '', #250 ) ;
#321 = DIRECTION ( 'NONE',  ( 1.000000000000000000, 0.0000000000000000000, 0.0000000000000000000 ) ) ;
#322 = DIRECTION ( 'NONE',  ( 0.0000000000000000000, 0.0000000000000000000, 1.000000000000000000 ) ) ;
#323 = CARTESIAN_POINT ( 'NONE',  ( 0.0000000000000000000, 0.0000000000000000000, 0.0000000000000000000 ) ) ;
#324 = AXIS2_PLACEMENT_3D ( 'NONE', #323, #322, #321 ) ;
#325 = ADVANCED_BREP_SHAPE_REPRESENTATION ( '', ( #75, #324 ), #326 ) ;
#326 =( GEOMETRIC_REPRESENTATION_CONTEXT ( 3 ) GLOBAL_UNCERTAINTY_ASSIGNED_CONTEXT ( ( #327 ) ) GLOBAL_UNIT_ASSIGNED_CONTEXT ( ( #258, #329, #328 ) ) REPRESENTATION_CONTEXT ( 'NONE', 'WORKASPACE' ) );
#327 = UNCERTAINTY_MEASURE_WITH_UNIT (LENGTH_MEASURE( 1.000000000000000100E-005 ), #258, 'distance_accuracy_value', 'NONE');
#328 =( NAMED_UNIT ( * ) SI_UNIT ( $, .STERADIAN. ) SOLID_ANGLE_UNIT ( ) );
#329 =( NAMED_UNIT ( * ) PLANE_ANGLE_UNIT ( ) SI_UNIT ( $, .RADIAN. ) );
#330 = SURFACE_SIDE_STYLE ('',( #331 ) ) ;
#331 = SURFACE_STYLE_FILL_AREA ( #332 ) ;
#332 = FILL_AREA_STYLE ('',( #320 ) ) ;
#333 = DIRECTION ( 'NONE',  ( 0.0000000000000000000, 0.0000000000000000000, -1.000000000000000000 ) ) ;
#334 = DIRECTION ( 'NONE',  ( -0.0000000000000000000, -1.000000000000000000, -0.0000000000000000000 ) ) ;
#335 = PRODUCT_DEFINITION_SHAPE ( 'NONE', 'NONE',  #339 ) ;
#336 = PRODUCT_RELATED_PRODUCT_CATEGORY ( 'part', '', ( #344 ) ) ;
#337 = PRODUCT_DEFINITION_FORMATION_WITH_SPECIFIED_SOURCE ( 'ANY', '', #344, .NOT_KNOWN. ) ;
#338 = ITEM_DEFINED_TRANSFORMATION ( 'NONE', 'NONE', #238,  #324 ) ;
#339 = PRODUCT_DEFINITION ( 'UNKNOWN', '', #337, #340 ) ;
#340 = PRODUCT_DEFINITION_CONTEXT ( 'detailed design', #342, 'design' ) ;
#341 = APPLICATION_PROTOCOL_DEFINITION ( 'draft international standard', 'automotive_design', 1998, #342 ) ;
#342 = APPLICATION_CONTEXT ( 'automotive_design' ) ;
#343 = SHAPE_DEFINITION_REPRESENTATION ( #335, #243 ) ;
#344 = PRODUCT ( '803-210M', '803-210M', '', ( #345 ) ) ;
#345 = PRODUCT_CONTEXT ( 'NONE', #362, 'mechanical' ) ;
#346 = APPLICATION_PROTOCOL_DEFINITION ( 'draft international standard', 'automotive_design', 1998, #362 ) ;
#347 = NEXT_ASSEMBLY_USAGE_OCCURRENCE ( 'NAUO1', ' ', ' ', #339, #353, $ ) ;
#348 = CONTEXT_DEPENDENT_SHAPE_REPRESENTATION ( #363, #349 ) ;
#349 = PRODUCT_DEFINITION_SHAPE ( 'NONE', 'NONE',  #347 ) ;
#350 = PRODUCT_DEFINITION_SHAPE ( 'NONE', 'NONE',  #353 ) ;
#351 = PRODUCT_RELATED_PRODUCT_CATEGORY ( 'part', '', ( #358 ) ) ;
#352 = PRODUCT_DEFINITION_FORMATION_WITH_SPECIFIED_SOURCE ( 'ANY', '', #358, .NOT_KNOWN. ) ;
#353 = PRODUCT_DEFINITION ( 'UNKNOWN', '', #352, #354 ) ;
#354 = PRODUCT_DEFINITION_CONTEXT ( 'detailed design', #356, 'design' ) ;
#355 = APPLICATION_PROTOCOL_DEFINITION ( 'draft international standard', 'automotive_design', 1998, #356 ) ;
#356 = APPLICATION_CONTEXT ( 'automotive_design' ) ;
#357 = SHAPE_DEFINITION_REPRESENTATION ( #350, #245 ) ;
#358 = PRODUCT ( '803-210M_803M_803-210M', '803-210M_803M_803-210M', '', ( #359 ) ) ;
#359 = PRODUCT_CONTEXT ( 'NONE', #361, 'mechanical' ) ;
#360 = APPLICATION_PROTOCOL_DEFINITION ( 'draft international standard', 'automotive_design', 1998, #361 ) ;
#361 = APPLICATION_CONTEXT ( 'automotive_design' ) ;
#362 = APPLICATION_CONTEXT ( 'automotive_design' ) ;
#363 =( REPRESENTATION_RELATIONSHIP ('NONE','NONE', #243, #245 ) REPRESENTATION_RELATIONSHIP_WITH_TRANSFORMATION ( #338 )SHAPE_REPRESENTATION_RELATIONSHIP( ) );
ENDSEC;
END-ISO-10303-21;
