ISO-10303-21;
HEADER;
FILE_DESCRIPTION (( 'STEP AP214' ),
    '1' );
FILE_NAME ('803-210F.step',
    '2010-01-12T10:41:15',
    ( 'SysAdmin' ),
    ( 'SolidWorks' ),
    'SwSTEP 2.0',
    'SolidWorks 2010',
    '' );
FILE_SCHEMA (( 'AUTOMOTIVE_DESIGN' ));
ENDSEC;

DATA;
#1 = APPLICATION_CONTEXT ( 'automotive_design' ) ;
#2 = DIRECTION ( 'NONE',  ( 0.0000000000000000000, 0.0000000000000000000, -1.000000000000000000 ) ) ;
#3 = PRODUCT ( '803-210F_803F_803-210F', '803-210F_803F_803-210F', '', ( #4 ) ) ;
#4 = PRODUCT_CONTEXT ( 'NONE', #1, 'mechanical' ) ;
#5 = APPLICATION_PROTOCOL_DEFINITION ( 'draft international standard', 'automotive_design', 1998, #1 ) ;
#6 = APPLICATION_CONTEXT ( 'automotive_design' ) ;
#7 = APPLICATION_PROTOCOL_DEFINITION ( 'draft international standard', 'automotive_design', 1998, #6 ) ;
#8 = PRODUCT_DEFINITION_FORMATION_WITH_SPECIFIED_SOURCE ( 'ANY', '', #3, .NOT_KNOWN. ) ;
#9 = PRODUCT_DEFINITION_CONTEXT ( 'detailed design', #6, 'design' ) ;
#10 = PRODUCT_RELATED_PRODUCT_CATEGORY ( 'part', '', ( #3 ) ) ;
#11 = SHAPE_DEFINITION_REPRESENTATION ( #12, #358 ) ;
#12 = PRODUCT_DEFINITION_SHAPE ( 'NONE', 'NONE',  #18 ) ;
#13 = PRODUCT_DEFINITION_SHAPE ( 'NONE', 'NONE',  #15 ) ;
#14 = CONTEXT_DEPENDENT_SHAPE_REPRESENTATION ( #16, #13 ) ;
#15 = NEXT_ASSEMBLY_USAGE_OCCURRENCE ( 'NAUO1', ' ', ' ', #249, #18, $ ) ;
#16 =( REPRESENTATION_RELATIONSHIP ('NONE','NONE', #288, #358 ) REPRESENTATION_RELATIONSHIP_WITH_TRANSFORMATION ( #17 )SHAPE_REPRESENTATION_RELATIONSHIP( ) );
#17 = ITEM_DEFINED_TRANSFORMATION ( 'NONE', 'NONE', #284,  #277 ) ;
#18 = PRODUCT_DEFINITION ( 'UNKNOWN', '', #8, #9 ) ;
#19 = DIRECTION ( 'NONE',  ( -0.0000000000000000000, -1.000000000000000000, -0.0000000000000000000 ) ) ;
#20 = DIRECTION ( 'NONE',  ( 0.0000000000000000000, 0.0000000000000000000, -1.000000000000000000 ) ) ;
#21 = AXIS2_PLACEMENT_3D ( 'NONE', #28, #48, #20 ) ;
#22 = CARTESIAN_POINT ( 'NONE',  ( 0.0000000000000000000, 0.5000000000000000000, 0.0000000000000000000 ) ) ;
#23 = AXIS2_PLACEMENT_3D ( 'NONE', #22, #19, #2 ) ;
#24 = DIRECTION ( 'NONE',  ( 0.0000000000000000000, 0.0000000000000000000, -1.000000000000000000 ) ) ;
#25 = DIRECTION ( 'NONE',  ( -0.0000000000000000000, -1.000000000000000000, -0.0000000000000000000 ) ) ;
#26 = CARTESIAN_POINT ( 'NONE',  ( 0.0000000000000000000, 0.0000000000000000000, 0.0000000000000000000 ) ) ;
#27 = AXIS2_PLACEMENT_3D ( 'NONE', #26, #25, #24 ) ;
#28 = CARTESIAN_POINT ( 'NONE',  ( 0.0000000000000000000, 0.0000000000000000000, 0.0000000000000000000 ) ) ;
#29 = CIRCLE ( 'NONE', #23, 11.00000000000000000 ) ;
#30 = CIRCLE ( 'NONE', #21, 10.49999999999999800 ) ;
#31 = DIRECTION ( 'NONE',  ( 0.0000000000000000000, 0.0000000000000000000, -1.000000000000000000 ) ) ;
#32 = DIRECTION ( 'NONE',  ( 0.0000000000000000000, -1.000000000000000000, -0.0000000000000000000 ) ) ;
#33 = CYLINDRICAL_SURFACE ( 'NONE', #27, 5.999999999999998200 ) ;
#34 = DIRECTION ( 'NONE',  ( 0.0000000000000000000, 0.0000000000000000000, -1.000000000000000000 ) ) ;
#35 = DIRECTION ( 'NONE',  ( -0.0000000000000000000, -1.000000000000000000, -0.0000000000000000000 ) ) ;
#36 = CARTESIAN_POINT ( 'NONE',  ( 0.0000000000000000000, 5.499999999999998200, 0.0000000000000000000 ) ) ;
#37 = FACE_BOUND ( 'NONE', #87, .T. ) ;
#38 = FACE_OUTER_BOUND ( 'NONE', #108, .T. ) ;
#39 = CIRCLE ( 'NONE', #132, 10.79351708832071000 ) ;
#40 = AXIS2_PLACEMENT_3D ( 'NONE', #53, #32, #31 ) ;
#41 = DIRECTION ( 'NONE',  ( -0.0000000000000000000, -1.000000000000000000, -0.0000000000000000000 ) ) ;
#42 = VECTOR ( 'NONE', #41, 1000.000000000000000 ) ;
#43 = CARTESIAN_POINT ( 'NONE',  ( 0.0000000000000000000, 0.0000000000000000000, -11.00000000000000000 ) ) ;
#44 = FACE_OUTER_BOUND ( 'NONE', #88, .T. ) ;
#45 = DIRECTION ( 'NONE',  ( 0.0000000000000000000, 0.0000000000000000000, -1.000000000000000000 ) ) ;
#46 = DIRECTION ( 'NONE',  ( -0.0000000000000000000, -1.000000000000000000, -0.0000000000000000000 ) ) ;
#47 = CARTESIAN_POINT ( 'NONE',  ( 0.0000000000000000000, 0.5000000000000000000, 0.0000000000000000000 ) ) ;
#48 = DIRECTION ( 'NONE',  ( -0.0000000000000000000, -1.000000000000000000, -0.0000000000000000000 ) ) ;
#49 = DIRECTION ( 'NONE',  ( -0.0000000000000000000, -1.000000000000000000, -0.0000000000000000000 ) ) ;
#50 = VECTOR ( 'NONE', #49, 1000.000000000000000 ) ;
#51 = CARTESIAN_POINT ( 'NONE',  ( 1.347111479062088400E-015, 0.0000000000000000000, 11.00000000000000000 ) ) ;
#52 = LINE ( 'NONE', #51, #50 ) ;
#53 = CARTESIAN_POINT ( 'NONE',  ( 11.00000000000000000, 5.499999999999998200, 0.0000000000000000000 ) ) ;
#54 = LINE ( 'NONE', #43, #42 ) ;
#55 = PLANE ( 'NONE',  #40 ) ;
#56 = ORIENTED_EDGE ( 'NONE', *, *, #57, .T. ) ;
#57 = EDGE_CURVE ( 'NONE', #83, #59, #212, .T. ) ;
#58 = ORIENTED_EDGE ( 'NONE', *, *, #61, .F. ) ;
#59 = VERTEX_POINT ( 'NONE', #162 ) ;
#60 = EDGE_CURVE ( 'NONE', #59, #187, #181, .T. ) ;
#61 = EDGE_CURVE ( 'NONE', #67, #187, #208, .T. ) ;
#62 = ORIENTED_EDGE ( 'NONE', *, *, #167, .F. ) ;
#63 = ADVANCED_FACE ( 'NONE', ( #214 ), #215, .F. ) ;
#64 = EDGE_LOOP ( 'NONE', ( #97, #89, #99, #91, #98 ) ) ;
#65 = VERTEX_POINT ( 'NONE', #157 ) ;
#66 = ORIENTED_EDGE ( 'NONE', *, *, #167, .T. ) ;
#67 = VERTEX_POINT ( 'NONE', #159 ) ;
#68 = ORIENTED_EDGE ( 'NONE', *, *, #75, .F. ) ;
#69 = VERTEX_POINT ( 'NONE', #163 ) ;
#70 = ORIENTED_EDGE ( 'NONE', *, *, #73, .F. ) ;
#71 = ADVANCED_FACE ( 'NONE', ( #205, #156 ), #199, .T. ) ;
#72 = ORIENTED_EDGE ( 'NONE', *, *, #110, .T. ) ;
#73 = EDGE_CURVE ( 'NONE', #187, #59, #146, .T. ) ;
#74 = ORIENTED_EDGE ( 'NONE', *, *, #60, .F. ) ;
#75 = EDGE_CURVE ( 'NONE', #180, #179, #153, .T. ) ;
#76 = ORIENTED_EDGE ( 'NONE', *, *, #85, .F. ) ;
#77 = EDGE_CURVE ( 'NONE', #195, #194, #204, .T. ) ;
#78 = VERTEX_POINT ( 'NONE', #142 ) ;
#79 = ADVANCED_FACE ( 'NONE', ( #136 ), #148, .T. ) ;
#80 = VERTEX_POINT ( 'NONE', #130 ) ;
#81 = ORIENTED_EDGE ( 'NONE', *, *, #82, .T. ) ;
#82 = EDGE_CURVE ( 'NONE', #80, #194, #52, .T. ) ;
#83 = VERTEX_POINT ( 'NONE', #127 ) ;
#84 = VERTEX_POINT ( 'NONE', #126 ) ;
#85 = EDGE_CURVE ( 'NONE', #84, #194, #135, .T. ) ;
#86 = EDGE_CURVE ( 'NONE', #65, #84, #54, .T. ) ;
#87 = EDGE_LOOP ( 'NONE', ( #95, #96 ) ) ;
#88 = EDGE_LOOP ( 'NONE', ( #94, #92 ) ) ;
#89 = ORIENTED_EDGE ( 'NONE', *, *, #90, .F. ) ;
#90 = EDGE_CURVE ( 'NONE', #180, #173, #39, .T. ) ;
#91 = ORIENTED_EDGE ( 'NONE', *, *, #124, .T. ) ;
#92 = ORIENTED_EDGE ( 'NONE', *, *, #125, .F. ) ;
#93 = ADVANCED_FACE ( 'NONE', ( #44, #37 ), #55, .F. ) ;
#94 = ORIENTED_EDGE ( 'NONE', *, *, #182, .F. ) ;
#95 = ORIENTED_EDGE ( 'NONE', *, *, #90, .T. ) ;
#96 = ORIENTED_EDGE ( 'NONE', *, *, #172, .T. ) ;
#97 = ORIENTED_EDGE ( 'NONE', *, *, #184, .F. ) ;
#98 = ORIENTED_EDGE ( 'NONE', *, *, #171, .T. ) ;
#99 = ORIENTED_EDGE ( 'NONE', *, *, #75, .T. ) ;
#100 = ORIENTED_EDGE ( 'NONE', *, *, #57, .F. ) ;
#101 = ORIENTED_EDGE ( 'NONE', *, *, #61, .T. ) ;
#102 = ORIENTED_EDGE ( 'NONE', *, *, #193, .T. ) ;
#103 = ORIENTED_EDGE ( 'NONE', *, *, #73, .T. ) ;
#104 = EDGE_LOOP ( 'NONE', ( #72, #102 ) ) ;
#105 = ORIENTED_EDGE ( 'NONE', *, *, #176, .F. ) ;
#106 = ORIENTED_EDGE ( 'NONE', *, *, #192, .F. ) ;
#107 = ADVANCED_FACE ( 'NONE', ( #38 ), #33, .F. ) ;
#108 = EDGE_LOOP ( 'NONE', ( #100, #117, #105, #101, #103 ) ) ;
#109 = ORIENTED_EDGE ( 'NONE', *, *, #110, .F. ) ;
#110 = EDGE_CURVE ( 'NONE', #195, #78, #30, .T. ) ;
#111 = EDGE_LOOP ( 'NONE', ( #70, #74 ) ) ;
#112 = ORIENTED_EDGE ( 'NONE', *, *, #77, .T. ) ;
#113 = EDGE_LOOP ( 'NONE', ( #122, #118, #120, #119 ) ) ;
#114 = EDGE_CURVE ( 'NONE', #194, #84, #29, .T. ) ;
#115 = ADVANCED_FACE ( 'NONE', ( #323 ), #334, .T. ) ;
#116 = EDGE_LOOP ( 'NONE', ( #106, #109, #112, #121 ) ) ;
#117 = ORIENTED_EDGE ( 'NONE', *, *, #124, .F. ) ;
#118 = ORIENTED_EDGE ( 'NONE', *, *, #125, .T. ) ;
#119 = ORIENTED_EDGE ( 'NONE', *, *, #114, .F. ) ;
#120 = ORIENTED_EDGE ( 'NONE', *, *, #86, .T. ) ;
#121 = ORIENTED_EDGE ( 'NONE', *, *, #114, .T. ) ;
#122 = ORIENTED_EDGE ( 'NONE', *, *, #82, .F. ) ;
#123 = ADVANCED_FACE ( 'NONE', ( #341 ), #311, .T. ) ;
#124 = EDGE_CURVE ( 'NONE', #179, #83, #312, .T. ) ;
#125 = EDGE_CURVE ( 'NONE', #80, #65, #262, .T. ) ;
#126 = CARTESIAN_POINT ( 'NONE',  ( 1.347111479062088400E-015, 0.5000000000000000000, -11.00000000000000000 ) ) ;
#127 = CARTESIAN_POINT ( 'NONE',  ( 7.347880794884116800E-016, 3.780622121620454300, 5.999999999999995600 ) ) ;
#128 = AXIS2_PLACEMENT_3D ( 'NONE', #47, #46, #45 ) ;
#129 = DIRECTION ( 'NONE',  ( 0.0000000000000000000, 0.0000000000000000000, -1.000000000000000000 ) ) ;
#130 = CARTESIAN_POINT ( 'NONE',  ( 1.347111479062088400E-015, 5.499999999999998200, 11.00000000000000000 ) ) ;
#131 = AXIS2_PLACEMENT_3D ( 'NONE', #134, #147, #129 ) ;
#132 = AXIS2_PLACEMENT_3D ( 'NONE', #36, #35, #34 ) ;
#133 = VECTOR ( 'NONE', #140, 999.9999999999998900 ) ;
#134 = CARTESIAN_POINT ( 'NONE',  ( 0.0000000000000000000, 0.0000000000000000000, 0.0000000000000000000 ) ) ;
#135 = CIRCLE ( 'NONE', #128, 11.00000000000000000 ) ;
#136 = FACE_OUTER_BOUND ( 'NONE', #166, .T. ) ;
#137 = DIRECTION ( 'NONE',  ( -1.000000000000000000, 0.0000000000000000000, 0.0000000000000000000 ) ) ;
#138 = DIRECTION ( 'NONE',  ( 0.0000000000000000000, 0.0000000000000000000, -1.000000000000000000 ) ) ;
#139 = AXIS2_PLACEMENT_3D ( 'NONE', #155, #138, #137 ) ;
#140 = DIRECTION ( 'NONE',  ( 0.0000000000000000000, 0.7071067811865472400, 0.7071067811865479100 ) ) ;
#141 = CARTESIAN_POINT ( 'NONE',  ( 0.0000000000000000000, 0.0000000000000000000, 10.49999999999999800 ) ) ;
#142 = CARTESIAN_POINT ( 'NONE',  ( 1.316495309083404400E-015, 0.0000000000000000000, -10.49999999999999800 ) ) ;
#143 = DIRECTION ( 'NONE',  ( 0.0000000000000000000, 0.0000000000000000000, -1.000000000000000000 ) ) ;
#144 = DIRECTION ( 'NONE',  ( -0.0000000000000000000, -1.000000000000000000, -0.0000000000000000000 ) ) ;
#145 = AXIS2_PLACEMENT_3D ( 'NONE', #154, #144, #143 ) ;
#146 = CIRCLE ( 'NONE', #145, 6.000000000000000000 ) ;
#147 = DIRECTION ( 'NONE',  ( -0.0000000000000000000, -1.000000000000000000, -0.0000000000000000000 ) ) ;
#148 = CYLINDRICAL_SURFACE ( 'NONE', #131, 11.00000000000000000 ) ;
#149 = DIRECTION ( 'NONE',  ( 0.0000000000000000000, 0.0000000000000000000, -1.000000000000000000 ) ) ;
#150 = DIRECTION ( 'NONE',  ( 0.0000000000000000000, -1.000000000000000000, -0.0000000000000000000 ) ) ;
#151 = CARTESIAN_POINT ( 'NONE',  ( 6.000000000000000000, 0.0000000000000000000, 0.0000000000000000000 ) ) ;
#152 = AXIS2_PLACEMENT_3D ( 'NONE', #151, #150, #149 ) ;
#153 = CIRCLE ( 'NONE', #139, 25.00000000000000000 ) ;
#154 = CARTESIAN_POINT ( 'NONE',  ( 0.0000000000000000000, 0.0000000000000000000, 0.0000000000000000000 ) ) ;
#155 = CARTESIAN_POINT ( 'NONE',  ( 0.0000000000000000000, 28.04994432064365000, 0.0000000000000000000 ) ) ;
#156 = FACE_BOUND ( 'NONE', #111, .T. ) ;
#157 = CARTESIAN_POINT ( 'NONE',  ( 0.0000000000000000000, 5.499999999999998200, -11.00000000000000000 ) ) ;
#158 = DIRECTION ( 'NONE',  ( 1.000000000000000000, 0.0000000000000000000, 0.0000000000000000000 ) ) ;
#159 = CARTESIAN_POINT ( 'NONE',  ( 0.0000000000000000000, 3.780622121620454300, -5.999999999999995600 ) ) ;
#160 = MANIFOLD_SOLID_BREP ( 'Cut-Revolve1', #216 ) ;
#161 = ORIENTED_EDGE ( 'NONE', *, *, #184, .T. ) ;
#162 = CARTESIAN_POINT ( 'NONE',  ( 7.347880794884119700E-016, 0.0000000000000000000, 6.000000000000000000 ) ) ;
#163 = CARTESIAN_POINT ( 'NONE',  ( -5.999999999999995600, 3.780622121620454300, 1.028306347431916400E-015 ) ) ;
#164 = AXIS2_PLACEMENT_3D ( 'NONE', #198, #200, #158 ) ;
#165 = CARTESIAN_POINT ( 'NONE',  ( 0.0000000000000000000, 0.0000000000000000000, 0.0000000000000000000 ) ) ;
#166 = EDGE_LOOP ( 'NONE', ( #177, #81, #76, #170 ) ) ;
#167 = EDGE_CURVE ( 'NONE', #69, #67, #318, .T. ) ;
#168 = EDGE_LOOP ( 'NONE', ( #191, #186, #185, #188 ) ) ;
#169 = EDGE_LOOP ( 'NONE', ( #189, #56, #197, #58, #62 ) ) ;
#170 = ORIENTED_EDGE ( 'NONE', *, *, #86, .F. ) ;
#171 = EDGE_CURVE ( 'NONE', #83, #69, #332, .T. ) ;
#172 = EDGE_CURVE ( 'NONE', #173, #180, #367, .T. ) ;
#173 = VERTEX_POINT ( 'NONE', #222 ) ;
#174 = EDGE_LOOP ( 'NONE', ( #175, #161, #66, #178, #68 ) ) ;
#175 = ORIENTED_EDGE ( 'NONE', *, *, #172, .F. ) ;
#176 = EDGE_CURVE ( 'NONE', #67, #179, #366, .T. ) ;
#177 = ORIENTED_EDGE ( 'NONE', *, *, #182, .T. ) ;
#178 = ORIENTED_EDGE ( 'NONE', *, *, #176, .T. ) ;
#179 = VERTEX_POINT ( 'NONE', #240 ) ;
#180 = VERTEX_POINT ( 'NONE', #223 ) ;
#181 = CIRCLE ( 'NONE', #213, 6.000000000000000000 ) ;
#182 = EDGE_CURVE ( 'NONE', #65, #80, #237, .T. ) ;
#183 = ADVANCED_FACE ( 'NONE', ( #234 ), #236, .F. ) ;
#184 = EDGE_CURVE ( 'NONE', #173, #69, #241, .T. ) ;
#185 = ORIENTED_EDGE ( 'NONE', *, *, #85, .T. ) ;
#186 = ORIENTED_EDGE ( 'NONE', *, *, #192, .T. ) ;
#187 = VERTEX_POINT ( 'NONE', #310 ) ;
#188 = ORIENTED_EDGE ( 'NONE', *, *, #77, .F. ) ;
#189 = ORIENTED_EDGE ( 'NONE', *, *, #171, .F. ) ;
#190 = ADVANCED_FACE ( 'NONE', ( #229 ), #261, .T. ) ;
#191 = ORIENTED_EDGE ( 'NONE', *, *, #193, .F. ) ;
#192 = EDGE_CURVE ( 'NONE', #78, #84, #296, .T. ) ;
#193 = EDGE_CURVE ( 'NONE', #78, #195, #297, .T. ) ;
#194 = VERTEX_POINT ( 'NONE', #298 ) ;
#195 = VERTEX_POINT ( 'NONE', #289 ) ;
#196 = ADVANCED_FACE ( 'NONE', ( #348 ), #304, .F. ) ;
#197 = ORIENTED_EDGE ( 'NONE', *, *, #60, .T. ) ;
#198 = CARTESIAN_POINT ( 'NONE',  ( 0.0000000000000000000, 28.04994432064365000, 0.0000000000000000000 ) ) ;
#199 = PLANE ( 'NONE',  #152 ) ;
#200 = DIRECTION ( 'NONE',  ( 0.0000000000000000000, 0.0000000000000000000, 1.000000000000000000 ) ) ;
#201 = DIRECTION ( 'NONE',  ( -0.0000000000000000000, -1.000000000000000000, -0.0000000000000000000 ) ) ;
#202 = VECTOR ( 'NONE', #201, 1000.000000000000000 ) ;
#203 = CARTESIAN_POINT ( 'NONE',  ( 0.0000000000000000000, 0.0000000000000000000, -5.999999999999998200 ) ) ;
#204 = LINE ( 'NONE', #141, #133 ) ;
#205 = FACE_OUTER_BOUND ( 'NONE', #104, .T. ) ;
#206 = DIRECTION ( 'NONE',  ( 0.0000000000000000000, 0.0000000000000000000, -1.000000000000000000 ) ) ;
#207 = DIRECTION ( 'NONE',  ( -0.0000000000000000000, -1.000000000000000000, -0.0000000000000000000 ) ) ;
#208 = LINE ( 'NONE', #203, #202 ) ;
#209 = DIRECTION ( 'NONE',  ( -0.0000000000000000000, -1.000000000000000000, -0.0000000000000000000 ) ) ;
#210 = VECTOR ( 'NONE', #209, 1000.000000000000000 ) ;
#211 = CARTESIAN_POINT ( 'NONE',  ( 7.347880794884117800E-016, 0.0000000000000000000, 5.999999999999998200 ) ) ;
#212 = LINE ( 'NONE', #211, #210 ) ;
#213 = AXIS2_PLACEMENT_3D ( 'NONE', #165, #207, #206 ) ;
#214 = FACE_OUTER_BOUND ( 'NONE', #64, .T. ) ;
#215 = SPHERICAL_SURFACE ( 'NONE', #164, 25.00000000000000000 ) ;
#216 = CLOSED_SHELL ( 'NONE', ( #183, #79, #190, #196, #107, #71, #123, #115, #63, #93 ) ) ;
#217 = MECHANICAL_DESIGN_GEOMETRIC_PRESENTATION_REPRESENTATION (  '', ( #219 ), #321 ) ;
#218 = PRESENTATION_LAYER_ASSIGNMENT (  '', '', ( #219 ) ) ;
#219 = STYLED_ITEM ( 'NONE', ( #220 ), #160 ) ;
#220 = PRESENTATION_STYLE_ASSIGNMENT (( #221 ) ) ;
#221 = SURFACE_STYLE_USAGE ( .BOTH. , #328 ) ;
#222 = CARTESIAN_POINT ( 'NONE',  ( -10.79351708832070900, 5.499999999999998200, 1.321824615375421900E-015 ) ) ;
#223 = CARTESIAN_POINT ( 'NONE',  ( 10.79351708832070900, 5.499999999999998200, 0.0000000000000000000 ) ) ;
#224 = CARTESIAN_POINT ( 'NONE',  ( 0.0000000000000000000, 3.780622121620454300, 0.0000000000000000000 ) ) ;
#225 = DIRECTION ( 'NONE',  ( 0.0000000000000000000, 0.0000000000000000000, -1.000000000000000000 ) ) ;
#226 = DIRECTION ( 'NONE',  ( -0.0000000000000000000, -1.000000000000000000, -0.0000000000000000000 ) ) ;
#227 = CARTESIAN_POINT ( 'NONE',  ( 0.0000000000000000000, 3.780622121620454300, 0.0000000000000000000 ) ) ;
#228 = CARTESIAN_POINT ( 'NONE',  ( 0.0000000000000000000, 0.0000000000000000000, 0.0000000000000000000 ) ) ;
#229 = FACE_OUTER_BOUND ( 'NONE', #168, .T. ) ;
#230 = DIRECTION ( 'NONE',  ( 0.0000000000000000000, 0.0000000000000000000, -1.000000000000000000 ) ) ;
#231 = DIRECTION ( 'NONE',  ( -0.0000000000000000000, -1.000000000000000000, -0.0000000000000000000 ) ) ;
#232 = CARTESIAN_POINT ( 'NONE',  ( 0.0000000000000000000, 5.499999999999998200, 0.0000000000000000000 ) ) ;
#233 = AXIS2_PLACEMENT_3D ( 'NONE', #232, #231, #230 ) ;
#234 = FACE_OUTER_BOUND ( 'NONE', #174, .T. ) ;
#235 = CARTESIAN_POINT ( 'NONE',  ( 0.0000000000000000000, 28.04994432064365000, 0.0000000000000000000 ) ) ;
#236 = SPHERICAL_SURFACE ( 'NONE', #308, 25.00000000000000000 ) ;
#237 = CIRCLE ( 'NONE', #233, 11.00000000000000000 ) ;
#238 = AXIS2_PLACEMENT_3D ( 'NONE', #228, #300, #294 ) ;
#239 = DIRECTION ( 'NONE',  ( 0.0000000000000000000, 0.0000000000000000000, -1.000000000000000000 ) ) ;
#240 = CARTESIAN_POINT ( 'NONE',  ( 5.999999999999995600, 3.780622121620454300, 0.0000000000000000000 ) ) ;
#241 = CIRCLE ( 'NONE', #303, 25.00000000000000000 ) ;
#242 =( GEOMETRIC_REPRESENTATION_CONTEXT ( 3 ) GLOBAL_UNCERTAINTY_ASSIGNED_CONTEXT ( ( #243 ) ) GLOBAL_UNIT_ASSIGNED_CONTEXT ( ( #347, #342, #244 ) ) REPRESENTATION_CONTEXT ( 'NONE', 'WORKASPACE' ) );
#243 = UNCERTAINTY_MEASURE_WITH_UNIT (LENGTH_MEASURE( 1.000000000000000100E-005 ), #347, 'distance_accuracy_value', 'NONE');
#244 =( NAMED_UNIT ( * ) SI_UNIT ( $, .STERADIAN. ) SOLID_ANGLE_UNIT ( ) );
#245 =( LENGTH_UNIT ( ) NAMED_UNIT ( * ) SI_UNIT ( .MILLI., .METRE. ) );
#246 = CARTESIAN_POINT ( 'NONE',  ( 0.0000000000000000000, 0.0000000000000000000, 0.0000000000000000000 ) ) ;
#247 = PRODUCT_RELATED_PRODUCT_CATEGORY ( 'part', '', ( #253 ) ) ;
#248 = PRODUCT_DEFINITION_FORMATION_WITH_SPECIFIED_SOURCE ( 'ANY', '', #253, .NOT_KNOWN. ) ;
#249 = PRODUCT_DEFINITION ( 'UNKNOWN', '', #248, #250 ) ;
#250 = PRODUCT_DEFINITION_CONTEXT ( 'detailed design', #252, 'design' ) ;
#251 = APPLICATION_PROTOCOL_DEFINITION ( 'draft international standard', 'automotive_design', 1998, #252 ) ;
#252 = APPLICATION_CONTEXT ( 'automotive_design' ) ;
#253 = PRODUCT ( '803-210F', '803-210F', '', ( #254 ) ) ;
#254 = PRODUCT_CONTEXT ( 'NONE', #256, 'mechanical' ) ;
#255 = APPLICATION_PROTOCOL_DEFINITION ( 'draft international standard', 'automotive_design', 1998, #256 ) ;
#256 = APPLICATION_CONTEXT ( 'automotive_design' ) ;
#257 = DIRECTION ( 'NONE',  ( 0.0000000000000000000, 0.0000000000000000000, 1.000000000000000000 ) ) ;
#258 = DIRECTION ( 'NONE',  ( 0.0000000000000000000, 1.000000000000000000, 0.0000000000000000000 ) ) ;
#259 = AXIS2_PLACEMENT_3D ( 'NONE', #322, #365, #364 ) ;
#260 = AXIS2_PLACEMENT_3D ( 'NONE', #320, #339, #338 ) ;
#261 = CONICAL_SURFACE ( 'NONE', #238, 10.49999999999999800, 0.7853981633974487200 ) ;
#262 = CIRCLE ( 'NONE', #259, 11.00000000000000000 ) ;
#263 = AXIS2_PLACEMENT_3D ( 'NONE', #227, #226, #225 ) ;
#264 = UNCERTAINTY_MEASURE_WITH_UNIT (LENGTH_MEASURE( 1.000000000000000100E-005 ), #267, 'distance_accuracy_value', 'NONE');
#265 =( NAMED_UNIT ( * ) SI_UNIT ( $, .STERADIAN. ) SOLID_ANGLE_UNIT ( ) );
#266 =( NAMED_UNIT ( * ) PLANE_ANGLE_UNIT ( ) SI_UNIT ( $, .RADIAN. ) );
#267 =( LENGTH_UNIT ( ) NAMED_UNIT ( * ) SI_UNIT ( .MILLI., .METRE. ) );
#268 = MECHANICAL_DESIGN_GEOMETRIC_PRESENTATION_REPRESENTATION (  '', ( #270 ), #359 ) ;
#269 = PRESENTATION_LAYER_ASSIGNMENT (  '', '', ( #270 ) ) ;
#270 = STYLED_ITEM ( 'NONE', ( #271 ), #278 ) ;
#271 = PRESENTATION_STYLE_ASSIGNMENT (( #272 ) ) ;
#272 = SURFACE_STYLE_USAGE ( .BOTH. , #343 ) ;
#273 = COLOUR_RGB ( '',0.8235294117647058400, 0.8705882352941176600, 0.9803921568627450600 ) ;
#274 = DIRECTION ( 'NONE',  ( 1.000000000000000000, 0.0000000000000000000, 0.0000000000000000000 ) ) ;
#275 = DIRECTION ( 'NONE',  ( 0.0000000000000000000, 0.0000000000000000000, 1.000000000000000000 ) ) ;
#276 = CARTESIAN_POINT ( 'NONE',  ( 0.0000000000000000000, 0.0000000000000000000, 0.0000000000000000000 ) ) ;
#277 = AXIS2_PLACEMENT_3D ( 'NONE', #276, #275, #274 ) ;
#278 = ADVANCED_BREP_SHAPE_REPRESENTATION ( '', ( #160, #277 ), #242 ) ;
#279 =( NAMED_UNIT ( * ) PLANE_ANGLE_UNIT ( ) SI_UNIT ( $, .RADIAN. ) );
#280 =( LENGTH_UNIT ( ) NAMED_UNIT ( * ) SI_UNIT ( .MILLI., .METRE. ) );
#281 = DIRECTION ( 'NONE',  ( 1.000000000000000000, 0.0000000000000000000, 0.0000000000000000000 ) ) ;
#282 = DIRECTION ( 'NONE',  ( 0.0000000000000000000, 0.0000000000000000000, 1.000000000000000000 ) ) ;
#283 = CARTESIAN_POINT ( 'NONE',  ( 0.0000000000000000000, 0.0000000000000000000, 0.0000000000000000000 ) ) ;
#284 = AXIS2_PLACEMENT_3D ( 'NONE', #283, #282, #281 ) ;
#285 = DIRECTION ( 'NONE',  ( 1.000000000000000000, 0.0000000000000000000, 0.0000000000000000000 ) ) ;
#286 = DIRECTION ( 'NONE',  ( 0.0000000000000000000, 0.0000000000000000000, 1.000000000000000000 ) ) ;
#287 = AXIS2_PLACEMENT_3D ( 'NONE', #353, #286, #285 ) ;
#288 = SHAPE_REPRESENTATION ( '803-210F', ( #357, #284 ), #371 ) ;
#289 = CARTESIAN_POINT ( 'NONE',  ( 0.0000000000000000000, 0.0000000000000000000, 10.49999999999999800 ) ) ;
#290 = CARTESIAN_POINT ( 'NONE',  ( 0.0000000000000000000, 0.0000000000000000000, 0.0000000000000000000 ) ) ;
#291 = DIRECTION ( 'NONE',  ( 8.659560562354937800E-017, 0.7071067811865472400, -0.7071067811865479100 ) ) ;
#292 = VECTOR ( 'NONE', #291, 999.9999999999998900 ) ;
#293 = AXIS2_PLACEMENT_3D ( 'NONE', #290, #346, #350 ) ;
#294 = DIRECTION ( 'NONE',  ( 0.0000000000000000000, 0.0000000000000000000, 1.000000000000000000 ) ) ;
#295 = CARTESIAN_POINT ( 'NONE',  ( 1.285879139104720600E-015, 0.0000000000000000000, -10.49999999999999800 ) ) ;
#296 = LINE ( 'NONE', #295, #292 ) ;
#297 = CIRCLE ( 'NONE', #305, 10.49999999999999800 ) ;
#298 = CARTESIAN_POINT ( 'NONE',  ( 0.0000000000000000000, 0.5000000000000000000, 11.00000000000000000 ) ) ;
#299 = CARTESIAN_POINT ( 'NONE',  ( 0.0000000000000000000, 0.0000000000000000000, 0.0000000000000000000 ) ) ;
#300 = DIRECTION ( 'NONE',  ( 0.0000000000000000000, 1.000000000000000000, 0.0000000000000000000 ) ) ;
#301 = DIRECTION ( 'NONE',  ( 1.000000000000000000, 0.0000000000000000000, -1.224646799147353200E-016 ) ) ;
#302 = DIRECTION ( 'NONE',  ( 1.224646799147353200E-016, -0.0000000000000000000, 1.000000000000000000 ) ) ;
#303 = AXIS2_PLACEMENT_3D ( 'NONE', #309, #302, #301 ) ;
#304 = CYLINDRICAL_SURFACE ( 'NONE', #293, 5.999999999999998200 ) ;
#305 = AXIS2_PLACEMENT_3D ( 'NONE', #299, #352, #351 ) ;
#306 = DIRECTION ( 'NONE',  ( 1.000000000000000000, 0.0000000000000000000, 0.0000000000000000000 ) ) ;
#307 = DIRECTION ( 'NONE',  ( 0.0000000000000000000, 0.0000000000000000000, 1.000000000000000000 ) ) ;
#308 = AXIS2_PLACEMENT_3D ( 'NONE', #235, #307, #306 ) ;
#309 = CARTESIAN_POINT ( 'NONE',  ( 0.0000000000000000000, 28.04994432064365000, 0.0000000000000000000 ) ) ;
#310 = CARTESIAN_POINT ( 'NONE',  ( 0.0000000000000000000, 0.0000000000000000000, -6.000000000000000000 ) ) ;
#311 = CONICAL_SURFACE ( 'NONE', #317, 10.49999999999999800, 0.7853981633974487200 ) ;
#312 = CIRCLE ( 'NONE', #316, 5.999999999999995600 ) ;
#313 = FILL_AREA_STYLE ('',( #362 ) ) ;
#314 = DIRECTION ( 'NONE',  ( 0.0000000000000000000, 0.0000000000000000000, -1.000000000000000000 ) ) ;
#315 = DIRECTION ( 'NONE',  ( -0.0000000000000000000, -1.000000000000000000, -0.0000000000000000000 ) ) ;
#316 = AXIS2_PLACEMENT_3D ( 'NONE', #326, #315, #314 ) ;
#317 = AXIS2_PLACEMENT_3D ( 'NONE', #246, #258, #257 ) ;
#318 = CIRCLE ( 'NONE', #319, 5.999999999999995600 ) ;
#319 = AXIS2_PLACEMENT_3D ( 'NONE', #370, #369, #368 ) ;
#320 = CARTESIAN_POINT ( 'NONE',  ( 0.0000000000000000000, 5.499999999999998200, 0.0000000000000000000 ) ) ;
#321 =( GEOMETRIC_REPRESENTATION_CONTEXT ( 3 ) GLOBAL_UNCERTAINTY_ASSIGNED_CONTEXT ( ( #335 ) ) GLOBAL_UNIT_ASSIGNED_CONTEXT ( ( #245, #325, #324 ) ) REPRESENTATION_CONTEXT ( 'NONE', 'WORKASPACE' ) );
#322 = CARTESIAN_POINT ( 'NONE',  ( 0.0000000000000000000, 5.499999999999998200, 0.0000000000000000000 ) ) ;
#323 = FACE_OUTER_BOUND ( 'NONE', #113, .T. ) ;
#324 =( NAMED_UNIT ( * ) SI_UNIT ( $, .STERADIAN. ) SOLID_ANGLE_UNIT ( ) );
#325 =( NAMED_UNIT ( * ) PLANE_ANGLE_UNIT ( ) SI_UNIT ( $, .RADIAN. ) );
#326 = CARTESIAN_POINT ( 'NONE',  ( 0.0000000000000000000, 3.780622121620454300, 0.0000000000000000000 ) ) ;
#327 = CARTESIAN_POINT ( 'NONE',  ( 0.0000000000000000000, 0.0000000000000000000, 0.0000000000000000000 ) ) ;
#328 = SURFACE_SIDE_STYLE ('',( #329 ) ) ;
#329 = SURFACE_STYLE_FILL_AREA ( #313 ) ;
#330 = DIRECTION ( 'NONE',  ( 0.0000000000000000000, 0.0000000000000000000, -1.000000000000000000 ) ) ;
#331 = DIRECTION ( 'NONE',  ( 0.0000000000000000000, 0.0000000000000000000, 1.000000000000000000 ) ) ;
#332 = CIRCLE ( 'NONE', #263, 5.999999999999995600 ) ;
#333 = PRODUCT_DEFINITION_SHAPE ( 'NONE', 'NONE',  #249 ) ;
#334 = CYLINDRICAL_SURFACE ( 'NONE', #361, 11.00000000000000000 ) ;
#335 = UNCERTAINTY_MEASURE_WITH_UNIT (LENGTH_MEASURE( 1.000000000000000100E-005 ), #245, 'distance_accuracy_value', 'NONE');
#336 = DIRECTION ( 'NONE',  ( -0.0000000000000000000, -1.000000000000000000, -0.0000000000000000000 ) ) ;
#337 = AXIS2_PLACEMENT_3D ( 'NONE', #224, #336, #239 ) ;
#338 = DIRECTION ( 'NONE',  ( 0.0000000000000000000, 0.0000000000000000000, -1.000000000000000000 ) ) ;
#339 = DIRECTION ( 'NONE',  ( -0.0000000000000000000, -1.000000000000000000, -0.0000000000000000000 ) ) ;
#340 = SHAPE_DEFINITION_REPRESENTATION ( #333, #288 ) ;
#341 = FACE_OUTER_BOUND ( 'NONE', #116, .T. ) ;
#342 =( NAMED_UNIT ( * ) PLANE_ANGLE_UNIT ( ) SI_UNIT ( $, .RADIAN. ) );
#343 = SURFACE_SIDE_STYLE ('',( #344 ) ) ;
#344 = SURFACE_STYLE_FILL_AREA ( #345 ) ;
#345 = FILL_AREA_STYLE ('',( #349 ) ) ;
#346 = DIRECTION ( 'NONE',  ( -0.0000000000000000000, -1.000000000000000000, -0.0000000000000000000 ) ) ;
#347 =( LENGTH_UNIT ( ) NAMED_UNIT ( * ) SI_UNIT ( .MILLI., .METRE. ) );
#348 = FACE_OUTER_BOUND ( 'NONE', #169, .T. ) ;
#349 = FILL_AREA_STYLE_COLOUR ( '', #273 ) ;
#350 = DIRECTION ( 'NONE',  ( 0.0000000000000000000, 0.0000000000000000000, -1.000000000000000000 ) ) ;
#351 = DIRECTION ( 'NONE',  ( 0.0000000000000000000, 0.0000000000000000000, -1.000000000000000000 ) ) ;
#352 = DIRECTION ( 'NONE',  ( -0.0000000000000000000, -1.000000000000000000, -0.0000000000000000000 ) ) ;
#353 = CARTESIAN_POINT ( 'NONE',  ( 0.0000000000000000000, 0.0000000000000000000, 0.0000000000000000000 ) ) ;
#354 = SHAPE_REPRESENTATION_RELATIONSHIP ( 'NONE' , 'NONE' ,  #358, #278 ) ;
#355 = CARTESIAN_POINT ( 'NONE',  ( 0.0000000000000000000, 0.0000000000000000000, 0.0000000000000000000 ) ) ;
#356 = DIRECTION ( 'NONE',  ( 1.000000000000000000, 0.0000000000000000000, 0.0000000000000000000 ) ) ;
#357 = AXIS2_PLACEMENT_3D ( 'NONE', #355, #331, #356 ) ;
#358 = SHAPE_REPRESENTATION ( '803-210F_803F_803-210F', ( #277 ), #242 ) ;
#359 =( GEOMETRIC_REPRESENTATION_CONTEXT ( 3 ) GLOBAL_UNCERTAINTY_ASSIGNED_CONTEXT ( ( #264 ) ) GLOBAL_UNIT_ASSIGNED_CONTEXT ( ( #267, #266, #265 ) ) REPRESENTATION_CONTEXT ( 'NONE', 'WORKASPACE' ) );
#360 = DIRECTION ( 'NONE',  ( -0.0000000000000000000, -1.000000000000000000, -0.0000000000000000000 ) ) ;
#361 = AXIS2_PLACEMENT_3D ( 'NONE', #327, #360, #330 ) ;
#362 = FILL_AREA_STYLE_COLOUR ( '', #363 ) ;
#363 = COLOUR_RGB ( '',0.8235294117647058400, 0.8705882352941176600, 0.9803921568627450600 ) ;
#364 = DIRECTION ( 'NONE',  ( 0.0000000000000000000, 0.0000000000000000000, -1.000000000000000000 ) ) ;
#365 = DIRECTION ( 'NONE',  ( -0.0000000000000000000, -1.000000000000000000, -0.0000000000000000000 ) ) ;
#366 = CIRCLE ( 'NONE', #337, 5.999999999999995600 ) ;
#367 = CIRCLE ( 'NONE', #260, 10.79351708832071000 ) ;
#368 = DIRECTION ( 'NONE',  ( 0.0000000000000000000, 0.0000000000000000000, -1.000000000000000000 ) ) ;
#369 = DIRECTION ( 'NONE',  ( -0.0000000000000000000, -1.000000000000000000, -0.0000000000000000000 ) ) ;
#370 = CARTESIAN_POINT ( 'NONE',  ( 0.0000000000000000000, 3.780622121620454300, 0.0000000000000000000 ) ) ;
#371 =( GEOMETRIC_REPRESENTATION_CONTEXT ( 3 ) GLOBAL_UNCERTAINTY_ASSIGNED_CONTEXT ( ( #372 ) ) GLOBAL_UNIT_ASSIGNED_CONTEXT ( ( #280, #279, #373 ) ) REPRESENTATION_CONTEXT ( 'NONE', 'WORKASPACE' ) );
#372 = UNCERTAINTY_MEASURE_WITH_UNIT (LENGTH_MEASURE( 1.000000000000000100E-005 ), #280, 'distance_accuracy_value', 'NONE');
#373 =( NAMED_UNIT ( * ) SI_UNIT ( $, .STERADIAN. ) SOLID_ANGLE_UNIT ( ) );
ENDSEC;
END-ISO-10303-21;
