ISO-10303-21;
HEADER;
FILE_DESCRIPTION (( 'STEP AP214' ),
    '1' );
FILE_NAME ('803-208M.step',
    '2010-01-12T11:44:17',
    ( 'SysAdmin' ),
    ( 'SolidWorks' ),
    'SwSTEP 2.0',
    'SolidWorks 2010',
    '' );
FILE_SCHEMA (( 'AUTOMOTIVE_DESIGN' ));
ENDSEC;

DATA;
#1 = CARTESIAN_POINT ( 'NONE',  ( 0.0000000000000000000, 0.0000000000000000000, 0.0000000000000000000 ) ) ;
#2 = DIRECTION ( 'NONE',  ( 1.000000000000000000, 0.0000000000000000000, 0.0000000000000000000 ) ) ;
#3 = DIRECTION ( 'NONE',  ( 0.0000000000000000000, 0.0000000000000000000, 1.000000000000000000 ) ) ;
#4 = AXIS2_PLACEMENT_3D ( 'NONE', #7, #6, #5 ) ;
#5 = DIRECTION ( 'NONE',  ( -0.2025686992108054500, -6.591949208711867000E-017, -0.9792680542630003400 ) ) ;
#6 = DIRECTION ( 'NONE',  ( 0.9792680542630001200, -1.387778780781445700E-017, -0.2025686992108055300 ) ) ;
#7 = CARTESIAN_POINT ( 'NONE',  ( 5.400648600078461600E-016, 3.152961988249636200, 5.400648600078461800E-015 ) ) ;
#8 =( NAMED_UNIT ( * ) SI_UNIT ( $, .STERADIAN. ) SOLID_ANGLE_UNIT ( ) );
#9 =( NAMED_UNIT ( * ) PLANE_ANGLE_UNIT ( ) SI_UNIT ( $, .RADIAN. ) );
#10 =( LENGTH_UNIT ( ) NAMED_UNIT ( * ) SI_UNIT ( .MILLI., .METRE. ) );
#11 =( GEOMETRIC_REPRESENTATION_CONTEXT ( 3 ) GLOBAL_UNCERTAINTY_ASSIGNED_CONTEXT ( ( #12 ) ) GLOBAL_UNIT_ASSIGNED_CONTEXT ( ( #10, #9, #8 ) ) REPRESENTATION_CONTEXT ( 'NONE', 'WORKASPACE' ) );
#12 = UNCERTAINTY_MEASURE_WITH_UNIT (LENGTH_MEASURE( 1.000000000000000100E-005 ), #10, 'distance_accuracy_value', 'NONE');
#13 = DIRECTION ( 'NONE',  ( 0.0000000000000000000, 0.0000000000000000000, -1.000000000000000000 ) ) ;
#14 = DIRECTION ( 'NONE',  ( -0.0000000000000000000, -1.000000000000000000, -0.0000000000000000000 ) ) ;
#15 = DIRECTION ( 'NONE',  ( 0.0000000000000000000, -0.0000000000000000000, 1.000000000000000000 ) ) ;
#16 = DIRECTION ( 'NONE',  ( 0.0000000000000000000, 1.000000000000000000, 0.0000000000000000000 ) ) ;
#17 = CARTESIAN_POINT ( 'NONE',  ( 5.000000000000000000, 4.000000000000000000, 0.0000000000000000000 ) ) ;
#18 = AXIS2_PLACEMENT_3D ( 'NONE', #17, #16, #15 ) ;
#19 = CARTESIAN_POINT ( 'NONE',  ( 0.0000000000000000000, 0.0000000000000000000, 0.0000000000000000000 ) ) ;
#20 = CYLINDRICAL_SURFACE ( 'NONE', #26, 5.000000000000000000 ) ;
#21 = DIRECTION ( 'NONE',  ( 0.0000000000000000000, 0.0000000000000000000, -1.000000000000000000 ) ) ;
#22 = DIRECTION ( 'NONE',  ( -0.0000000000000000000, -1.000000000000000000, -0.0000000000000000000 ) ) ;
#23 = CARTESIAN_POINT ( 'NONE',  ( 0.0000000000000000000, 0.0000000000000000000, 0.0000000000000000000 ) ) ;
#24 = FACE_OUTER_BOUND ( 'NONE', #42, .T. ) ;
#25 = PLANE ( 'NONE',  #18 ) ;
#26 = AXIS2_PLACEMENT_3D ( 'NONE', #19, #14, #13 ) ;
#27 = ORIENTED_EDGE ( 'NONE', *, *, #91, .F. ) ;
#28 = AXIS2_PLACEMENT_3D ( 'NONE', #23, #22, #21 ) ;
#29 = DIRECTION ( 'NONE',  ( 1.000000000000000000, 0.0000000000000000000, 0.0000000000000000000 ) ) ;
#30 = FACE_OUTER_BOUND ( 'NONE', #52, .T. ) ;
#31 = SPHERICAL_SURFACE ( 'NONE', #94, 20.00000000000000000 ) ;
#32 = FACE_OUTER_BOUND ( 'NONE', #113, .T. ) ;
#33 = ORIENTED_EDGE ( 'NONE', *, *, #97, .F. ) ;
#34 = ORIENTED_EDGE ( 'NONE', *, *, #114, .T. ) ;
#35 = ORIENTED_EDGE ( 'NONE', *, *, #83, .F. ) ;
#36 = ORIENTED_EDGE ( 'NONE', *, *, #88, .F. ) ;
#37 = ADVANCED_FACE ( 'NONE', ( #32 ), #31, .T. ) ;
#38 = ORIENTED_EDGE ( 'NONE', *, *, #129, .T. ) ;
#39 = ORIENTED_EDGE ( 'NONE', *, *, #91, .T. ) ;
#40 = EDGE_CURVE ( 'NONE', #76, #134, #58, .T. ) ;
#41 = ORIENTED_EDGE ( 'NONE', *, *, #40, .F. ) ;
#42 = EDGE_LOOP ( 'NONE', ( #50, #33 ) ) ;
#43 = ORIENTED_EDGE ( 'NONE', *, *, #40, .T. ) ;
#44 = ORIENTED_EDGE ( 'NONE', *, *, #78, .T. ) ;
#45 = ORIENTED_EDGE ( 'NONE', *, *, #64, .T. ) ;
#46 = ADVANCED_FACE ( 'NONE', ( #47, #24 ), #25, .T. ) ;
#47 = FACE_BOUND ( 'NONE', #48, .T. ) ;
#48 = EDGE_LOOP ( 'NONE', ( #49, #39 ) ) ;
#49 = ORIENTED_EDGE ( 'NONE', *, *, #54, .T. ) ;
#50 = ORIENTED_EDGE ( 'NONE', *, *, #96, .F. ) ;
#51 = ORIENTED_EDGE ( 'NONE', *, *, #54, .F. ) ;
#52 = EDGE_LOOP ( 'NONE', ( #35, #51, #44, #43, #45 ) ) ;
#53 = ADVANCED_FACE ( 'NONE', ( #30 ), #20, .F. ) ;
#54 = EDGE_CURVE ( 'NONE', #87, #85, #267, .T. ) ;
#55 = ORIENTED_EDGE ( 'NONE', *, *, #106, .F. ) ;
#56 = ORIENTED_EDGE ( 'NONE', *, *, #108, .F. ) ;
#57 = ORIENTED_EDGE ( 'NONE', *, *, #114, .F. ) ;
#58 = CIRCLE ( 'NONE', #28, 5.000000000000000000 ) ;
#59 = CLOSED_SHELL ( 'NONE', ( #62, #80, #133, #79, #111, #115, #37, #53, #46 ) ) ;
#60 = DIRECTION ( 'NONE',  ( 0.0000000000000000000, 0.0000000000000000000, 1.000000000000000000 ) ) ;
#61 = CARTESIAN_POINT ( 'NONE',  ( 0.0000000000000000000, 19.36491673103708400, 0.0000000000000000000 ) ) ;
#62 = ADVANCED_FACE ( 'NONE', ( #324 ), #181, .F. ) ;
#63 = VERTEX_POINT ( 'NONE', #268 ) ;
#64 = EDGE_CURVE ( 'NONE', #134, #84, #321, .T. ) ;
#65 = ORIENTED_EDGE ( 'NONE', *, *, #72, .F. ) ;
#66 = EDGE_LOOP ( 'NONE', ( #136, #126, #124, #121, #89 ) ) ;
#67 = VERTEX_POINT ( 'NONE', #263 ) ;
#68 = EDGE_CURVE ( 'NONE', #67, #63, #184, .T. ) ;
#69 = EDGE_CURVE ( 'NONE', #67, #134, #183, .T. ) ;
#70 = ORIENTED_EDGE ( 'NONE', *, *, #74, .T. ) ;
#71 = EDGE_LOOP ( 'NONE', ( #122, #104, #98, #56 ) ) ;
#72 = EDGE_CURVE ( 'NONE', #84, #81, #185, .T. ) ;
#73 = EDGE_LOOP ( 'NONE', ( #75, #90, #65, #131, #132, #130 ) ) ;
#74 = EDGE_CURVE ( 'NONE', #81, #76, #262, .T. ) ;
#75 = ORIENTED_EDGE ( 'NONE', *, *, #88, .T. ) ;
#76 = VERTEX_POINT ( 'NONE', #249 ) ;
#77 = ORIENTED_EDGE ( 'NONE', *, *, #78, .F. ) ;
#78 = EDGE_CURVE ( 'NONE', #87, #76, #239, .T. ) ;
#79 = ADVANCED_FACE ( 'NONE', ( #330 ), #327, .T. ) ;
#80 = ADVANCED_FACE ( 'NONE', ( #233 ), #229, .T. ) ;
#81 = VERTEX_POINT ( 'NONE', #271 ) ;
#82 = ORIENTED_EDGE ( 'NONE', *, *, #72, .T. ) ;
#83 = EDGE_CURVE ( 'NONE', #85, #84, #219, .T. ) ;
#84 = VERTEX_POINT ( 'NONE', #220 ) ;
#85 = VERTEX_POINT ( 'NONE', #230 ) ;
#86 = ORIENTED_EDGE ( 'NONE', *, *, #83, .T. ) ;
#87 = VERTEX_POINT ( 'NONE', #237 ) ;
#88 = EDGE_CURVE ( 'NONE', #63, #93, #175, .T. ) ;
#89 = ORIENTED_EDGE ( 'NONE', *, *, #135, .F. ) ;
#90 = ORIENTED_EDGE ( 'NONE', *, *, #137, .T. ) ;
#91 = EDGE_CURVE ( 'NONE', #85, #87, #177, .T. ) ;
#92 = EDGE_LOOP ( 'NONE', ( #27, #86, #82, #70, #77 ) ) ;
#93 = VERTEX_POINT ( 'NONE', #215 ) ;
#94 = AXIS2_PLACEMENT_3D ( 'NONE', #61, #60, #29 ) ;
#95 = MANIFOLD_SOLID_BREP ( 'Revolve1', #59 ) ;
#96 = EDGE_CURVE ( 'NONE', #110, #100, #167, .T. ) ;
#97 = EDGE_CURVE ( 'NONE', #100, #110, #228, .T. ) ;
#98 = ORIENTED_EDGE ( 'NONE', *, *, #120, .F. ) ;
#99 = EDGE_CURVE ( 'NONE', #125, #127, #162, .T. ) ;
#100 = VERTEX_POINT ( 'NONE', #154 ) ;
#101 = ORIENTED_EDGE ( 'NONE', *, *, #97, .T. ) ;
#102 = ORIENTED_EDGE ( 'NONE', *, *, #99, .F. ) ;
#103 = ORIENTED_EDGE ( 'NONE', *, *, #74, .F. ) ;
#104 = ORIENTED_EDGE ( 'NONE', *, *, #106, .T. ) ;
#105 = ORIENTED_EDGE ( 'NONE', *, *, #99, .T. ) ;
#106 = EDGE_CURVE ( 'NONE', #100, #125, #153, .T. ) ;
#107 = EDGE_LOOP ( 'NONE', ( #112, #105, #116, #57, #36 ) ) ;
#108 = EDGE_CURVE ( 'NONE', #110, #127, #198, .T. ) ;
#109 = EDGE_LOOP ( 'NONE', ( #55, #101, #118, #102 ) ) ;
#110 = VERTEX_POINT ( 'NONE', #144 ) ;
#111 = ADVANCED_FACE ( 'NONE', ( #143 ), #140, .T. ) ;
#112 = ORIENTED_EDGE ( 'NONE', *, *, #128, .F. ) ;
#113 = EDGE_LOOP ( 'NONE', ( #117, #34, #38, #119, #41, #103 ) ) ;
#114 = EDGE_CURVE ( 'NONE', #93, #123, #158, .T. ) ;
#115 = ADVANCED_FACE ( 'NONE', ( #250 ), #258, .T. ) ;
#116 = ORIENTED_EDGE ( 'NONE', *, *, #135, .T. ) ;
#117 = ORIENTED_EDGE ( 'NONE', *, *, #137, .F. ) ;
#118 = ORIENTED_EDGE ( 'NONE', *, *, #108, .T. ) ;
#119 = ORIENTED_EDGE ( 'NONE', *, *, #69, .T. ) ;
#120 = EDGE_CURVE ( 'NONE', #127, #125, #209, .T. ) ;
#121 = ORIENTED_EDGE ( 'NONE', *, *, #129, .F. ) ;
#122 = ORIENTED_EDGE ( 'NONE', *, *, #96, .T. ) ;
#123 = VERTEX_POINT ( 'NONE', #254 ) ;
#124 = ORIENTED_EDGE ( 'NONE', *, *, #68, .F. ) ;
#125 = VERTEX_POINT ( 'NONE', #139 ) ;
#126 = ORIENTED_EDGE ( 'NONE', *, *, #128, .T. ) ;
#127 = VERTEX_POINT ( 'NONE', #214 ) ;
#128 = EDGE_CURVE ( 'NONE', #125, #63, #210, .T. ) ;
#129 = EDGE_CURVE ( 'NONE', #123, #67, #205, .T. ) ;
#130 = ORIENTED_EDGE ( 'NONE', *, *, #68, .T. ) ;
#131 = ORIENTED_EDGE ( 'NONE', *, *, #64, .F. ) ;
#132 = ORIENTED_EDGE ( 'NONE', *, *, #69, .F. ) ;
#133 = ADVANCED_FACE ( 'NONE', ( #201 ), #316, .T. ) ;
#134 = VERTEX_POINT ( 'NONE', #289 ) ;
#135 = EDGE_CURVE ( 'NONE', #127, #123, #291, .T. ) ;
#136 = ORIENTED_EDGE ( 'NONE', *, *, #120, .T. ) ;
#137 = EDGE_CURVE ( 'NONE', #93, #81, #292, .T. ) ;
#138 = CARTESIAN_POINT ( 'NONE',  ( 0.0000000000000000000, 3.500000000000000000, 0.0000000000000000000 ) ) ;
#139 = CARTESIAN_POINT ( 'NONE',  ( 1.224646799147353500E-015, 3.500000000000000000, 10.00000000000000200 ) ) ;
#140 = CONICAL_SURFACE ( 'NONE', #163, 10.00000000000000200, 0.7853981633974478300 ) ;
#141 = DIRECTION ( 'NONE',  ( 0.0000000000000000000, -0.7071067811865479100, -0.7071067811865472400 ) ) ;
#142 = VECTOR ( 'NONE', #141, 1000.000000000000000 ) ;
#143 = FACE_OUTER_BOUND ( 'NONE', #109, .T. ) ;
#144 = CARTESIAN_POINT ( 'NONE',  ( 0.0000000000000000000, 4.000000000000000900, -9.500000000000001800 ) ) ;
#145 = CARTESIAN_POINT ( 'NONE',  ( 0.0000000000000000000, 3.500000000000000000, -10.00000000000000200 ) ) ;
#146 = DIRECTION ( 'NONE',  ( 8.659560562354929200E-017, -0.7071067811865479100, 0.7071067811865472400 ) ) ;
#147 = VECTOR ( 'NONE', #146, 1000.000000000000000 ) ;
#148 = CARTESIAN_POINT ( 'NONE',  ( 0.0000000000000000000, 3.500000000000000000, 0.0000000000000000000 ) ) ;
#149 = AXIS2_PLACEMENT_3D ( 'NONE', #255, #212, #211 ) ;
#150 = DIRECTION ( 'NONE',  ( 0.0000000000000000000, 0.0000000000000000000, -1.000000000000000000 ) ) ;
#151 = DIRECTION ( 'NONE',  ( -0.0000000000000000000, -1.000000000000000000, -0.0000000000000000000 ) ) ;
#152 = CARTESIAN_POINT ( 'NONE',  ( 1.224646799147353500E-015, 3.500000000000000000, 10.00000000000000200 ) ) ;
#153 = LINE ( 'NONE', #152, #147 ) ;
#154 = CARTESIAN_POINT ( 'NONE',  ( 1.194030629168669500E-015, 4.000000000000000900, 9.500000000000001800 ) ) ;
#155 = DIRECTION ( 'NONE',  ( 0.0000000000000000000, 0.0000000000000000000, -1.000000000000000000 ) ) ;
#156 = DIRECTION ( 'NONE',  ( -0.0000000000000000000, -1.000000000000000000, -0.0000000000000000000 ) ) ;
#157 = AXIS2_PLACEMENT_3D ( 'NONE', #164, #151, #150 ) ;
#158 = CIRCLE ( 'NONE', #176, 10.00000000000000900 ) ;
#159 = AXIS2_PLACEMENT_3D ( 'NONE', #174, #156, #155 ) ;
#160 = DIRECTION ( 'NONE',  ( 0.0000000000000000000, 0.0000000000000000000, -1.000000000000000000 ) ) ;
#161 = DIRECTION ( 'NONE',  ( -0.0000000000000000000, -1.000000000000000000, -0.0000000000000000000 ) ) ;
#162 = CIRCLE ( 'NONE', #157, 10.00000000000000200 ) ;
#163 = AXIS2_PLACEMENT_3D ( 'NONE', #148, #260, #259 ) ;
#164 = CARTESIAN_POINT ( 'NONE',  ( 0.0000000000000000000, 3.500000000000000000, 0.0000000000000000000 ) ) ;
#165 =( GEOMETRIC_REPRESENTATION_CONTEXT ( 3 ) GLOBAL_UNCERTAINTY_ASSIGNED_CONTEXT ( ( #186 ) ) GLOBAL_UNIT_ASSIGNED_CONTEXT ( ( #189, #188, #187 ) ) REPRESENTATION_CONTEXT ( 'NONE', 'WORKASPACE' ) );
#166 = CARTESIAN_POINT ( 'NONE',  ( 0.0000000000000000000, 4.000000000000000000, 0.0000000000000000000 ) ) ;
#167 = CIRCLE ( 'NONE', #168, 9.500000000000001800 ) ;
#168 = AXIS2_PLACEMENT_3D ( 'NONE', #221, #161, #160 ) ;
#169 = AXIS2_PLACEMENT_3D ( 'NONE', #166, #200, #199 ) ;
#170 = DIRECTION ( 'NONE',  ( 0.0000000000000000000, 0.0000000000000000000, -1.000000000000000000 ) ) ;
#171 = DIRECTION ( 'NONE',  ( -0.0000000000000000000, -1.000000000000000000, -0.0000000000000000000 ) ) ;
#172 = CARTESIAN_POINT ( 'NONE',  ( 0.0000000000000000000, 2.044408655348315000, 0.0000000000000000000 ) ) ;
#173 = FILL_AREA_STYLE_COLOUR ( '', #227 ) ;
#174 = CARTESIAN_POINT ( 'NONE',  ( 0.0000000000000000000, 4.000000000000000900, 0.0000000000000000000 ) ) ;
#175 = CIRCLE ( 'NONE', #226, 10.00000000000000900 ) ;
#176 = AXIS2_PLACEMENT_3D ( 'NONE', #257, #252, #251 ) ;
#177 = CIRCLE ( 'NONE', #169, 5.000000000000000000 ) ;
#178 =( GEOMETRIC_REPRESENTATION_CONTEXT ( 3 ) GLOBAL_UNCERTAINTY_ASSIGNED_CONTEXT ( ( #179 ) ) GLOBAL_UNIT_ASSIGNED_CONTEXT ( ( #285, #277, #180 ) ) REPRESENTATION_CONTEXT ( 'NONE', 'WORKASPACE' ) );
#179 = UNCERTAINTY_MEASURE_WITH_UNIT (LENGTH_MEASURE( 1.000000000000000100E-005 ), #285, 'distance_accuracy_value', 'NONE');
#180 =( NAMED_UNIT ( * ) SI_UNIT ( $, .STERADIAN. ) SOLID_ANGLE_UNIT ( ) );
#181 = CYLINDRICAL_SURFACE ( 'NONE', #261, 5.000000000000000000 ) ;
#182 = DIRECTION ( 'NONE',  ( -0.0000000000000000000, -1.000000000000000000, -0.0000000000000000000 ) ) ;
#183 = CIRCLE ( 'NONE', #328, 20.00000000000000000 ) ;
#184 = CIRCLE ( 'NONE', #276, 10.00000000000000900 ) ;
#185 = CIRCLE ( 'NONE', #248, 5.000000000000000000 ) ;
#186 = UNCERTAINTY_MEASURE_WITH_UNIT (LENGTH_MEASURE( 1.000000000000000100E-005 ), #189, 'distance_accuracy_value', 'NONE');
#187 =( NAMED_UNIT ( * ) SI_UNIT ( $, .STERADIAN. ) SOLID_ANGLE_UNIT ( ) );
#188 =( NAMED_UNIT ( * ) PLANE_ANGLE_UNIT ( ) SI_UNIT ( $, .RADIAN. ) );
#189 =( LENGTH_UNIT ( ) NAMED_UNIT ( * ) SI_UNIT ( .MILLI., .METRE. ) );
#190 = MECHANICAL_DESIGN_GEOMETRIC_PRESENTATION_REPRESENTATION (  '', ( #192 ), #165 ) ;
#191 = PRESENTATION_LAYER_ASSIGNMENT (  '', '', ( #192 ) ) ;
#192 = STYLED_ITEM ( 'NONE', ( #193 ), #95 ) ;
#193 = PRESENTATION_STYLE_ASSIGNMENT (( #194 ) ) ;
#194 = SURFACE_STYLE_USAGE ( .BOTH. , #195 ) ;
#195 = SURFACE_SIDE_STYLE ('',( #196 ) ) ;
#196 = SURFACE_STYLE_FILL_AREA ( #197 ) ;
#197 = FILL_AREA_STYLE ('',( #173 ) ) ;
#198 = LINE ( 'NONE', #145, #142 ) ;
#199 = DIRECTION ( 'NONE',  ( 0.0000000000000000000, 0.0000000000000000000, -1.000000000000000000 ) ) ;
#200 = DIRECTION ( 'NONE',  ( -0.0000000000000000000, -1.000000000000000000, -0.0000000000000000000 ) ) ;
#201 = FACE_OUTER_BOUND ( 'NONE', #66, .T. ) ;
#202 = VECTOR ( 'NONE', #317, 1000.000000000000000 ) ;
#203 = CARTESIAN_POINT ( 'NONE',  ( 1.224646799147354000E-015, 0.0000000000000000000, 10.00000000000000500 ) ) ;
#204 = DIRECTION ( 'NONE',  ( 0.0000000000000000000, 0.0000000000000000000, -1.000000000000000000 ) ) ;
#205 = CIRCLE ( 'NONE', #253, 10.00000000000000900 ) ;
#206 = DIRECTION ( 'NONE',  ( 0.0000000000000000000, 0.0000000000000000000, -1.000000000000000000 ) ) ;
#207 = DIRECTION ( 'NONE',  ( -0.0000000000000000000, -1.000000000000000000, -0.0000000000000000000 ) ) ;
#208 = AXIS2_PLACEMENT_3D ( 'NONE', #138, #207, #206 ) ;
#209 = CIRCLE ( 'NONE', #208, 10.00000000000000200 ) ;
#210 = LINE ( 'NONE', #203, #202 ) ;
#211 = DIRECTION ( 'NONE',  ( 0.0000000000000000000, 0.0000000000000000000, -1.000000000000000000 ) ) ;
#212 = DIRECTION ( 'NONE',  ( -0.0000000000000000000, -1.000000000000000000, -0.0000000000000000000 ) ) ;
#213 = CARTESIAN_POINT ( 'NONE',  ( 0.0000000000000000000, 2.044408655348315000, 0.0000000000000000000 ) ) ;
#214 = CARTESIAN_POINT ( 'NONE',  ( 0.0000000000000000000, 3.500000000000000000, -10.00000000000000200 ) ) ;
#215 = CARTESIAN_POINT ( 'NONE',  ( -10.00000000000000900, 2.044408655348315000, 1.224646799147354200E-015 ) ) ;
#216 = DIRECTION ( 'NONE',  ( -0.0000000000000000000, -1.000000000000000000, -0.0000000000000000000 ) ) ;
#217 = VECTOR ( 'NONE', #216, 1000.000000000000000 ) ;
#218 = CARTESIAN_POINT ( 'NONE',  ( 6.123233995736766300E-016, 0.0000000000000000000, 5.000000000000000000 ) ) ;
#219 = LINE ( 'NONE', #218, #217 ) ;
#220 = CARTESIAN_POINT ( 'NONE',  ( 6.123233995736766300E-016, 0.0000000000000000000, 5.000000000000000000 ) ) ;
#221 = CARTESIAN_POINT ( 'NONE',  ( 0.0000000000000000000, 4.000000000000000900, 0.0000000000000000000 ) ) ;
#222 = DIRECTION ( 'NONE',  ( 1.000000000000000000, 0.0000000000000000000, 0.0000000000000000000 ) ) ;
#223 = DIRECTION ( 'NONE',  ( 0.0000000000000000000, 0.0000000000000000000, 1.000000000000000000 ) ) ;
#224 = CARTESIAN_POINT ( 'NONE',  ( 0.0000000000000000000, 19.36491673103708400, 0.0000000000000000000 ) ) ;
#225 = AXIS2_PLACEMENT_3D ( 'NONE', #224, #223, #222 ) ;
#226 = AXIS2_PLACEMENT_3D ( 'NONE', #172, #171, #170 ) ;
#227 = COLOUR_RGB ( '',0.8235294117647058400, 0.8705882352941176600, 0.9803921568627450600 ) ;
#228 = CIRCLE ( 'NONE', #159, 9.500000000000001800 ) ;
#229 = SPHERICAL_SURFACE ( 'NONE', #225, 20.00000000000000000 ) ;
#230 = CARTESIAN_POINT ( 'NONE',  ( 6.123233995736766300E-016, 4.000000000000000000, 5.000000000000000000 ) ) ;
#231 = DIRECTION ( 'NONE',  ( 0.0000000000000000000, 0.0000000000000000000, -1.000000000000000000 ) ) ;
#232 = DIRECTION ( 'NONE',  ( -0.0000000000000000000, -1.000000000000000000, -0.0000000000000000000 ) ) ;
#233 = FACE_OUTER_BOUND ( 'NONE', #73, .T. ) ;
#234 = CARTESIAN_POINT ( 'NONE',  ( 0.0000000000000000000, 3.500000000000000000, 0.0000000000000000000 ) ) ;
#235 = DIRECTION ( 'NONE',  ( -0.0000000000000000000, -1.000000000000000000, -0.0000000000000000000 ) ) ;
#236 = VECTOR ( 'NONE', #235, 1000.000000000000000 ) ;
#237 = CARTESIAN_POINT ( 'NONE',  ( 0.0000000000000000000, 4.000000000000000000, -5.000000000000000000 ) ) ;
#238 = CARTESIAN_POINT ( 'NONE',  ( 0.0000000000000000000, 0.0000000000000000000, -5.000000000000000000 ) ) ;
#239 = LINE ( 'NONE', #238, #236 ) ;
#240 = DIRECTION ( 'NONE',  ( 0.0000000000000000000, 0.0000000000000000000, -1.000000000000000000 ) ) ;
#241 = DIRECTION ( 'NONE',  ( -0.0000000000000000000, -1.000000000000000000, -0.0000000000000000000 ) ) ;
#242 = CARTESIAN_POINT ( 'NONE',  ( 0.0000000000000000000, 0.0000000000000000000, 0.0000000000000000000 ) ) ;
#243 = AXIS2_PLACEMENT_3D ( 'NONE', #234, #232, #231 ) ;
#244 = AXIS2_PLACEMENT_3D ( 'NONE', #242, #241, #240 ) ;
#245 = DIRECTION ( 'NONE',  ( 0.0000000000000000000, 0.0000000000000000000, -1.000000000000000000 ) ) ;
#246 = DIRECTION ( 'NONE',  ( -0.0000000000000000000, -1.000000000000000000, -0.0000000000000000000 ) ) ;
#247 = CARTESIAN_POINT ( 'NONE',  ( 0.0000000000000000000, 0.0000000000000000000, 0.0000000000000000000 ) ) ;
#248 = AXIS2_PLACEMENT_3D ( 'NONE', #247, #246, #245 ) ;
#249 = CARTESIAN_POINT ( 'NONE',  ( 0.0000000000000000000, 0.0000000000000000000, -5.000000000000000000 ) ) ;
#250 = FACE_OUTER_BOUND ( 'NONE', #107, .T. ) ;
#251 = DIRECTION ( 'NONE',  ( 0.0000000000000000000, 0.0000000000000000000, -1.000000000000000000 ) ) ;
#252 = DIRECTION ( 'NONE',  ( -0.0000000000000000000, -1.000000000000000000, -0.0000000000000000000 ) ) ;
#253 = AXIS2_PLACEMENT_3D ( 'NONE', #213, #256, #313 ) ;
#254 = CARTESIAN_POINT ( 'NONE',  ( 0.0000000000000000000, 2.044408655348315000, -10.00000000000000900 ) ) ;
#255 = CARTESIAN_POINT ( 'NONE',  ( 0.0000000000000000000, 0.0000000000000000000, 0.0000000000000000000 ) ) ;
#256 = DIRECTION ( 'NONE',  ( -0.0000000000000000000, -1.000000000000000000, -0.0000000000000000000 ) ) ;
#257 = CARTESIAN_POINT ( 'NONE',  ( 0.0000000000000000000, 2.044408655348315000, 0.0000000000000000000 ) ) ;
#258 = CYLINDRICAL_SURFACE ( 'NONE', #149, 10.00000000000000500 ) ;
#259 = DIRECTION ( 'NONE',  ( 0.0000000000000000000, 0.0000000000000000000, -1.000000000000000000 ) ) ;
#260 = DIRECTION ( 'NONE',  ( -0.0000000000000000000, -1.000000000000000000, -0.0000000000000000000 ) ) ;
#261 = AXIS2_PLACEMENT_3D ( 'NONE', #319, #323, #320 ) ;
#262 = CIRCLE ( 'NONE', #244, 5.000000000000000000 ) ;
#263 = CARTESIAN_POINT ( 'NONE',  ( 10.00000000000000900, 2.044408655348315000, 0.0000000000000000000 ) ) ;
#264 = DIRECTION ( 'NONE',  ( 0.0000000000000000000, 0.0000000000000000000, -1.000000000000000000 ) ) ;
#265 = DIRECTION ( 'NONE',  ( -0.0000000000000000000, -1.000000000000000000, -0.0000000000000000000 ) ) ;
#266 = AXIS2_PLACEMENT_3D ( 'NONE', #322, #265, #264 ) ;
#267 = CIRCLE ( 'NONE', #266, 5.000000000000000000 ) ;
#268 = CARTESIAN_POINT ( 'NONE',  ( 1.224646799147354600E-015, 2.044408655348315000, 10.00000000000001100 ) ) ;
#269 = CARTESIAN_POINT ( 'NONE',  ( 0.0000000000000000000, 2.044408655348315000, 0.0000000000000000000 ) ) ;
#270 = CARTESIAN_POINT ( 'NONE',  ( 0.0000000000000000000, 19.36491673103708400, 0.0000000000000000000 ) ) ;
#271 = CARTESIAN_POINT ( 'NONE',  ( -5.000000000000000000, 0.0000000000000000000, 9.184850993605153900E-016 ) ) ;
#272 = DIRECTION ( 'NONE',  ( 0.0000000000000000000, 0.0000000000000000000, -1.000000000000000000 ) ) ;
#273 = DIRECTION ( 'NONE',  ( -0.0000000000000000000, -1.000000000000000000, -0.0000000000000000000 ) ) ;
#274 = CARTESIAN_POINT ( 'NONE',  ( 0.0000000000000000000, 0.0000000000000000000, 0.0000000000000000000 ) ) ;
#275 = AXIS2_PLACEMENT_3D ( 'NONE', #274, #273, #272 ) ;
#276 = AXIS2_PLACEMENT_3D ( 'NONE', #269, #182, #329 ) ;
#277 =( NAMED_UNIT ( * ) PLANE_ANGLE_UNIT ( ) SI_UNIT ( $, .RADIAN. ) );
#278 = SURFACE_SIDE_STYLE ('',( #279 ) ) ;
#279 = SURFACE_STYLE_FILL_AREA ( #280 ) ;
#280 = FILL_AREA_STYLE ('',( #297 ) ) ;
#281 = DIRECTION ( 'NONE',  ( 1.000000000000000000, 0.0000000000000000000, -1.224646799147353200E-016 ) ) ;
#282 = DIRECTION ( 'NONE',  ( 1.224646799147353200E-016, -0.0000000000000000000, 1.000000000000000000 ) ) ;
#283 = CARTESIAN_POINT ( 'NONE',  ( 0.0000000000000000000, 19.36491673103708400, 0.0000000000000000000 ) ) ;
#284 = AXIS2_PLACEMENT_3D ( 'NONE', #283, #282, #281 ) ;
#285 =( LENGTH_UNIT ( ) NAMED_UNIT ( * ) SI_UNIT ( .MILLI., .METRE. ) );
#286 = COLOUR_RGB ( '',0.8235294117647058400, 0.8705882352941176600, 0.9803921568627450600 ) ;
#287 = DIRECTION ( 'NONE',  ( -0.0000000000000000000, -1.000000000000000000, -0.0000000000000000000 ) ) ;
#288 = VECTOR ( 'NONE', #287, 1000.000000000000000 ) ;
#289 = CARTESIAN_POINT ( 'NONE',  ( 5.000000000000000000, 0.0000000000000000000, 0.0000000000000000000 ) ) ;
#290 = CARTESIAN_POINT ( 'NONE',  ( 0.0000000000000000000, 0.0000000000000000000, -10.00000000000000500 ) ) ;
#291 = LINE ( 'NONE', #290, #288 ) ;
#292 = CIRCLE ( 'NONE', #284, 20.00000000000000000 ) ;
#293 = SHAPE_REPRESENTATION ( '803-208M', ( #339, #4 ), #11 ) ;
#294 = STYLED_ITEM ( 'NONE', ( #295 ), #302 ) ;
#295 = PRESENTATION_STYLE_ASSIGNMENT (( #296 ) ) ;
#296 = SURFACE_STYLE_USAGE ( .BOTH. , #278 ) ;
#297 = FILL_AREA_STYLE_COLOUR ( '', #286 ) ;
#298 = DIRECTION ( 'NONE',  ( 1.000000000000000000, 0.0000000000000000000, 0.0000000000000000000 ) ) ;
#299 = DIRECTION ( 'NONE',  ( 0.0000000000000000000, 0.0000000000000000000, 1.000000000000000000 ) ) ;
#300 = CARTESIAN_POINT ( 'NONE',  ( 0.0000000000000000000, 0.0000000000000000000, 0.0000000000000000000 ) ) ;
#301 = AXIS2_PLACEMENT_3D ( 'NONE', #300, #299, #298 ) ;
#302 = ADVANCED_BREP_SHAPE_REPRESENTATION ( '', ( #95, #301 ), #178 ) ;
#303 = SHAPE_REPRESENTATION_RELATIONSHIP ( 'NONE' , 'NONE' ,  #304, #302 ) ;
#304 = SHAPE_REPRESENTATION ( '803-208M_803M_803-208M', ( #301 ), #178 ) ;
#305 =( GEOMETRIC_REPRESENTATION_CONTEXT ( 3 ) GLOBAL_UNCERTAINTY_ASSIGNED_CONTEXT ( ( #306 ) ) GLOBAL_UNIT_ASSIGNED_CONTEXT ( ( #309, #308, #307 ) ) REPRESENTATION_CONTEXT ( 'NONE', 'WORKASPACE' ) );
#306 = UNCERTAINTY_MEASURE_WITH_UNIT (LENGTH_MEASURE( 1.000000000000000100E-005 ), #309, 'distance_accuracy_value', 'NONE');
#307 =( NAMED_UNIT ( * ) SI_UNIT ( $, .STERADIAN. ) SOLID_ANGLE_UNIT ( ) );
#308 =( NAMED_UNIT ( * ) PLANE_ANGLE_UNIT ( ) SI_UNIT ( $, .RADIAN. ) );
#309 =( LENGTH_UNIT ( ) NAMED_UNIT ( * ) SI_UNIT ( .MILLI., .METRE. ) );
#310 = MECHANICAL_DESIGN_GEOMETRIC_PRESENTATION_REPRESENTATION (  '', ( #294 ), #305 ) ;
#311 = PRESENTATION_LAYER_ASSIGNMENT (  '', '', ( #294 ) ) ;
#312 = DIRECTION ( 'NONE',  ( -0.0000000000000000000, -1.000000000000000000, -0.0000000000000000000 ) ) ;
#313 = DIRECTION ( 'NONE',  ( 0.0000000000000000000, 0.0000000000000000000, -1.000000000000000000 ) ) ;
#314 = AXIS2_PLACEMENT_3D ( 'NONE', #1, #3, #2 ) ;
#315 = AXIS2_PLACEMENT_3D ( 'NONE', #318, #312, #204 ) ;
#316 = CYLINDRICAL_SURFACE ( 'NONE', #315, 10.00000000000000500 ) ;
#317 = DIRECTION ( 'NONE',  ( -0.0000000000000000000, -1.000000000000000000, -0.0000000000000000000 ) ) ;
#318 = CARTESIAN_POINT ( 'NONE',  ( 0.0000000000000000000, 0.0000000000000000000, 0.0000000000000000000 ) ) ;
#319 = CARTESIAN_POINT ( 'NONE',  ( 0.0000000000000000000, 0.0000000000000000000, 0.0000000000000000000 ) ) ;
#320 = DIRECTION ( 'NONE',  ( 0.0000000000000000000, 0.0000000000000000000, -1.000000000000000000 ) ) ;
#321 = CIRCLE ( 'NONE', #275, 5.000000000000000000 ) ;
#322 = CARTESIAN_POINT ( 'NONE',  ( 0.0000000000000000000, 4.000000000000000000, 0.0000000000000000000 ) ) ;
#323 = DIRECTION ( 'NONE',  ( -0.0000000000000000000, -1.000000000000000000, -0.0000000000000000000 ) ) ;
#324 = FACE_OUTER_BOUND ( 'NONE', #92, .T. ) ;
#325 = DIRECTION ( 'NONE',  ( -1.000000000000000000, 0.0000000000000000000, 0.0000000000000000000 ) ) ;
#326 = DIRECTION ( 'NONE',  ( 0.0000000000000000000, 0.0000000000000000000, -1.000000000000000000 ) ) ;
#327 = CONICAL_SURFACE ( 'NONE', #243, 10.00000000000000200, 0.7853981633974478300 ) ;
#328 = AXIS2_PLACEMENT_3D ( 'NONE', #270, #326, #325 ) ;
#329 = DIRECTION ( 'NONE',  ( 0.0000000000000000000, 0.0000000000000000000, -1.000000000000000000 ) ) ;
#330 = FACE_OUTER_BOUND ( 'NONE', #71, .T. ) ;
#331 = SHAPE_DEFINITION_REPRESENTATION ( #357, #293 ) ;
#332 = PRODUCT ( '803-208M', '803-208M', '', ( #333 ) ) ;
#333 = PRODUCT_CONTEXT ( 'NONE', #340, 'mechanical' ) ;
#334 = APPLICATION_PROTOCOL_DEFINITION ( 'draft international standard', 'automotive_design', 1998, #340 ) ;
#335 = ITEM_DEFINED_TRANSFORMATION ( 'NONE', 'NONE', #4,  #301 ) ;
#336 = CARTESIAN_POINT ( 'NONE',  ( 0.0000000000000000000, 0.0000000000000000000, 0.0000000000000000000 ) ) ;
#337 = DIRECTION ( 'NONE',  ( 1.000000000000000000, 0.0000000000000000000, 0.0000000000000000000 ) ) ;
#338 = DIRECTION ( 'NONE',  ( 0.0000000000000000000, 0.0000000000000000000, 1.000000000000000000 ) ) ;
#339 = AXIS2_PLACEMENT_3D ( 'NONE', #336, #338, #337 ) ;
#340 = APPLICATION_CONTEXT ( 'automotive_design' ) ;
#341 = APPLICATION_CONTEXT ( 'automotive_design' ) ;
#342 = PRODUCT_DEFINITION_SHAPE ( 'NONE', 'NONE',  #346 ) ;
#343 = PRODUCT_RELATED_PRODUCT_CATEGORY ( 'part', '', ( #354 ) ) ;
#344 = PRODUCT_DEFINITION_FORMATION_WITH_SPECIFIED_SOURCE ( 'ANY', '', #354, .NOT_KNOWN. ) ;
#345 = SHAPE_DEFINITION_REPRESENTATION ( #342, #304 ) ;
#346 = PRODUCT_DEFINITION ( 'UNKNOWN', '', #344, #347 ) ;
#347 = PRODUCT_DEFINITION_CONTEXT ( 'detailed design', #349, 'design' ) ;
#348 = APPLICATION_PROTOCOL_DEFINITION ( 'draft international standard', 'automotive_design', 1998, #349 ) ;
#349 = APPLICATION_CONTEXT ( 'automotive_design' ) ;
#350 = PRODUCT_DEFINITION_SHAPE ( 'NONE', 'NONE',  #353 ) ;
#351 =( REPRESENTATION_RELATIONSHIP ('NONE','NONE', #293, #304 ) REPRESENTATION_RELATIONSHIP_WITH_TRANSFORMATION ( #335 )SHAPE_REPRESENTATION_RELATIONSHIP( ) );
#352 = CONTEXT_DEPENDENT_SHAPE_REPRESENTATION ( #351, #350 ) ;
#353 = NEXT_ASSEMBLY_USAGE_OCCURRENCE ( 'NAUO1', ' ', ' ', #360, #346, $ ) ;
#354 = PRODUCT ( '803-208M_803M_803-208M', '803-208M_803M_803-208M', '', ( #355 ) ) ;
#355 = PRODUCT_CONTEXT ( 'NONE', #341, 'mechanical' ) ;
#356 = APPLICATION_PROTOCOL_DEFINITION ( 'draft international standard', 'automotive_design', 1998, #341 ) ;
#357 = PRODUCT_DEFINITION_SHAPE ( 'NONE', 'NONE',  #360 ) ;
#358 = PRODUCT_RELATED_PRODUCT_CATEGORY ( 'part', '', ( #332 ) ) ;
#359 = PRODUCT_DEFINITION_FORMATION_WITH_SPECIFIED_SOURCE ( 'ANY', '', #332, .NOT_KNOWN. ) ;
#360 = PRODUCT_DEFINITION ( 'UNKNOWN', '', #359, #361 ) ;
#361 = PRODUCT_DEFINITION_CONTEXT ( 'detailed design', #363, 'design' ) ;
#362 = APPLICATION_PROTOCOL_DEFINITION ( 'draft international standard', 'automotive_design', 1998, #363 ) ;
#363 = APPLICATION_CONTEXT ( 'automotive_design' ) ;
ENDSEC;
END-ISO-10303-21;
