ISO-10303-21;
HEADER;
FILE_DESCRIPTION (( 'STEP AP214' ),
    '1' );
FILE_NAME ('WDS-803-206F.step',
    '2011-04-15T08:59:20',
    ( 'SysAdmin' ),
    ( 'SolidWorks' ),
    'SwSTEP 2.0',
    'SolidWorks 2011',
    '' );
FILE_SCHEMA (( 'AUTOMOTIVE_DESIGN' ));
ENDSEC;

DATA;
#1 = EDGE_CURVE ( 'NONE', #17, #58, #108, .T. ) ;
#2 = EDGE_LOOP ( 'NONE', ( #85, #84, #19, #69 ) ) ;
#3 = EDGE_CURVE ( 'NONE', #20, #65, #132, .T. ) ;
#4 = ORIENTED_EDGE ( 'NONE', *, *, #86, .F. ) ;
#5 = ORIENTED_EDGE ( 'NONE', *, *, #90, .T. ) ;
#6 = ADVANCED_FACE ( 'NONE', ( #186 ), #190, .F. ) ;
#7 = ORIENTED_EDGE ( 'NONE', *, *, #30, .F. ) ;
#8 = EDGE_LOOP ( 'NONE', ( #101, #12 ) ) ;
#9 = ORIENTED_EDGE ( 'NONE', *, *, #18, .F. ) ;
#10 = ORIENTED_EDGE ( 'NONE', *, *, #31, .F. ) ;
#11 = ORIENTED_EDGE ( 'NONE', *, *, #1, .T. ) ;
#12 = ORIENTED_EDGE ( 'NONE', *, *, #81, .T. ) ;
#13 = VERTEX_POINT ( 'NONE', #151 ) ;
#14 = EDGE_LOOP ( 'NONE', ( #62, #44, #48, #55 ) ) ;
#15 = ADVANCED_FACE ( 'NONE', ( #219 ), #218, .F. ) ;
#16 = VERTEX_POINT ( 'NONE', #223 ) ;
#17 = VERTEX_POINT ( 'NONE', #241 ) ;
#18 = EDGE_CURVE ( 'NONE', #65, #13, #129, .T. ) ;
#19 = ORIENTED_EDGE ( 'NONE', *, *, #49, .T. ) ;
#20 = VERTEX_POINT ( 'NONE', #238 ) ;
#21 = ORIENTED_EDGE ( 'NONE', *, *, #76, .F. ) ;
#22 = DIRECTION ( 'NONE',  ( 0.0000000000000000000, 0.0000000000000000000, -1.000000000000000000 ) ) ;
#23 = EDGE_LOOP ( 'NONE', ( #9, #102, #36, #5, #37 ) ) ;
#24 = EDGE_LOOP ( 'NONE', ( #41, #7 ) ) ;
#25 = ADVANCED_FACE ( 'NONE', ( #245 ), #192, .T. ) ;
#26 = CLOSED_SHELL ( 'NONE', ( #15, #97, #82, #71, #89, #43, #25, #29, #6, #35 ) ) ;
#27 = MANIFOLD_SOLID_BREP ( 'Cut-Revolve1', #26 ) ;
#28 = CARTESIAN_POINT ( 'NONE',  ( 0.0000000000000000000, 17.45640646055102300, 0.0000000000000000000 ) ) ;
#29 = ADVANCED_FACE ( 'NONE', ( #272 ), #155, .T. ) ;
#30 = EDGE_CURVE ( 'NONE', #98, #17, #156, .T. ) ;
#31 = EDGE_CURVE ( 'NONE', #93, #96, #178, .T. ) ;
#32 = EDGE_CURVE ( 'NONE', #51, #58, #270, .T. ) ;
#33 = ORIENTED_EDGE ( 'NONE', *, *, #32, .T. ) ;
#34 = ORIENTED_EDGE ( 'NONE', *, *, #64, .T. ) ;
#35 = ADVANCED_FACE ( 'NONE', ( #158, #247 ), #239, .F. ) ;
#36 = ORIENTED_EDGE ( 'NONE', *, *, #92, .T. ) ;
#37 = ORIENTED_EDGE ( 'NONE', *, *, #68, .T. ) ;
#38 = ORIENTED_EDGE ( 'NONE', *, *, #106, .F. ) ;
#39 = ORIENTED_EDGE ( 'NONE', *, *, #57, .F. ) ;
#40 = ORIENTED_EDGE ( 'NONE', *, *, #30, .T. ) ;
#41 = ORIENTED_EDGE ( 'NONE', *, *, #45, .F. ) ;
#42 = EDGE_LOOP ( 'NONE', ( #104, #34 ) ) ;
#43 = ADVANCED_FACE ( 'NONE', ( #173, #253 ), #268, .T. ) ;
#44 = ORIENTED_EDGE ( 'NONE', *, *, #57, .T. ) ;
#45 = EDGE_CURVE ( 'NONE', #17, #98, #126, .T. ) ;
#46 = VERTEX_POINT ( 'NONE', #180 ) ;
#47 = EDGE_LOOP ( 'NONE', ( #87, #88, #80, #91, #100 ) ) ;
#48 = ORIENTED_EDGE ( 'NONE', *, *, #49, .F. ) ;
#49 = EDGE_CURVE ( 'NONE', #58, #51, #197, .T. ) ;
#50 = EDGE_LOOP ( 'NONE', ( #74, #73, #77, #95, #70 ) ) ;
#51 = VERTEX_POINT ( 'NONE', #128 ) ;
#52 = ORIENTED_EDGE ( 'NONE', *, *, #56, .T. ) ;
#53 = ORIENTED_EDGE ( 'NONE', *, *, #18, .T. ) ;
#54 = EDGE_CURVE ( 'NONE', #13, #16, #146, .T. ) ;
#55 = ORIENTED_EDGE ( 'NONE', *, *, #1, .F. ) ;
#56 = EDGE_CURVE ( 'NONE', #16, #60, #181, .T. ) ;
#57 = EDGE_CURVE ( 'NONE', #98, #51, #141, .T. ) ;
#58 = VERTEX_POINT ( 'NONE', #125 ) ;
#59 = EDGE_LOOP ( 'NONE', ( #61, #53, #63, #52, #94 ) ) ;
#60 = VERTEX_POINT ( 'NONE', #148 ) ;
#61 = ORIENTED_EDGE ( 'NONE', *, *, #64, .F. ) ;
#62 = ORIENTED_EDGE ( 'NONE', *, *, #45, .T. ) ;
#63 = ORIENTED_EDGE ( 'NONE', *, *, #54, .T. ) ;
#64 = EDGE_CURVE ( 'NONE', #65, #20, #118, .T. ) ;
#65 = VERTEX_POINT ( 'NONE', #133 ) ;
#66 = ORIENTED_EDGE ( 'NONE', *, *, #79, .T. ) ;
#67 = DIRECTION ( 'NONE',  ( -1.000000000000000000, 0.0000000000000000000, 0.0000000000000000000 ) ) ;
#68 = EDGE_CURVE ( 'NONE', #46, #13, #114, .T. ) ;
#69 = ORIENTED_EDGE ( 'NONE', *, *, #79, .F. ) ;
#70 = ORIENTED_EDGE ( 'NONE', *, *, #54, .F. ) ;
#71 = ADVANCED_FACE ( 'NONE', ( #138 ), #179, .F. ) ;
#72 = VERTEX_POINT ( 'NONE', #117 ) ;
#73 = ORIENTED_EDGE ( 'NONE', *, *, #75, .T. ) ;
#74 = ORIENTED_EDGE ( 'NONE', *, *, #68, .F. ) ;
#75 = EDGE_CURVE ( 'NONE', #46, #83, #285, .T. ) ;
#76 = EDGE_CURVE ( 'NONE', #83, #72, #211, .T. ) ;
#77 = ORIENTED_EDGE ( 'NONE', *, *, #76, .T. ) ;
#78 = EDGE_CURVE ( 'NONE', #16, #72, #210, .T. ) ;
#79 = EDGE_CURVE ( 'NONE', #93, #51, #274, .T. ) ;
#80 = ORIENTED_EDGE ( 'NONE', *, *, #56, .F. ) ;
#81 = EDGE_CURVE ( 'NONE', #96, #93, #214, .T. ) ;
#82 = ADVANCED_FACE ( 'NONE', ( #227 ), #283, .T. ) ;
#83 = VERTEX_POINT ( 'NONE', #235 ) ;
#84 = ORIENTED_EDGE ( 'NONE', *, *, #86, .T. ) ;
#85 = ORIENTED_EDGE ( 'NONE', *, *, #81, .F. ) ;
#86 = EDGE_CURVE ( 'NONE', #96, #58, #275, .T. ) ;
#87 = ORIENTED_EDGE ( 'NONE', *, *, #75, .F. ) ;
#88 = ORIENTED_EDGE ( 'NONE', *, *, #90, .F. ) ;
#89 = ADVANCED_FACE ( 'NONE', ( #236 ), #226, .F. ) ;
#90 = EDGE_CURVE ( 'NONE', #60, #46, #204, .T. ) ;
#91 = ORIENTED_EDGE ( 'NONE', *, *, #78, .T. ) ;
#92 = EDGE_CURVE ( 'NONE', #20, #60, #206, .T. ) ;
#93 = VERTEX_POINT ( 'NONE', #355 ) ;
#94 = ORIENTED_EDGE ( 'NONE', *, *, #92, .F. ) ;
#95 = ORIENTED_EDGE ( 'NONE', *, *, #78, .F. ) ;
#96 = VERTEX_POINT ( 'NONE', #365 ) ;
#97 = ADVANCED_FACE ( 'NONE', ( #338 ), #345, .T. ) ;
#98 = VERTEX_POINT ( 'NONE', #315 ) ;
#99 = EDGE_LOOP ( 'NONE', ( #39, #40, #11, #103 ) ) ;
#100 = ORIENTED_EDGE ( 'NONE', *, *, #106, .T. ) ;
#101 = ORIENTED_EDGE ( 'NONE', *, *, #31, .T. ) ;
#102 = ORIENTED_EDGE ( 'NONE', *, *, #3, .F. ) ;
#103 = ORIENTED_EDGE ( 'NONE', *, *, #32, .F. ) ;
#104 = ORIENTED_EDGE ( 'NONE', *, *, #3, .T. ) ;
#105 = EDGE_LOOP ( 'NONE', ( #4, #10, #66, #33 ) ) ;
#106 = EDGE_CURVE ( 'NONE', #72, #83, #294, .T. ) ;
#107 = EDGE_LOOP ( 'NONE', ( #38, #21 ) ) ;
#108 = LINE ( 'NONE', #111, #110 ) ;
#109 = DIRECTION ( 'NONE',  ( -0.0000000000000000000, -1.000000000000000000, -0.0000000000000000000 ) ) ;
#110 = VECTOR ( 'NONE', #109, 1000.000000000000000 ) ;
#111 = CARTESIAN_POINT ( 'NONE',  ( 0.0000000000000000000, 0.0000000000000000000, -8.000000000000000000 ) ) ;
#112 = CARTESIAN_POINT ( 'NONE',  ( 0.0000000000000000000, 1.964473075721352400, 0.0000000000000000000 ) ) ;
#113 = AXIS2_PLACEMENT_3D ( 'NONE', #112, #217, #216 ) ;
#114 = CIRCLE ( 'NONE', #113, 3.999999999999999100 ) ;
#115 = DIRECTION ( 'NONE',  ( 0.0000000000000000000, 0.0000000000000000000, -1.000000000000000000 ) ) ;
#116 = DIRECTION ( 'NONE',  ( -0.0000000000000000000, -1.000000000000000000, -0.0000000000000000000 ) ) ;
#117 = CARTESIAN_POINT ( 'NONE',  ( 0.0000000000000000000, 0.0000000000000000000, -4.000000000000000000 ) ) ;
#118 = CIRCLE ( 'NONE', #120, 7.824239177574368900 ) ;
#119 = DIRECTION ( 'NONE',  ( -0.0000000000000000000, -1.000000000000000000, -0.0000000000000000000 ) ) ;
#120 = AXIS2_PLACEMENT_3D ( 'NONE', #139, #116, #115 ) ;
#121 = DIRECTION ( 'NONE',  ( 0.0000000000000000000, 0.0000000000000000000, -1.000000000000000000 ) ) ;
#122 = DIRECTION ( 'NONE',  ( -0.0000000000000000000, -1.000000000000000000, -0.0000000000000000000 ) ) ;
#123 = DIRECTION ( 'NONE',  ( -0.0000000000000000000, -1.000000000000000000, -0.0000000000000000000 ) ) ;
#124 = VECTOR ( 'NONE', #123, 1000.000000000000000 ) ;
#125 = CARTESIAN_POINT ( 'NONE',  ( 9.797174393178825700E-016, 0.5000000000000000000, -8.000000000000000000 ) ) ;
#126 = CIRCLE ( 'NONE', #185, 8.000000000000000000 ) ;
#127 = DIRECTION ( 'NONE',  ( 0.0000000000000000000, 0.0000000000000000000, -1.000000000000000000 ) ) ;
#128 = CARTESIAN_POINT ( 'NONE',  ( 0.0000000000000000000, 0.5000000000000000000, 8.000000000000000000 ) ) ;
#129 = CIRCLE ( 'NONE', #222, 16.00000000000000000 ) ;
#130 = DIRECTION ( 'NONE',  ( 1.000000000000000000, 0.0000000000000000000, 0.0000000000000000000 ) ) ;
#131 =( NAMED_UNIT ( * ) PLANE_ANGLE_UNIT ( ) SI_UNIT ( $, .RADIAN. ) );
#132 = CIRCLE ( 'NONE', #188, 7.824239177574368900 ) ;
#133 = CARTESIAN_POINT ( 'NONE',  ( -7.824239177574368900, 3.499999999999995100, 9.581929464579770200E-016 ) ) ;
#134 = DIRECTION ( 'NONE',  ( 0.0000000000000000000, 0.0000000000000000000, -1.000000000000000000 ) ) ;
#135 = DIRECTION ( 'NONE',  ( -0.0000000000000000000, -1.000000000000000000, -0.0000000000000000000 ) ) ;
#136 = CARTESIAN_POINT ( 'NONE',  ( 0.0000000000000000000, 1.964473075721352400, 0.0000000000000000000 ) ) ;
#137 = AXIS2_PLACEMENT_3D ( 'NONE', #136, #135, #134 ) ;
#138 = FACE_OUTER_BOUND ( 'NONE', #50, .T. ) ;
#139 = CARTESIAN_POINT ( 'NONE',  ( 0.0000000000000000000, 3.499999999999996000, 0.0000000000000000000 ) ) ;
#140 = CARTESIAN_POINT ( 'NONE',  ( 9.797174393178825700E-016, 0.0000000000000000000, 8.000000000000000000 ) ) ;
#141 = LINE ( 'NONE', #140, #124 ) ;
#142 = DIRECTION ( 'NONE',  ( 0.0000000000000000000, 0.0000000000000000000, -1.000000000000000000 ) ) ;
#143 = DIRECTION ( 'NONE',  ( -0.0000000000000000000, -1.000000000000000000, -0.0000000000000000000 ) ) ;
#144 = CARTESIAN_POINT ( 'NONE',  ( 0.0000000000000000000, 1.964473075721352400, 0.0000000000000000000 ) ) ;
#145 = AXIS2_PLACEMENT_3D ( 'NONE', #144, #143, #142 ) ;
#146 = CIRCLE ( 'NONE', #145, 3.999999999999999100 ) ;
#147 = AXIS2_PLACEMENT_3D ( 'NONE', #215, #122, #121 ) ;
#148 = CARTESIAN_POINT ( 'NONE',  ( 3.999999999999999100, 1.964473075721352400, 0.0000000000000000000 ) ) ;
#149 =( LENGTH_UNIT ( ) NAMED_UNIT ( * ) SI_UNIT ( .MILLI., .METRE. ) );
#150 = MECHANICAL_DESIGN_GEOMETRIC_PRESENTATION_REPRESENTATION (  '', ( #261 ), #246 ) ;
#151 = CARTESIAN_POINT ( 'NONE',  ( -3.999999999999999100, 1.964473075721352400, 7.240258330584590000E-016 ) ) ;
#152 = CARTESIAN_POINT ( 'NONE',  ( 0.0000000000000000000, 0.0000000000000000000, 0.0000000000000000000 ) ) ;
#153 = SURFACE_STYLE_FILL_AREA ( #160 ) ;
#154 = DIRECTION ( 'NONE',  ( 0.0000000000000000000, 0.0000000000000000000, -1.000000000000000000 ) ) ;
#155 = CYLINDRICAL_SURFACE ( 'NONE', #271, 8.000000000000000000 ) ;
#156 = CIRCLE ( 'NONE', #177, 8.000000000000000000 ) ;
#157 = DIRECTION ( 'NONE',  ( -0.0000000000000000000, -1.000000000000000000, -0.0000000000000000000 ) ) ;
#158 = FACE_OUTER_BOUND ( 'NONE', #24, .T. ) ;
#159 = DIRECTION ( 'NONE',  ( 0.0000000000000000000, 1.000000000000000000, 0.0000000000000000000 ) ) ;
#160 = FILL_AREA_STYLE ('',( #242 ) ) ;
#161 = DIRECTION ( 'NONE',  ( 0.0000000000000000000, 0.0000000000000000000, 1.000000000000000000 ) ) ;
#162 = DIRECTION ( 'NONE',  ( 0.0000000000000000000, 0.0000000000000000000, -1.000000000000000000 ) ) ;
#163 = CARTESIAN_POINT ( 'NONE',  ( 0.0000000000000000000, 0.0000000000000000000, 0.0000000000000000000 ) ) ;
#164 = AXIS2_PLACEMENT_3D ( 'NONE', #244, #161, #259 ) ;
#165 = DIRECTION ( 'NONE',  ( 0.0000000000000000000, 0.0000000000000000000, 1.000000000000000000 ) ) ;
#166 = DIRECTION ( 'NONE',  ( 0.0000000000000000000, -1.000000000000000000, -0.0000000000000000000 ) ) ;
#167 = CARTESIAN_POINT ( 'NONE',  ( 4.000000000000000000, 0.0000000000000000000, 0.0000000000000000000 ) ) ;
#168 = AXIS2_PLACEMENT_3D ( 'NONE', #167, #183, #182 ) ;
#169 = AXIS2_PLACEMENT_3D ( 'NONE', #174, #166, #127 ) ;
#170 = DIRECTION ( 'NONE',  ( 0.0000000000000000000, 0.0000000000000000000, -1.000000000000000000 ) ) ;
#171 = DIRECTION ( 'NONE',  ( -0.0000000000000000000, -1.000000000000000000, -0.0000000000000000000 ) ) ;
#172 = CARTESIAN_POINT ( 'NONE',  ( 0.0000000000000000000, 17.45640646055102300, 0.0000000000000000000 ) ) ;
#173 = FACE_OUTER_BOUND ( 'NONE', #8, .T. ) ;
#174 = CARTESIAN_POINT ( 'NONE',  ( 8.000000000000000000, 3.499999999999996900, 0.0000000000000000000 ) ) ;
#175 = DIRECTION ( 'NONE',  ( 0.0000000000000000000, 0.0000000000000000000, -1.000000000000000000 ) ) ;
#176 = DIRECTION ( 'NONE',  ( -0.0000000000000000000, -1.000000000000000000, -0.0000000000000000000 ) ) ;
#177 = AXIS2_PLACEMENT_3D ( 'NONE', #269, #176, #175 ) ;
#178 = CIRCLE ( 'NONE', #252, 7.500000000000000000 ) ;
#179 = CYLINDRICAL_SURFACE ( 'NONE', #147, 4.000000000000000000 ) ;
#180 = CARTESIAN_POINT ( 'NONE',  ( 4.898587196589411800E-016, 1.964473075721352400, 3.999999999999999100 ) ) ;
#181 = CIRCLE ( 'NONE', #137, 3.999999999999999100 ) ;
#182 = DIRECTION ( 'NONE',  ( 0.0000000000000000000, 0.0000000000000000000, -1.000000000000000000 ) ) ;
#183 = DIRECTION ( 'NONE',  ( 0.0000000000000000000, -1.000000000000000000, -0.0000000000000000000 ) ) ;
#184 = DIRECTION ( 'NONE',  ( -0.0000000000000000000, -1.000000000000000000, -0.0000000000000000000 ) ) ;
#185 = AXIS2_PLACEMENT_3D ( 'NONE', #267, #184, #198 ) ;
#186 = FACE_OUTER_BOUND ( 'NONE', #23, .T. ) ;
#187 = AXIS2_PLACEMENT_3D ( 'NONE', #172, #165, #130 ) ;
#188 = AXIS2_PLACEMENT_3D ( 'NONE', #266, #189, #162 ) ;
#189 = DIRECTION ( 'NONE',  ( -0.0000000000000000000, -1.000000000000000000, -0.0000000000000000000 ) ) ;
#190 = SPHERICAL_SURFACE ( 'NONE', #164, 16.00000000000000000 ) ;
#191 = COLOUR_RGB ( '',0.8235294117647058400, 0.8705882352941176600, 0.9803921568627450600 ) ;
#192 = CONICAL_SURFACE ( 'NONE', #265, 7.500000000000000000, 0.7853981633974487200 ) ;
#193 = DIRECTION ( 'NONE',  ( 0.0000000000000000000, 0.0000000000000000000, -1.000000000000000000 ) ) ;
#194 = DIRECTION ( 'NONE',  ( -0.0000000000000000000, -1.000000000000000000, -0.0000000000000000000 ) ) ;
#195 = CARTESIAN_POINT ( 'NONE',  ( 0.0000000000000000000, 0.5000000000000000000, 0.0000000000000000000 ) ) ;
#196 = AXIS2_PLACEMENT_3D ( 'NONE', #195, #194, #193 ) ;
#197 = CIRCLE ( 'NONE', #196, 8.000000000000000000 ) ;
#198 = DIRECTION ( 'NONE',  ( 0.0000000000000000000, 0.0000000000000000000, -1.000000000000000000 ) ) ;
#199 = UNCERTAINTY_MEASURE_WITH_UNIT (LENGTH_MEASURE( 1.000000000000000100E-005 ), #149, 'distance_accuracy_value', 'NONE');
#200 =( NAMED_UNIT ( * ) SI_UNIT ( $, .STERADIAN. ) SOLID_ANGLE_UNIT ( ) );
#201 = DIRECTION ( 'NONE',  ( 0.0000000000000000000, 0.0000000000000000000, -1.000000000000000000 ) ) ;
#202 = DIRECTION ( 'NONE',  ( -0.0000000000000000000, -1.000000000000000000, -0.0000000000000000000 ) ) ;
#203 = AXIS2_PLACEMENT_3D ( 'NONE', #207, #202, #201 ) ;
#204 = CIRCLE ( 'NONE', #203, 3.999999999999999100 ) ;
#205 = AXIS2_PLACEMENT_3D ( 'NONE', #28, #22, #67 ) ;
#206 = CIRCLE ( 'NONE', #205, 16.00000000000000000 ) ;
#207 = CARTESIAN_POINT ( 'NONE',  ( 0.0000000000000000000, 1.964473075721352400, 0.0000000000000000000 ) ) ;
#208 = AXIS2_PLACEMENT_3D ( 'NONE', #230, #229, #228 ) ;
#209 = CARTESIAN_POINT ( 'NONE',  ( 4.898587196589412800E-016, 0.0000000000000000000, 4.000000000000000000 ) ) ;
#210 = LINE ( 'NONE', #213, #276 ) ;
#211 = CIRCLE ( 'NONE', #282, 4.000000000000000000 ) ;
#212 = DIRECTION ( 'NONE',  ( -0.0000000000000000000, -1.000000000000000000, -0.0000000000000000000 ) ) ;
#213 = CARTESIAN_POINT ( 'NONE',  ( 0.0000000000000000000, 0.0000000000000000000, -4.000000000000000000 ) ) ;
#214 = CIRCLE ( 'NONE', #208, 7.500000000000000000 ) ;
#215 = CARTESIAN_POINT ( 'NONE',  ( 0.0000000000000000000, 0.0000000000000000000, 0.0000000000000000000 ) ) ;
#216 = DIRECTION ( 'NONE',  ( 0.0000000000000000000, 0.0000000000000000000, -1.000000000000000000 ) ) ;
#217 = DIRECTION ( 'NONE',  ( -0.0000000000000000000, -1.000000000000000000, -0.0000000000000000000 ) ) ;
#218 = SPHERICAL_SURFACE ( 'NONE', #187, 16.00000000000000000 ) ;
#219 = FACE_OUTER_BOUND ( 'NONE', #59, .T. ) ;
#220 = DIRECTION ( 'NONE',  ( 1.224646799147353200E-016, -0.0000000000000000000, 1.000000000000000000 ) ) ;
#221 = CARTESIAN_POINT ( 'NONE',  ( 0.0000000000000000000, 17.45640646055102300, 0.0000000000000000000 ) ) ;
#222 = AXIS2_PLACEMENT_3D ( 'NONE', #221, #220, #240 ) ;
#223 = CARTESIAN_POINT ( 'NONE',  ( 0.0000000000000000000, 1.964473075721352400, -3.999999999999999100 ) ) ;
#224 = AXIS2_PLACEMENT_3D ( 'NONE', #248, #171, #170 ) ;
#225 = DIRECTION ( 'NONE',  ( 0.0000000000000000000, 0.0000000000000000000, 1.000000000000000000 ) ) ;
#226 = CYLINDRICAL_SURFACE ( 'NONE', #258, 4.000000000000000000 ) ;
#227 = FACE_OUTER_BOUND ( 'NONE', #2, .T. ) ;
#228 = DIRECTION ( 'NONE',  ( 0.0000000000000000000, 0.0000000000000000000, -1.000000000000000000 ) ) ;
#229 = DIRECTION ( 'NONE',  ( -0.0000000000000000000, -1.000000000000000000, -0.0000000000000000000 ) ) ;
#230 = CARTESIAN_POINT ( 'NONE',  ( 0.0000000000000000000, 0.0000000000000000000, 0.0000000000000000000 ) ) ;
#231 = DIRECTION ( 'NONE',  ( 0.0000000000000000000, 1.000000000000000000, 0.0000000000000000000 ) ) ;
#232 = CARTESIAN_POINT ( 'NONE',  ( 9.184850993605147900E-016, 0.0000000000000000000, -7.500000000000000000 ) ) ;
#233 = DIRECTION ( 'NONE',  ( 0.0000000000000000000, 0.0000000000000000000, -1.000000000000000000 ) ) ;
#234 = AXIS2_PLACEMENT_3D ( 'NONE', #273, #231, #225 ) ;
#235 = CARTESIAN_POINT ( 'NONE',  ( 4.898587196589412800E-016, 0.0000000000000000000, 4.000000000000000000 ) ) ;
#236 = FACE_OUTER_BOUND ( 'NONE', #47, .T. ) ;
#237 = VECTOR ( 'NONE', #277, 999.9999999999998900 ) ;
#238 = CARTESIAN_POINT ( 'NONE',  ( 7.824239177574368900, 3.499999999999995100, 0.0000000000000000000 ) ) ;
#239 = PLANE ( 'NONE',  #169 ) ;
#240 = DIRECTION ( 'NONE',  ( 1.000000000000000000, 0.0000000000000000000, -1.224646799147353200E-016 ) ) ;
#241 = CARTESIAN_POINT ( 'NONE',  ( 0.0000000000000000000, 3.499999999999997800, -8.000000000000000000 ) ) ;
#242 = FILL_AREA_STYLE_COLOUR ( '', #191 ) ;
#243 = DIRECTION ( 'NONE',  ( 0.0000000000000000000, 0.0000000000000000000, 1.000000000000000000 ) ) ;
#244 = CARTESIAN_POINT ( 'NONE',  ( 0.0000000000000000000, 17.45640646055102300, 0.0000000000000000000 ) ) ;
#245 = FACE_OUTER_BOUND ( 'NONE', #105, .T. ) ;
#246 =( GEOMETRIC_REPRESENTATION_CONTEXT ( 3 ) GLOBAL_UNCERTAINTY_ASSIGNED_CONTEXT ( ( #199 ) ) GLOBAL_UNIT_ASSIGNED_CONTEXT ( ( #149, #131, #200 ) ) REPRESENTATION_CONTEXT ( 'NONE', 'WORKASPACE' ) );
#247 = FACE_BOUND ( 'NONE', #42, .T. ) ;
#248 = CARTESIAN_POINT ( 'NONE',  ( 0.0000000000000000000, 0.5000000000000000000, 0.0000000000000000000 ) ) ;
#249 = DIRECTION ( 'NONE',  ( 0.0000000000000000000, 0.0000000000000000000, -1.000000000000000000 ) ) ;
#250 = DIRECTION ( 'NONE',  ( -0.0000000000000000000, -1.000000000000000000, -0.0000000000000000000 ) ) ;
#251 = CARTESIAN_POINT ( 'NONE',  ( 0.0000000000000000000, 0.0000000000000000000, 0.0000000000000000000 ) ) ;
#252 = AXIS2_PLACEMENT_3D ( 'NONE', #251, #250, #249 ) ;
#253 = FACE_BOUND ( 'NONE', #107, .T. ) ;
#254 = DIRECTION ( 'NONE',  ( -0.0000000000000000000, -1.000000000000000000, -0.0000000000000000000 ) ) ;
#255 = DIRECTION ( 'NONE',  ( 8.659560562354937800E-017, 0.7071067811865472400, -0.7071067811865479100 ) ) ;
#256 = VECTOR ( 'NONE', #255, 999.9999999999998900 ) ;
#257 = CARTESIAN_POINT ( 'NONE',  ( 0.0000000000000000000, 0.0000000000000000000, 0.0000000000000000000 ) ) ;
#258 = AXIS2_PLACEMENT_3D ( 'NONE', #257, #254, #233 ) ;
#259 = DIRECTION ( 'NONE',  ( 1.000000000000000000, 0.0000000000000000000, 0.0000000000000000000 ) ) ;
#260 = PRESENTATION_LAYER_ASSIGNMENT (  '', '', ( #261 ) ) ;
#261 = STYLED_ITEM ( 'NONE', ( #262 ), #27 ) ;
#262 = PRESENTATION_STYLE_ASSIGNMENT (( #263 ) ) ;
#263 = SURFACE_STYLE_USAGE ( .BOTH. , #264 ) ;
#264 = SURFACE_SIDE_STYLE ('',( #153 ) ) ;
#265 = AXIS2_PLACEMENT_3D ( 'NONE', #152, #159, #243 ) ;
#266 = CARTESIAN_POINT ( 'NONE',  ( 0.0000000000000000000, 3.499999999999996000, 0.0000000000000000000 ) ) ;
#267 = CARTESIAN_POINT ( 'NONE',  ( 0.0000000000000000000, 3.499999999999997800, 0.0000000000000000000 ) ) ;
#268 = PLANE ( 'NONE',  #168 ) ;
#269 = CARTESIAN_POINT ( 'NONE',  ( 0.0000000000000000000, 3.499999999999997800, 0.0000000000000000000 ) ) ;
#270 = CIRCLE ( 'NONE', #224, 8.000000000000000000 ) ;
#271 = AXIS2_PLACEMENT_3D ( 'NONE', #163, #157, #154 ) ;
#272 = FACE_OUTER_BOUND ( 'NONE', #99, .T. ) ;
#273 = CARTESIAN_POINT ( 'NONE',  ( 0.0000000000000000000, 0.0000000000000000000, 0.0000000000000000000 ) ) ;
#274 = LINE ( 'NONE', #278, #237 ) ;
#275 = LINE ( 'NONE', #232, #256 ) ;
#276 = VECTOR ( 'NONE', #212, 1000.000000000000000 ) ;
#277 = DIRECTION ( 'NONE',  ( 0.0000000000000000000, 0.7071067811865472400, 0.7071067811865479100 ) ) ;
#278 = CARTESIAN_POINT ( 'NONE',  ( 0.0000000000000000000, 0.0000000000000000000, 7.500000000000000000 ) ) ;
#279 = DIRECTION ( 'NONE',  ( 0.0000000000000000000, 0.0000000000000000000, -1.000000000000000000 ) ) ;
#280 = DIRECTION ( 'NONE',  ( -0.0000000000000000000, -1.000000000000000000, -0.0000000000000000000 ) ) ;
#281 = CARTESIAN_POINT ( 'NONE',  ( 0.0000000000000000000, 0.0000000000000000000, 0.0000000000000000000 ) ) ;
#282 = AXIS2_PLACEMENT_3D ( 'NONE', #281, #280, #279 ) ;
#283 = CONICAL_SURFACE ( 'NONE', #234, 7.500000000000000000, 0.7853981633974487200 ) ;
#284 = VECTOR ( 'NONE', #119, 1000.000000000000000 ) ;
#285 = LINE ( 'NONE', #209, #284 ) ;
#286 = DIRECTION ( 'NONE',  ( 0.0000000000000000000, 0.0000000000000000000, 1.000000000000000000 ) ) ;
#287 = DIRECTION ( 'NONE',  ( 0.0000000000000000000, 0.0000000000000000000, 1.000000000000000000 ) ) ;
#288 = CARTESIAN_POINT ( 'NONE',  ( 0.0000000000000000000, 0.0000000000000000000, 0.0000000000000000000 ) ) ;
#289 = AXIS2_PLACEMENT_3D ( 'NONE', #288, #287, #352 ) ;
#290 = SHAPE_REPRESENTATION ( 'WDS-803-206F', ( #363, #351 ), #373 ) ;
#291 = DIRECTION ( 'NONE',  ( 0.0000000000000000000, 0.0000000000000000000, -1.000000000000000000 ) ) ;
#292 = AXIS2_PLACEMENT_3D ( 'NONE', #314, #293, #291 ) ;
#293 = DIRECTION ( 'NONE',  ( -0.0000000000000000000, -1.000000000000000000, -0.0000000000000000000 ) ) ;
#294 = CIRCLE ( 'NONE', #292, 4.000000000000000000 ) ;
#295 =( LENGTH_UNIT ( ) NAMED_UNIT ( * ) SI_UNIT ( .MILLI., .METRE. ) );
#296 = PRODUCT_DEFINITION_SHAPE ( 'NONE', 'NONE',  #300 ) ;
#297 = PRODUCT_RELATED_PRODUCT_CATEGORY ( 'part', '', ( #305 ) ) ;
#298 = PRODUCT_DEFINITION_FORMATION_WITH_SPECIFIED_SOURCE ( 'ANY', '', #305, .NOT_KNOWN. ) ;
#299 = SHAPE_DEFINITION_REPRESENTATION ( #296, #326 ) ;
#300 = PRODUCT_DEFINITION ( 'UNKNOWN', '', #298, #301 ) ;
#301 = PRODUCT_DEFINITION_CONTEXT ( 'detailed design', #303, 'design' ) ;
#302 = APPLICATION_PROTOCOL_DEFINITION ( 'draft international standard', 'automotive_design', 1998, #303 ) ;
#303 = APPLICATION_CONTEXT ( 'automotive_design' ) ;
#304 =( REPRESENTATION_RELATIONSHIP ('NONE','NONE', #290, #326 ) REPRESENTATION_RELATIONSHIP_WITH_TRANSFORMATION ( #369 )SHAPE_REPRESENTATION_RELATIONSHIP( ) );
#305 = PRODUCT ( 'WDS-803-206F_803F_803-206F', 'WDS-803-206F_803F_803-206F', '', ( #306 ) ) ;
#306 = PRODUCT_CONTEXT ( 'NONE', #370, 'mechanical' ) ;
#307 = APPLICATION_PROTOCOL_DEFINITION ( 'draft international standard', 'automotive_design', 1998, #370 ) ;
#308 = CONTEXT_DEPENDENT_SHAPE_REPRESENTATION ( #304, #372 ) ;
#309 = NEXT_ASSEMBLY_USAGE_OCCURRENCE ( 'NAUO1', ' ', ' ', #319, #300, $ ) ;
#310 = FILL_AREA_STYLE_COLOUR ( '', #311 ) ;
#311 = COLOUR_RGB ( '',0.8235294117647058400, 0.8705882352941176600, 0.9803921568627450600 ) ;
#312 = DIRECTION ( 'NONE',  ( 1.000000000000000000, 0.0000000000000000000, 0.0000000000000000000 ) ) ;
#313 = UNCERTAINTY_MEASURE_WITH_UNIT (LENGTH_MEASURE( 1.000000000000000100E-005 ), #295, 'distance_accuracy_value', 'NONE');
#314 = CARTESIAN_POINT ( 'NONE',  ( 0.0000000000000000000, 0.0000000000000000000, 0.0000000000000000000 ) ) ;
#315 = CARTESIAN_POINT ( 'NONE',  ( 9.797174393178825700E-016, 3.499999999999997800, 8.000000000000000000 ) ) ;
#316 = PRODUCT_DEFINITION_SHAPE ( 'NONE', 'NONE',  #319 ) ;
#317 = PRODUCT_RELATED_PRODUCT_CATEGORY ( 'part', '', ( #323 ) ) ;
#318 = PRODUCT_DEFINITION_FORMATION_WITH_SPECIFIED_SOURCE ( 'ANY', '', #323, .NOT_KNOWN. ) ;
#319 = PRODUCT_DEFINITION ( 'UNKNOWN', '', #318, #320 ) ;
#320 = PRODUCT_DEFINITION_CONTEXT ( 'detailed design', #322, 'design' ) ;
#321 = APPLICATION_PROTOCOL_DEFINITION ( 'draft international standard', 'automotive_design', 1998, #322 ) ;
#322 = APPLICATION_CONTEXT ( 'automotive_design' ) ;
#323 = PRODUCT ( 'WDS-803-206F', 'WDS-803-206F', '', ( #335 ) ) ;
#324 = SURFACE_STYLE_FILL_AREA ( #325 ) ;
#325 = FILL_AREA_STYLE ('',( #310 ) ) ;
#326 = SHAPE_REPRESENTATION ( 'WDS-803-206F_803F_803-206F', ( #358 ), #337 ) ;
#327 = DIRECTION ( 'NONE',  ( 0.0000000000000000000, 0.0000000000000000000, -1.000000000000000000 ) ) ;
#328 = AXIS2_PLACEMENT_3D ( 'NONE', #361, #360, #327 ) ;
#329 = UNCERTAINTY_MEASURE_WITH_UNIT (LENGTH_MEASURE( 1.000000000000000100E-005 ), #354, 'distance_accuracy_value', 'NONE');
#330 =( NAMED_UNIT ( * ) SI_UNIT ( $, .STERADIAN. ) SOLID_ANGLE_UNIT ( ) );
#331 =( NAMED_UNIT ( * ) PLANE_ANGLE_UNIT ( ) SI_UNIT ( $, .RADIAN. ) );
#332 = SHAPE_DEFINITION_REPRESENTATION ( #316, #290 ) ;
#333 = DIRECTION ( 'NONE',  ( 1.000000000000000000, 0.0000000000000000000, 0.0000000000000000000 ) ) ;
#334 = SHAPE_REPRESENTATION_RELATIONSHIP ( 'NONE' , 'NONE' ,  #326, #359 ) ;
#335 = PRODUCT_CONTEXT ( 'NONE', #371, 'mechanical' ) ;
#336 = APPLICATION_PROTOCOL_DEFINITION ( 'draft international standard', 'automotive_design', 1998, #371 ) ;
#337 =( GEOMETRIC_REPRESENTATION_CONTEXT ( 3 ) GLOBAL_UNCERTAINTY_ASSIGNED_CONTEXT ( ( #313 ) ) GLOBAL_UNIT_ASSIGNED_CONTEXT ( ( #295, #331, #346 ) ) REPRESENTATION_CONTEXT ( 'NONE', 'WORKASPACE' ) );
#338 = FACE_OUTER_BOUND ( 'NONE', #14, .T. ) ;
#339 = MECHANICAL_DESIGN_GEOMETRIC_PRESENTATION_REPRESENTATION (  '', ( #341 ), #347 ) ;
#340 = PRESENTATION_LAYER_ASSIGNMENT (  '', '', ( #341 ) ) ;
#341 = STYLED_ITEM ( 'NONE', ( #342 ), #359 ) ;
#342 = PRESENTATION_STYLE_ASSIGNMENT (( #343 ) ) ;
#343 = SURFACE_STYLE_USAGE ( .BOTH. , #344 ) ;
#344 = SURFACE_SIDE_STYLE ('',( #324 ) ) ;
#345 = CYLINDRICAL_SURFACE ( 'NONE', #328, 8.000000000000000000 ) ;
#346 =( NAMED_UNIT ( * ) SI_UNIT ( $, .STERADIAN. ) SOLID_ANGLE_UNIT ( ) );
#347 =( GEOMETRIC_REPRESENTATION_CONTEXT ( 3 ) GLOBAL_UNCERTAINTY_ASSIGNED_CONTEXT ( ( #329 ) ) GLOBAL_UNIT_ASSIGNED_CONTEXT ( ( #354, #353, #330 ) ) REPRESENTATION_CONTEXT ( 'NONE', 'WORKASPACE' ) );
#348 = DIRECTION ( 'NONE',  ( 1.000000000000000000, 0.0000000000000000000, 0.0000000000000000000 ) ) ;
#349 = DIRECTION ( 'NONE',  ( 0.0000000000000000000, 0.0000000000000000000, 1.000000000000000000 ) ) ;
#350 = CARTESIAN_POINT ( 'NONE',  ( 0.0000000000000000000, 0.0000000000000000000, 0.0000000000000000000 ) ) ;
#351 = AXIS2_PLACEMENT_3D ( 'NONE', #350, #349, #348 ) ;
#352 = DIRECTION ( 'NONE',  ( 1.000000000000000000, 0.0000000000000000000, 0.0000000000000000000 ) ) ;
#353 =( NAMED_UNIT ( * ) PLANE_ANGLE_UNIT ( ) SI_UNIT ( $, .RADIAN. ) );
#354 =( LENGTH_UNIT ( ) NAMED_UNIT ( * ) SI_UNIT ( .MILLI., .METRE. ) );
#355 = CARTESIAN_POINT ( 'NONE',  ( 0.0000000000000000000, 0.0000000000000000000, 7.500000000000000000 ) ) ;
#356 = DIRECTION ( 'NONE',  ( 0.0000000000000000000, 0.0000000000000000000, 1.000000000000000000 ) ) ;
#357 = CARTESIAN_POINT ( 'NONE',  ( 0.0000000000000000000, 0.0000000000000000000, 0.0000000000000000000 ) ) ;
#358 = AXIS2_PLACEMENT_3D ( 'NONE', #357, #356, #312 ) ;
#359 = ADVANCED_BREP_SHAPE_REPRESENTATION ( '', ( #27, #358 ), #337 ) ;
#360 = DIRECTION ( 'NONE',  ( -0.0000000000000000000, -1.000000000000000000, -0.0000000000000000000 ) ) ;
#361 = CARTESIAN_POINT ( 'NONE',  ( 0.0000000000000000000, 0.0000000000000000000, 0.0000000000000000000 ) ) ;
#362 = CARTESIAN_POINT ( 'NONE',  ( 0.0000000000000000000, 0.0000000000000000000, 0.0000000000000000000 ) ) ;
#363 = AXIS2_PLACEMENT_3D ( 'NONE', #362, #286, #333 ) ;
#364 = UNCERTAINTY_MEASURE_WITH_UNIT (LENGTH_MEASURE( 1.000000000000000100E-005 ), #368, 'distance_accuracy_value', 'NONE');
#365 = CARTESIAN_POINT ( 'NONE',  ( 9.491012693391985800E-016, 0.0000000000000000000, -7.500000000000000000 ) ) ;
#366 =( NAMED_UNIT ( * ) SI_UNIT ( $, .STERADIAN. ) SOLID_ANGLE_UNIT ( ) );
#367 =( NAMED_UNIT ( * ) PLANE_ANGLE_UNIT ( ) SI_UNIT ( $, .RADIAN. ) );
#368 =( LENGTH_UNIT ( ) NAMED_UNIT ( * ) SI_UNIT ( .MILLI., .METRE. ) );
#369 = ITEM_DEFINED_TRANSFORMATION ( 'NONE', 'NONE', #351,  #358 ) ;
#370 = APPLICATION_CONTEXT ( 'automotive_design' ) ;
#371 = APPLICATION_CONTEXT ( 'automotive_design' ) ;
#372 = PRODUCT_DEFINITION_SHAPE ( 'NONE', 'NONE',  #309 ) ;
#373 =( GEOMETRIC_REPRESENTATION_CONTEXT ( 3 ) GLOBAL_UNCERTAINTY_ASSIGNED_CONTEXT ( ( #364 ) ) GLOBAL_UNIT_ASSIGNED_CONTEXT ( ( #368, #367, #366 ) ) REPRESENTATION_CONTEXT ( 'NONE', 'WORKASPACE' ) );
ENDSEC;
END-ISO-10303-21;
