ISO-10303-21;
HEADER;
FILE_DESCRIPTION (( 'STEP AP203' ),
    '1' );
FILE_NAME ('629-204.step',
    '2010-04-26T16:38:49',
    ( 'SysAdmin' ),
    ( 'SolidWorks' ),
    'SwSTEP 2.0',
    'SolidWorks 2010',
    '' );
FILE_SCHEMA (( 'CONFIG_CONTROL_DESIGN' ));
ENDSEC;

DATA;
#1 = CC_DESIGN_DATE_AND_TIME_ASSIGNMENT ( #74, #7, ( #62 ) ) ;
#2 = AXIS2_PLACEMENT_3D ( 'NONE', #5, #4, #9 ) ;
#3 = CIRCLE ( 'NONE', #2, 4.250000000000000000 ) ;
#4 = DIRECTION ( 'NONE',  ( 0.0000000000000000000, 0.0000000000000000000, -1.000000000000000000 ) ) ;
#5 = CARTESIAN_POINT ( 'NONE',  ( 0.0000000000000000000, -5.000000000000000000, 0.0000000000000000000 ) ) ;
#6 = CC_DESIGN_PERSON_AND_ORGANIZATION_ASSIGNMENT ( #10, #8, ( #161 ) ) ;
#7 = DATE_TIME_ROLE ( 'creation_date' ) ;
#8 = PERSON_AND_ORGANIZATION_ROLE ( 'design_owner' ) ;
#9 = DIRECTION ( 'NONE',  ( -1.000000000000000000, 0.0000000000000000000, 0.0000000000000000000 ) ) ;
#10 = PERSON_AND_ORGANIZATION ( #160, #159 ) ;
#11 = VERTEX_POINT ( 'NONE', #73 ) ;
#12 = ORIENTED_EDGE ( 'NONE', *, *, #22, .F. ) ;
#13 = ORIENTED_EDGE ( 'NONE', *, *, #106, .T. ) ;
#14 = EDGE_LOOP ( 'NONE', ( #12, #24, #114, #23 ) ) ;
#15 = EDGE_CURVE ( 'NONE', #109, #16, #70, .T. ) ;
#16 = VERTEX_POINT ( 'NONE', #87 ) ;
#17 = VERTEX_POINT ( 'NONE', #71 ) ;
#18 = VERTEX_POINT ( 'NONE', #66 ) ;
#19 = VERTEX_POINT ( 'NONE', #80 ) ;
#20 = ADVANCED_FACE ( 'NONE', ( #64 ), #139, .F. ) ;
#21 = EDGE_CURVE ( 'NONE', #17, #18, #58, .T. ) ;
#22 = EDGE_CURVE ( 'NONE', #17, #112, #3, .T. ) ;
#23 = ORIENTED_EDGE ( 'NONE', *, *, #124, .F. ) ;
#24 = ORIENTED_EDGE ( 'NONE', *, *, #21, .T. ) ;
#25 = EDGE_CURVE ( 'NONE', #18, #27, #304, .T. ) ;
#26 = EDGE_LOOP ( 'NONE', ( #34, #33, #98, #37 ) ) ;
#27 = VERTEX_POINT ( 'NONE', #308 ) ;
#28 = ORIENTED_EDGE ( 'NONE', *, *, #123, .F. ) ;
#29 = EDGE_CURVE ( 'NONE', #111, #16, #165, .T. ) ;
#30 = VERTEX_POINT ( 'NONE', #273 ) ;
#31 = VERTEX_POINT ( 'NONE', #166 ) ;
#32 = ADVANCED_FACE ( 'NONE', ( #312 ), #335, .T. ) ;
#33 = ORIENTED_EDGE ( 'NONE', *, *, #35, .T. ) ;
#34 = ORIENTED_EDGE ( 'NONE', *, *, #38, .T. ) ;
#35 = EDGE_CURVE ( 'NONE', #31, #119, #274, .T. ) ;
#36 = EDGE_CURVE ( 'NONE', #30, #11, #290, .T. ) ;
#37 = ORIENTED_EDGE ( 'NONE', *, *, #36, .F. ) ;
#38 = EDGE_CURVE ( 'NONE', #30, #31, #310, .T. ) ;
#39 = ORIENTED_EDGE ( 'NONE', *, *, #82, .T. ) ;
#40 = ORIENTED_EDGE ( 'NONE', *, *, #29, .T. ) ;
#41 = CC_DESIGN_PERSON_AND_ORGANIZATION_ASSIGNMENT ( #43, #42, ( #62 ) ) ;
#42 = PERSON_AND_ORGANIZATION_ROLE ( 'creator' ) ;
#43 = PERSON_AND_ORGANIZATION ( #160, #159 ) ;
#44 = CC_DESIGN_APPROVAL ( #56, ( #62 ) ) ;
#45 = CLOSED_SHELL ( 'NONE', ( #113, #20, #127, #32, #99, #81, #132, #136, #147, #156, #88 ) ) ;
#46 = DIRECTION ( 'NONE',  ( -1.000000000000000000, 0.0000000000000000000, 0.0000000000000000000 ) ) ;
#47 = DIRECTION ( 'NONE',  ( -0.0000000000000000000, -0.0000000000000000000, -1.000000000000000000 ) ) ;
#48 = APPROVAL_DATE_TIME ( #49, #56 ) ;
#49 = DATE_AND_TIME ( #50, #51 ) ;
#50 = CALENDAR_DATE ( 2010, 26, 4 ) ;
#51 = LOCAL_TIME ( 12, 38, 49.00000000000000000, #52 ) ;
#52 = COORDINATED_UNIVERSAL_TIME_OFFSET ( 5, 0, .BEHIND. ) ;
#53 = APPROVAL_PERSON_ORGANIZATION ( #61, #56, #55 ) ;
#54 = VECTOR ( 'NONE', #63, 1000.000000000000000 ) ;
#55 = APPROVAL_ROLE ( '' ) ;
#56 = APPROVAL ( #79, 'UNSPECIFIED' ) ;
#57 = APPLICATION_CONTEXT ( 'configuration controlled 3d designs of mechanical parts and assemblies' ) ;
#58 = LINE ( 'NONE', #60, #54 ) ;
#59 = APPLICATION_PROTOCOL_DEFINITION ( 'international standard', 'config_control_design', 1994, #57 ) ;
#60 = CARTESIAN_POINT ( 'NONE',  ( 4.250000000000000000, -4.999999999999999100, 0.0000000000000000000 ) ) ;
#61 = PERSON_AND_ORGANIZATION ( #160, #159 ) ;
#62 = PRODUCT_DEFINITION ( 'UNKNOWN', '', #342, #65 ) ;
#63 = DIRECTION ( 'NONE',  ( -0.0000000000000000000, -0.0000000000000000000, -1.000000000000000000 ) ) ;
#64 = FACE_OUTER_BOUND ( 'NONE', #14, .T. ) ;
#65 = DESIGN_CONTEXT ( 'detailed design', #57, 'design' ) ;
#66 = CARTESIAN_POINT ( 'NONE',  ( 4.250000000000000000, -4.999999999999999100, -4.999999999999999100 ) ) ;
#67 = DIRECTION ( 'NONE',  ( 0.0000000000000000000, 0.0000000000000000000, -1.000000000000000000 ) ) ;
#68 = VECTOR ( 'NONE', #67, 1000.000000000000000 ) ;
#69 = CARTESIAN_POINT ( 'NONE',  ( -6.750000000000000000, -5.000000000000000000, -4.999999999999999100 ) ) ;
#70 = LINE ( 'NONE', #69, #68 ) ;
#71 = CARTESIAN_POINT ( 'NONE',  ( 4.250000000000000000, -4.999999999999999100, 0.0000000000000000000 ) ) ;
#72 = CARTESIAN_POINT ( 'NONE',  ( 0.0000000000000000000, -5.000000000000000000, 0.0000000000000000000 ) ) ;
#73 = CARTESIAN_POINT ( 'NONE',  ( 16.00000000000000000, 0.0000000000000000000, -3.000000000000000000 ) ) ;
#74 = DATE_AND_TIME ( #75, #76 ) ;
#75 = CALENDAR_DATE ( 2010, 26, 4 ) ;
#76 = LOCAL_TIME ( 12, 38, 49.00000000000000000, #77 ) ;
#77 = COORDINATED_UNIVERSAL_TIME_OFFSET ( 5, 0, .BEHIND. ) ;
#78 = MANIFOLD_SOLID_BREP ( 'Cbore', #45 ) ;
#79 = APPROVAL_STATUS ( 'not_yet_approved' ) ;
#80 = CARTESIAN_POINT ( 'NONE',  ( 14.26794919243111600, 1.853377354763274100E-015, 0.0000000000000000000 ) ) ;
#81 = ADVANCED_FACE ( 'NONE', ( #185 ), #313, .T. ) ;
#82 = EDGE_CURVE ( 'NONE', #16, #111, #285, .T. ) ;
#83 = EDGE_LOOP ( 'NONE', ( #145, #152, #89, #90 ) ) ;
#84 = ORIENTED_EDGE ( 'NONE', *, *, #91, .T. ) ;
#85 = EDGE_LOOP ( 'NONE', ( #138, #137 ) ) ;
#86 = ORIENTED_EDGE ( 'NONE', *, *, #151, .F. ) ;
#87 = CARTESIAN_POINT ( 'NONE',  ( -6.750000000000000000, -5.000000000000000000, -13.00000000000000000 ) ) ;
#88 = ADVANCED_FACE ( 'NONE', ( #276 ), #281, .F. ) ;
#89 = ORIENTED_EDGE ( 'NONE', *, *, #15, .T. ) ;
#90 = ORIENTED_EDGE ( 'NONE', *, *, #29, .F. ) ;
#91 = EDGE_CURVE ( 'NONE', #119, #11, #299, .T. ) ;
#92 = ORIENTED_EDGE ( 'NONE', *, *, #131, .F. ) ;
#93 = ORIENTED_EDGE ( 'NONE', *, *, #158, .F. ) ;
#94 = EDGE_LOOP ( 'NONE', ( #95, #153 ) ) ;
#95 = ORIENTED_EDGE ( 'NONE', *, *, #108, .F. ) ;
#96 = ORIENTED_EDGE ( 'NONE', *, *, #131, .T. ) ;
#97 = ORIENTED_EDGE ( 'NONE', *, *, #118, .T. ) ;
#98 = ORIENTED_EDGE ( 'NONE', *, *, #121, .F. ) ;
#99 = ADVANCED_FACE ( 'NONE', ( #238, #291 ), #233, .F. ) ;
#100 = EDGE_CURVE ( 'NONE', #31, #30, #231, .T. ) ;
#101 = ORIENTED_EDGE ( 'NONE', *, *, #38, .F. ) ;
#102 = EDGE_LOOP ( 'NONE', ( #144, #146, #134, #140 ) ) ;
#103 = ORIENTED_EDGE ( 'NONE', *, *, #100, .F. ) ;
#104 = EDGE_LOOP ( 'NONE', ( #117, #13, #107, #115 ) ) ;
#105 = AXIS2_PLACEMENT_3D ( 'NONE', #72, #47, #46 ) ;
#106 = EDGE_CURVE ( 'NONE', #110, #111, #278, .T. ) ;
#107 = ORIENTED_EDGE ( 'NONE', *, *, #82, .F. ) ;
#108 = EDGE_CURVE ( 'NONE', #109, #110, #232, .T. ) ;
#109 = VERTEX_POINT ( 'NONE', #211 ) ;
#110 = VERTEX_POINT ( 'NONE', #219 ) ;
#111 = VERTEX_POINT ( 'NONE', #218 ) ;
#112 = VERTEX_POINT ( 'NONE', #226 ) ;
#113 = ADVANCED_FACE ( 'NONE', ( #268 ), #234, .F. ) ;
#114 = ORIENTED_EDGE ( 'NONE', *, *, #25, .T. ) ;
#115 = ORIENTED_EDGE ( 'NONE', *, *, #15, .F. ) ;
#116 = ORIENTED_EDGE ( 'NONE', *, *, #118, .F. ) ;
#117 = ORIENTED_EDGE ( 'NONE', *, *, #108, .T. ) ;
#118 = EDGE_CURVE ( 'NONE', #19, #128, #264, .T. ) ;
#119 = VERTEX_POINT ( 'NONE', #267 ) ;
#120 = ORIENTED_EDGE ( 'NONE', *, *, #121, .T. ) ;
#121 = EDGE_CURVE ( 'NONE', #11, #119, #265, .T. ) ;
#122 = EDGE_LOOP ( 'NONE', ( #101, #103 ) ) ;
#123 = EDGE_CURVE ( 'NONE', #128, #119, #260, .T. ) ;
#124 = EDGE_CURVE ( 'NONE', #112, #27, #249, .T. ) ;
#125 = EDGE_LOOP ( 'NONE', ( #116, #129, #120, #28 ) ) ;
#126 = EDGE_LOOP ( 'NONE', ( #39, #40 ) ) ;
#127 = ADVANCED_FACE ( 'NONE', ( #258 ), #223, .T. ) ;
#128 = VERTEX_POINT ( 'NONE', #269 ) ;
#129 = ORIENTED_EDGE ( 'NONE', *, *, #130, .T. ) ;
#130 = EDGE_CURVE ( 'NONE', #19, #11, #253, .T. ) ;
#131 = EDGE_CURVE ( 'NONE', #128, #19, #241, .T. ) ;
#132 = ADVANCED_FACE ( 'NONE', ( #199 ), #243, .T. ) ;
#133 = ORIENTED_EDGE ( 'NONE', *, *, #130, .F. ) ;
#134 = ORIENTED_EDGE ( 'NONE', *, *, #36, .T. ) ;
#135 = EDGE_LOOP ( 'NONE', ( #133, #92, #141, #84 ) ) ;
#136 = ADVANCED_FACE ( 'NONE', ( #194, #192 ), #205, .T. ) ;
#137 = ORIENTED_EDGE ( 'NONE', *, *, #22, .T. ) ;
#138 = ORIENTED_EDGE ( 'NONE', *, *, #158, .T. ) ;
#139 = CYLINDRICAL_SURFACE ( 'NONE', #105, 4.250000000000000000 ) ;
#140 = ORIENTED_EDGE ( 'NONE', *, *, #91, .F. ) ;
#141 = ORIENTED_EDGE ( 'NONE', *, *, #123, .T. ) ;
#142 = EDGE_LOOP ( 'NONE', ( #149, #93, #148, #150 ) ) ;
#143 = EDGE_LOOP ( 'NONE', ( #96, #97 ) ) ;
#144 = ORIENTED_EDGE ( 'NONE', *, *, #35, .F. ) ;
#145 = ORIENTED_EDGE ( 'NONE', *, *, #106, .F. ) ;
#146 = ORIENTED_EDGE ( 'NONE', *, *, #100, .T. ) ;
#147 = ADVANCED_FACE ( 'NONE', ( #191 ), #332, .F. ) ;
#148 = ORIENTED_EDGE ( 'NONE', *, *, #124, .T. ) ;
#149 = ORIENTED_EDGE ( 'NONE', *, *, #21, .F. ) ;
#150 = ORIENTED_EDGE ( 'NONE', *, *, #151, .T. ) ;
#151 = EDGE_CURVE ( 'NONE', #27, #18, #328, .T. ) ;
#152 = ORIENTED_EDGE ( 'NONE', *, *, #154, .T. ) ;
#153 = ORIENTED_EDGE ( 'NONE', *, *, #154, .F. ) ;
#154 = EDGE_CURVE ( 'NONE', #110, #109, #321, .T. ) ;
#155 = EDGE_LOOP ( 'NONE', ( #86, #157 ) ) ;
#156 = ADVANCED_FACE ( 'NONE', ( #316, #323 ), #329, .F. ) ;
#157 = ORIENTED_EDGE ( 'NONE', *, *, #25, .F. ) ;
#158 = EDGE_CURVE ( 'NONE', #112, #17, #179, .T. ) ;
#159 = ORGANIZATION ( 'UNSPECIFIED', 'UNSPECIFIED', '' ) ;
#160 = PERSON ( 'UNSPECIFIED', 'UNSPECIFIED', 'UNSPECIFIED', ('UNSPECIFIED'), ('UNSPECIFIED'), ('UNSPECIFIED') ) ;
#161 = PRODUCT ( '629-204', '629-204', '', ( #162 ) ) ;
#162 = MECHANICAL_CONTEXT ( 'NONE', #296, 'mechanical' ) ;
#163 = APPLICATION_PROTOCOL_DEFINITION ( 'international standard', 'config_control_design', 1994, #296 ) ;
#164 = AXIS2_PLACEMENT_3D ( 'NONE', #307, #272, #271 ) ;
#165 = CIRCLE ( 'NONE', #164, 6.750000000000000000 ) ;
#166 = CARTESIAN_POINT ( 'NONE',  ( -16.00000000000000000, 1.959434878635764700E-015, -13.00000000000000000 ) ) ;
#167 = DIRECTION ( 'NONE',  ( 1.000000000000000000, 0.0000000000000000000, 0.0000000000000000000 ) ) ;
#168 = DIRECTION ( 'NONE',  ( -0.0000000000000000000, -0.0000000000000000000, -1.000000000000000000 ) ) ;
#169 = AXIS2_PLACEMENT_3D ( 'NONE', #306, #168, #167 ) ;
#170 = ADVANCED_BREP_SHAPE_REPRESENTATION ( '629-204', ( #78, #295 ), #171 ) ;
#171 =( GEOMETRIC_REPRESENTATION_CONTEXT ( 3 ) GLOBAL_UNCERTAINTY_ASSIGNED_CONTEXT ( ( #172 ) ) GLOBAL_UNIT_ASSIGNED_CONTEXT ( ( #175, #174, #173 ) ) REPRESENTATION_CONTEXT ( 'NONE', 'WORKASPACE' ) );
#172 = UNCERTAINTY_MEASURE_WITH_UNIT (LENGTH_MEASURE( 1.000000000000000100E-005 ), #175, 'distance_accuracy_value', 'NONE');
#173 =( NAMED_UNIT ( * ) SI_UNIT ( $, .STERADIAN. ) SOLID_ANGLE_UNIT ( ) );
#174 =( NAMED_UNIT ( * ) PLANE_ANGLE_UNIT ( ) SI_UNIT ( $, .RADIAN. ) );
#175 =( LENGTH_UNIT ( ) NAMED_UNIT ( * ) SI_UNIT ( .MILLI., .METRE. ) );
#176 = DIRECTION ( 'NONE',  ( -1.000000000000000000, 0.0000000000000000000, 0.0000000000000000000 ) ) ;
#177 = DIRECTION ( 'NONE',  ( 0.0000000000000000000, 0.0000000000000000000, -1.000000000000000000 ) ) ;
#178 = AXIS2_PLACEMENT_3D ( 'NONE', #322, #177, #176 ) ;
#179 = CIRCLE ( 'NONE', #178, 4.250000000000000000 ) ;
#180 = DIRECTION ( 'NONE',  ( 1.000000000000000000, 0.0000000000000000000, -0.0000000000000000000 ) ) ;
#181 = DIRECTION ( 'NONE',  ( 0.0000000000000000000, 0.0000000000000000000, 1.000000000000000000 ) ) ;
#182 = CARTESIAN_POINT ( 'NONE',  ( 0.0000000000000000000, -5.000000000000000000, -4.999999999999999100 ) ) ;
#183 = AXIS2_PLACEMENT_3D ( 'NONE', #182, #181, #180 ) ;
#184 = VECTOR ( 'NONE', #292, 1000.000000000000000 ) ;
#185 = FACE_OUTER_BOUND ( 'NONE', #102, .T. ) ;
#186 = DIRECTION ( 'NONE',  ( 1.000000000000000000, 0.0000000000000000000, 0.0000000000000000000 ) ) ;
#187 = DIRECTION ( 'NONE',  ( 0.0000000000000000000, 0.0000000000000000000, 1.000000000000000000 ) ) ;
#188 = CARTESIAN_POINT ( 'NONE',  ( 0.0000000000000000000, 0.0000000000000000000, -13.00000000000000000 ) ) ;
#189 = AXIS2_PLACEMENT_3D ( 'NONE', #188, #187, #186 ) ;
#190 = AXIS2_PLACEMENT_3D ( 'NONE', #193, #195, #197 ) ;
#191 = FACE_OUTER_BOUND ( 'NONE', #142, .T. ) ;
#192 = FACE_OUTER_BOUND ( 'NONE', #143, .T. ) ;
#193 = CARTESIAN_POINT ( 'NONE',  ( 0.0000000000000000000, 0.0000000000000000000, 0.0000000000000000000 ) ) ;
#194 = FACE_BOUND ( 'NONE', #85, .T. ) ;
#195 = DIRECTION ( 'NONE',  ( 0.0000000000000000000, 0.0000000000000000000, 1.000000000000000000 ) ) ;
#196 = DIRECTION ( 'NONE',  ( 1.000000000000000000, 0.0000000000000000000, 0.0000000000000000000 ) ) ;
#197 = DIRECTION ( 'NONE',  ( 1.000000000000000000, 0.0000000000000000000, -0.0000000000000000000 ) ) ;
#198 = DIRECTION ( 'NONE',  ( 0.0000000000000000000, 0.0000000000000000000, -1.000000000000000000 ) ) ;
#199 = FACE_OUTER_BOUND ( 'NONE', #135, .T. ) ;
#200 = CARTESIAN_POINT ( 'NONE',  ( 0.0000000000000000000, 0.0000000000000000000, 0.0000000000000000000 ) ) ;
#201 = AXIS2_PLACEMENT_3D ( 'NONE', #200, #198, #210 ) ;
#202 = DIRECTION ( 'NONE',  ( 0.5000000000000014400, 6.123233995736784500E-017, -0.8660254037844379300 ) ) ;
#203 = VECTOR ( 'NONE', #202, 999.9999999999998900 ) ;
#204 = CARTESIAN_POINT ( 'NONE',  ( 14.26794919243111600, 1.747319830890782900E-015, 0.0000000000000000000 ) ) ;
#205 = PLANE ( 'NONE',  #190 ) ;
#206 = DIRECTION ( 'NONE',  ( -0.0000000000000000000, -0.0000000000000000000, 1.000000000000000000 ) ) ;
#207 = DIRECTION ( 'NONE',  ( -1.000000000000000000, 0.0000000000000000000, 0.0000000000000000000 ) ) ;
#208 = DIRECTION ( 'NONE',  ( 0.0000000000000000000, 0.0000000000000000000, -1.000000000000000000 ) ) ;
#209 = CARTESIAN_POINT ( 'NONE',  ( 0.0000000000000000000, 0.0000000000000000000, 0.0000000000000000000 ) ) ;
#210 = DIRECTION ( 'NONE',  ( -1.000000000000000000, 0.0000000000000000000, 0.0000000000000000000 ) ) ;
#211 = CARTESIAN_POINT ( 'NONE',  ( -6.750000000000000000, -5.000000000000000000, -4.999999999999999100 ) ) ;
#212 = DIRECTION ( 'NONE',  ( -1.000000000000000000, 0.0000000000000000000, 0.0000000000000000000 ) ) ;
#213 = DIRECTION ( 'NONE',  ( 0.0000000000000000000, 0.0000000000000000000, -1.000000000000000000 ) ) ;
#214 = DIRECTION ( 'NONE',  ( 1.000000000000000000, 0.0000000000000000000, 0.0000000000000000000 ) ) ;
#215 = DIRECTION ( 'NONE',  ( 0.0000000000000000000, 0.0000000000000000000, 1.000000000000000000 ) ) ;
#216 = CARTESIAN_POINT ( 'NONE',  ( 0.0000000000000000000, -5.000000000000000000, -4.999999999999999100 ) ) ;
#217 = AXIS2_PLACEMENT_3D ( 'NONE', #220, #213, #212 ) ;
#218 = CARTESIAN_POINT ( 'NONE',  ( 6.750000000000000000, -4.999999999999999100, -13.00000000000000000 ) ) ;
#219 = CARTESIAN_POINT ( 'NONE',  ( 6.750000000000000000, -4.999999999999999100, -4.999999999999999100 ) ) ;
#220 = CARTESIAN_POINT ( 'NONE',  ( 0.0000000000000000000, -5.000000000000000000, -4.999999999999999100 ) ) ;
#221 = DIRECTION ( 'NONE',  ( 0.0000000000000000000, 0.0000000000000000000, -1.000000000000000000 ) ) ;
#222 = VECTOR ( 'NONE', #221, 1000.000000000000000 ) ;
#223 = CONICAL_SURFACE ( 'NONE', #250, 14.26794919243111600, 0.5235987755983005900 ) ;
#224 = DIRECTION ( 'NONE',  ( 1.000000000000000000, 0.0000000000000000000, 0.0000000000000000000 ) ) ;
#225 = DIRECTION ( 'NONE',  ( 0.0000000000000000000, 0.0000000000000000000, 1.000000000000000000 ) ) ;
#226 = CARTESIAN_POINT ( 'NONE',  ( -4.250000000000000000, -5.000000000000000000, 0.0000000000000000000 ) ) ;
#227 = DIRECTION ( 'NONE',  ( 1.000000000000000000, 0.0000000000000000000, -0.0000000000000000000 ) ) ;
#228 = DIRECTION ( 'NONE',  ( 0.0000000000000000000, 0.0000000000000000000, 1.000000000000000000 ) ) ;
#229 = CARTESIAN_POINT ( 'NONE',  ( 0.0000000000000000000, 0.0000000000000000000, -13.00000000000000000 ) ) ;
#230 = AXIS2_PLACEMENT_3D ( 'NONE', #229, #225, #224 ) ;
#231 = CIRCLE ( 'NONE', #230, 16.00000000000000000 ) ;
#232 = CIRCLE ( 'NONE', #239, 6.750000000000000000 ) ;
#233 = PLANE ( 'NONE',  #240 ) ;
#234 = CYLINDRICAL_SURFACE ( 'NONE', #217, 6.750000000000000000 ) ;
#235 = DIRECTION ( 'NONE',  ( 1.000000000000000000, 0.0000000000000000000, 0.0000000000000000000 ) ) ;
#236 = AXIS2_PLACEMENT_3D ( 'NONE', #298, #284, #235 ) ;
#237 = CARTESIAN_POINT ( 'NONE',  ( 0.0000000000000000000, 0.0000000000000000000, -13.00000000000000000 ) ) ;
#238 = FACE_OUTER_BOUND ( 'NONE', #122, .T. ) ;
#239 = AXIS2_PLACEMENT_3D ( 'NONE', #216, #215, #214 ) ;
#240 = AXIS2_PLACEMENT_3D ( 'NONE', #237, #228, #227 ) ;
#241 = CIRCLE ( 'NONE', #270, 14.26794919243111600 ) ;
#242 = CARTESIAN_POINT ( 'NONE',  ( 0.0000000000000000000, 0.0000000000000000000, 0.0000000000000000000 ) ) ;
#243 = CONICAL_SURFACE ( 'NONE', #201, 14.26794919243111600, 0.5235987755983005900 ) ;
#244 = DIRECTION ( 'NONE',  ( -0.0000000000000000000, -0.0000000000000000000, -1.000000000000000000 ) ) ;
#245 = VECTOR ( 'NONE', #244, 1000.000000000000000 ) ;
#246 = CARTESIAN_POINT ( 'NONE',  ( -4.250000000000000000, -5.000000000000000000, 0.0000000000000000000 ) ) ;
#247 = CARTESIAN_POINT ( 'NONE',  ( 0.0000000000000000000, -5.000000000000000000, 0.0000000000000000000 ) ) ;
#248 = AXIS2_PLACEMENT_3D ( 'NONE', #247, #331, #330 ) ;
#249 = LINE ( 'NONE', #246, #245 ) ;
#250 = AXIS2_PLACEMENT_3D ( 'NONE', #209, #208, #207 ) ;
#251 = DIRECTION ( 'NONE',  ( -0.5000000000000014400, 0.0000000000000000000, -0.8660254037844379300 ) ) ;
#252 = VECTOR ( 'NONE', #251, 999.9999999999998900 ) ;
#253 = LINE ( 'NONE', #204, #203 ) ;
#254 = DIRECTION ( 'NONE',  ( 1.000000000000000000, 0.0000000000000000000, 0.0000000000000000000 ) ) ;
#255 = DIRECTION ( 'NONE',  ( -0.0000000000000000000, -0.0000000000000000000, 1.000000000000000000 ) ) ;
#256 = CARTESIAN_POINT ( 'NONE',  ( 0.0000000000000000000, 0.0000000000000000000, -3.000000000000000000 ) ) ;
#257 = AXIS2_PLACEMENT_3D ( 'NONE', #256, #255, #254 ) ;
#258 = FACE_OUTER_BOUND ( 'NONE', #125, .T. ) ;
#259 = CARTESIAN_POINT ( 'NONE',  ( -14.26794919243111600, 0.0000000000000000000, 0.0000000000000000000 ) ) ;
#260 = LINE ( 'NONE', #259, #252 ) ;
#261 = DIRECTION ( 'NONE',  ( 1.000000000000000000, 0.0000000000000000000, 0.0000000000000000000 ) ) ;
#262 = DIRECTION ( 'NONE',  ( -0.0000000000000000000, -0.0000000000000000000, 1.000000000000000000 ) ) ;
#263 = AXIS2_PLACEMENT_3D ( 'NONE', #266, #262, #261 ) ;
#264 = CIRCLE ( 'NONE', #263, 14.26794919243111600 ) ;
#265 = CIRCLE ( 'NONE', #257, 16.00000000000000000 ) ;
#266 = CARTESIAN_POINT ( 'NONE',  ( 0.0000000000000000000, 0.0000000000000000000, 0.0000000000000000000 ) ) ;
#267 = CARTESIAN_POINT ( 'NONE',  ( -16.00000000000000000, 1.959434878635764700E-015, -3.000000000000000000 ) ) ;
#268 = FACE_OUTER_BOUND ( 'NONE', #104, .T. ) ;
#269 = CARTESIAN_POINT ( 'NONE',  ( -14.26794919243111600, 0.0000000000000000000, 0.0000000000000000000 ) ) ;
#270 = AXIS2_PLACEMENT_3D ( 'NONE', #242, #206, #196 ) ;
#271 = DIRECTION ( 'NONE',  ( 1.000000000000000000, 0.0000000000000000000, 0.0000000000000000000 ) ) ;
#272 = DIRECTION ( 'NONE',  ( 0.0000000000000000000, 0.0000000000000000000, 1.000000000000000000 ) ) ;
#273 = CARTESIAN_POINT ( 'NONE',  ( 16.00000000000000000, 0.0000000000000000000, -13.00000000000000000 ) ) ;
#274 = LINE ( 'NONE', #314, #184 ) ;
#275 = DIRECTION ( 'NONE',  ( -1.000000000000000000, 0.0000000000000000000, 0.0000000000000000000 ) ) ;
#276 = FACE_OUTER_BOUND ( 'NONE', #83, .T. ) ;
#277 = CARTESIAN_POINT ( 'NONE',  ( 6.750000000000000000, -4.999999999999999100, -4.999999999999999100 ) ) ;
#278 = LINE ( 'NONE', #277, #222 ) ;
#279 = DIRECTION ( 'NONE',  ( 1.000000000000000000, 0.0000000000000000000, 0.0000000000000000000 ) ) ;
#280 = DIRECTION ( 'NONE',  ( 0.0000000000000000000, 0.0000000000000000000, 1.000000000000000000 ) ) ;
#281 = CYLINDRICAL_SURFACE ( 'NONE', #300, 6.750000000000000000 ) ;
#282 = DIRECTION ( 'NONE',  ( 1.000000000000000000, 0.0000000000000000000, 0.0000000000000000000 ) ) ;
#283 = DIRECTION ( 'NONE',  ( 0.0000000000000000000, 0.0000000000000000000, 1.000000000000000000 ) ) ;
#284 = DIRECTION ( 'NONE',  ( -0.0000000000000000000, -0.0000000000000000000, 1.000000000000000000 ) ) ;
#285 = CIRCLE ( 'NONE', #303, 6.750000000000000000 ) ;
#286 = CARTESIAN_POINT ( 'NONE',  ( 0.0000000000000000000, 0.0000000000000000000, -13.00000000000000000 ) ) ;
#287 = DIRECTION ( 'NONE',  ( 0.0000000000000000000, 0.0000000000000000000, 1.000000000000000000 ) ) ;
#288 = VECTOR ( 'NONE', #287, 1000.000000000000000 ) ;
#289 = CARTESIAN_POINT ( 'NONE',  ( 16.00000000000000000, 0.0000000000000000000, -13.00000000000000000 ) ) ;
#290 = LINE ( 'NONE', #289, #288 ) ;
#291 = FACE_BOUND ( 'NONE', #126, .T. ) ;
#292 = DIRECTION ( 'NONE',  ( 0.0000000000000000000, 0.0000000000000000000, 1.000000000000000000 ) ) ;
#293 = DIRECTION ( 'NONE',  ( 1.000000000000000000, 0.0000000000000000000, 0.0000000000000000000 ) ) ;
#294 = DIRECTION ( 'NONE',  ( 0.0000000000000000000, 0.0000000000000000000, 1.000000000000000000 ) ) ;
#295 = AXIS2_PLACEMENT_3D ( 'NONE', #315, #294, #293 ) ;
#296 = APPLICATION_CONTEXT ( 'configuration controlled 3d designs of mechanical parts and assemblies' ) ;
#297 = DIRECTION ( 'NONE',  ( 0.0000000000000000000, 0.0000000000000000000, -1.000000000000000000 ) ) ;
#298 = CARTESIAN_POINT ( 'NONE',  ( 0.0000000000000000000, 0.0000000000000000000, -3.000000000000000000 ) ) ;
#299 = CIRCLE ( 'NONE', #236, 16.00000000000000000 ) ;
#300 = AXIS2_PLACEMENT_3D ( 'NONE', #334, #297, #275 ) ;
#301 = DIRECTION ( 'NONE',  ( 1.000000000000000000, 0.0000000000000000000, 0.0000000000000000000 ) ) ;
#302 = DIRECTION ( 'NONE',  ( 0.0000000000000000000, 0.0000000000000000000, 1.000000000000000000 ) ) ;
#303 = AXIS2_PLACEMENT_3D ( 'NONE', #333, #302, #301 ) ;
#304 = CIRCLE ( 'NONE', #169, 4.250000000000000000 ) ;
#305 = CARTESIAN_POINT ( 'NONE',  ( 0.0000000000000000000, 0.0000000000000000000, -13.00000000000000000 ) ) ;
#306 = CARTESIAN_POINT ( 'NONE',  ( 0.0000000000000000000, -5.000000000000000000, -4.999999999999999100 ) ) ;
#307 = CARTESIAN_POINT ( 'NONE',  ( 0.0000000000000000000, -5.000000000000000000, -13.00000000000000000 ) ) ;
#308 = CARTESIAN_POINT ( 'NONE',  ( -4.250000000000000000, -5.000000000000000000, -4.999999999999999100 ) ) ;
#309 = AXIS2_PLACEMENT_3D ( 'NONE', #305, #283, #282 ) ;
#310 = CIRCLE ( 'NONE', #309, 16.00000000000000000 ) ;
#311 = AXIS2_PLACEMENT_3D ( 'NONE', #286, #280, #279 ) ;
#312 = FACE_OUTER_BOUND ( 'NONE', #26, .T. ) ;
#313 = CYLINDRICAL_SURFACE ( 'NONE', #311, 16.00000000000000000 ) ;
#314 = CARTESIAN_POINT ( 'NONE',  ( -16.00000000000000000, 1.959434878635764700E-015, -13.00000000000000000 ) ) ;
#315 = CARTESIAN_POINT ( 'NONE',  ( 0.0000000000000000000, 0.0000000000000000000, 0.0000000000000000000 ) ) ;
#316 = FACE_OUTER_BOUND ( 'NONE', #94, .T. ) ;
#317 = DIRECTION ( 'NONE',  ( 1.000000000000000000, 0.0000000000000000000, 0.0000000000000000000 ) ) ;
#318 = DIRECTION ( 'NONE',  ( 0.0000000000000000000, 0.0000000000000000000, 1.000000000000000000 ) ) ;
#319 = CARTESIAN_POINT ( 'NONE',  ( 0.0000000000000000000, -5.000000000000000000, -4.999999999999999100 ) ) ;
#320 = AXIS2_PLACEMENT_3D ( 'NONE', #319, #318, #317 ) ;
#321 = CIRCLE ( 'NONE', #320, 6.750000000000000000 ) ;
#322 = CARTESIAN_POINT ( 'NONE',  ( 0.0000000000000000000, -5.000000000000000000, 0.0000000000000000000 ) ) ;
#323 = FACE_BOUND ( 'NONE', #155, .T. ) ;
#324 = DIRECTION ( 'NONE',  ( 1.000000000000000000, 0.0000000000000000000, 0.0000000000000000000 ) ) ;
#325 = DIRECTION ( 'NONE',  ( -0.0000000000000000000, -0.0000000000000000000, -1.000000000000000000 ) ) ;
#326 = CARTESIAN_POINT ( 'NONE',  ( 0.0000000000000000000, -5.000000000000000000, -4.999999999999999100 ) ) ;
#327 = AXIS2_PLACEMENT_3D ( 'NONE', #326, #325, #324 ) ;
#328 = CIRCLE ( 'NONE', #327, 4.250000000000000000 ) ;
#329 = PLANE ( 'NONE',  #183 ) ;
#330 = DIRECTION ( 'NONE',  ( -1.000000000000000000, 0.0000000000000000000, 0.0000000000000000000 ) ) ;
#331 = DIRECTION ( 'NONE',  ( -0.0000000000000000000, -0.0000000000000000000, -1.000000000000000000 ) ) ;
#332 = CYLINDRICAL_SURFACE ( 'NONE', #248, 4.250000000000000000 ) ;
#333 = CARTESIAN_POINT ( 'NONE',  ( 0.0000000000000000000, -5.000000000000000000, -13.00000000000000000 ) ) ;
#334 = CARTESIAN_POINT ( 'NONE',  ( 0.0000000000000000000, -5.000000000000000000, -4.999999999999999100 ) ) ;
#335 = CYLINDRICAL_SURFACE ( 'NONE', #189, 16.00000000000000000 ) ;
#336 = SHAPE_DEFINITION_REPRESENTATION ( #337, #170 ) ;
#337 = PRODUCT_DEFINITION_SHAPE ( 'NONE', 'NONE',  #62 ) ;
#338 = APPROVAL_PERSON_ORGANIZATION ( #379, #340, #339 ) ;
#339 = APPROVAL_ROLE ( '' ) ;
#340 = APPROVAL ( #341, 'UNSPECIFIED' ) ;
#341 = APPROVAL_STATUS ( 'not_yet_approved' ) ;
#342 = PRODUCT_DEFINITION_FORMATION_WITH_SPECIFIED_SOURCE ( 'ANY', '', #161, .NOT_KNOWN. ) ;
#343 = PRODUCT_RELATED_PRODUCT_CATEGORY ( 'detail', '', ( #161 ) ) ;
#344 = CC_DESIGN_SECURITY_CLASSIFICATION ( #365, ( #342 ) ) ;
#345 = CC_DESIGN_APPROVAL ( #353, ( #365 ) ) ;
#346 = APPROVAL_DATE_TIME ( #347, #353 ) ;
#347 = DATE_AND_TIME ( #348, #349 ) ;
#348 = CALENDAR_DATE ( 2010, 26, 4 ) ;
#349 = LOCAL_TIME ( 12, 38, 49.00000000000000000, #350 ) ;
#350 = COORDINATED_UNIVERSAL_TIME_OFFSET ( 5, 0, .BEHIND. ) ;
#351 = APPROVAL_PERSON_ORGANIZATION ( #355, #353, #352 ) ;
#352 = APPROVAL_ROLE ( '' ) ;
#353 = APPROVAL ( #354, 'UNSPECIFIED' ) ;
#354 = APPROVAL_STATUS ( 'not_yet_approved' ) ;
#355 = PERSON_AND_ORGANIZATION ( #160, #159 ) ;
#356 = CC_DESIGN_DATE_AND_TIME_ASSIGNMENT ( #358, #357, ( #365 ) ) ;
#357 = DATE_TIME_ROLE ( 'classification_date' ) ;
#358 = DATE_AND_TIME ( #359, #360 ) ;
#359 = CALENDAR_DATE ( 2010, 26, 4 ) ;
#360 = LOCAL_TIME ( 12, 38, 49.00000000000000000, #361 ) ;
#361 = COORDINATED_UNIVERSAL_TIME_OFFSET ( 5, 0, .BEHIND. ) ;
#362 = CC_DESIGN_PERSON_AND_ORGANIZATION_ASSIGNMENT ( #364, #363, ( #365 ) ) ;
#363 = PERSON_AND_ORGANIZATION_ROLE ( 'classification_officer' ) ;
#364 = PERSON_AND_ORGANIZATION ( #160, #159 ) ;
#365 = SECURITY_CLASSIFICATION ( '', '', #366 ) ;
#366 = SECURITY_CLASSIFICATION_LEVEL ( 'unclassified' ) ;
#367 = CC_DESIGN_PERSON_AND_ORGANIZATION_ASSIGNMENT ( #369, #368, ( #342 ) ) ;
#368 = PERSON_AND_ORGANIZATION_ROLE ( 'design_supplier' ) ;
#369 = PERSON_AND_ORGANIZATION ( #160, #159 ) ;
#370 = CC_DESIGN_PERSON_AND_ORGANIZATION_ASSIGNMENT ( #372, #371, ( #342 ) ) ;
#371 = PERSON_AND_ORGANIZATION_ROLE ( 'creator' ) ;
#372 = PERSON_AND_ORGANIZATION ( #160, #159 ) ;
#373 = CC_DESIGN_APPROVAL ( #340, ( #342 ) ) ;
#374 = APPROVAL_DATE_TIME ( #375, #340 ) ;
#375 = DATE_AND_TIME ( #376, #377 ) ;
#376 = CALENDAR_DATE ( 2010, 26, 4 ) ;
#377 = LOCAL_TIME ( 12, 38, 49.00000000000000000, #378 ) ;
#378 = COORDINATED_UNIVERSAL_TIME_OFFSET ( 5, 0, .BEHIND. ) ;
#379 = PERSON_AND_ORGANIZATION ( #160, #159 ) ;
ENDSEC;
END-ISO-10303-21;
