ISO-10303-21;
HEADER;
FILE_DESCRIPTION (( 'STEP AP203' ),
    '1' );
FILE_NAME ('WDS-629-202.step',
    '2012-04-05T13:24:15',
    ( 'SysAdmin' ),
    ( 'SolidWorks' ),
    'SwSTEP 2.0',
    'SolidWorks 2012',
    '' );
FILE_SCHEMA (( 'CONFIG_CONTROL_DESIGN' ));
ENDSEC;

DATA;
#1 = ORIENTED_EDGE ( 'NONE', *, *, #379, .F. ) ;
#2 = ORIENTED_EDGE ( 'NONE', *, *, #369, .T. ) ;
#3 = ORIENTED_EDGE ( 'NONE', *, *, #370, .T. ) ;
#4 = ORIENTED_EDGE ( 'NONE', *, *, #378, .T. ) ;
#5 = ORIENTED_EDGE ( 'NONE', *, *, #377, .T. ) ;
#6 = ORIENTED_EDGE ( 'NONE', *, *, #365, .F. ) ;
#7 = ORIENTED_EDGE ( 'NONE', *, *, #373, .F. ) ;
#8 = ORIENTED_EDGE ( 'NONE', *, *, #317, .F. ) ;
#9 = VERTEX_POINT ( 'NONE', #116 ) ;
#10 = ORIENTED_EDGE ( 'NONE', *, *, #356, .T. ) ;
#11 = EDGE_LOOP ( 'NONE', ( #7, #72, #50, #19 ) ) ;
#12 = EDGE_LOOP ( 'NONE', ( #1, #4, #3, #38 ) ) ;
#13 = EDGE_LOOP ( 'NONE', ( #55, #49 ) ) ;
#14 = ORIENTED_EDGE ( 'NONE', *, *, #318, .T. ) ;
#15 = ORIENTED_EDGE ( 'NONE', *, *, #368, .F. ) ;
#16 = ORIENTED_EDGE ( 'NONE', *, *, #371, .T. ) ;
#17 = ORIENTED_EDGE ( 'NONE', *, *, #366, .F. ) ;
#18 = ORIENTED_EDGE ( 'NONE', *, *, #377, .F. ) ;
#19 = ORIENTED_EDGE ( 'NONE', *, *, #361, .F. ) ;
#20 = VERTEX_POINT ( 'NONE', #117 ) ;
#21 = VERTEX_POINT ( 'NONE', #118 ) ;
#22 = VERTEX_POINT ( 'NONE', #120 ) ;
#23 = VERTEX_POINT ( 'NONE', #119 ) ;
#24 = VERTEX_POINT ( 'NONE', #122 ) ;
#25 = EDGE_LOOP ( 'NONE', ( #43, #44, #73, #56 ) ) ;
#26 = CARTESIAN_POINT ( 'NONE',  ( 0.0000000000000000000, -2.500000000000000000, 0.0000000000000000000 ) ) ;
#27 = VERTEX_POINT ( 'NONE', #123 ) ;
#28 = DIRECTION ( 'NONE',  ( 0.0000000000000000000, 0.0000000000000000000, 1.000000000000000000 ) ) ;
#29 = CARTESIAN_POINT ( 'NONE',  ( 0.0000000000000000000, 0.0000000000000000000, -13.00000000000000000 ) ) ;
#30 = DIRECTION ( 'NONE',  ( 1.000000000000000000, 0.0000000000000000000, -0.0000000000000000000 ) ) ;
#31 = DIRECTION ( 'NONE',  ( 0.0000000000000000000, 0.0000000000000000000, 1.000000000000000000 ) ) ;
#32 = CARTESIAN_POINT ( 'NONE',  ( 0.0000000000000000000, -2.500000000000000000, -6.500000000000000000 ) ) ;
#33 = PLANE ( 'NONE',  #184 ) ;
#34 = DIRECTION ( 'NONE',  ( 1.000000000000000000, 0.0000000000000000000, 0.0000000000000000000 ) ) ;
#35 = DIRECTION ( 'NONE',  ( 0.0000000000000000000, 0.0000000000000000000, 1.000000000000000000 ) ) ;
#36 = DIRECTION ( 'NONE',  ( -0.5000000000000014400, 0.0000000000000000000, -0.8660254037844379300 ) ) ;
#37 = CARTESIAN_POINT ( 'NONE',  ( -7.767949192431116100, 0.0000000000000000000, 0.0000000000000000000 ) ) ;
#38 = ORIENTED_EDGE ( 'NONE', *, *, #356, .F. ) ;
#39 = ORIENTED_EDGE ( 'NONE', *, *, #315, .F. ) ;
#40 = ORIENTED_EDGE ( 'NONE', *, *, #316, .T. ) ;
#41 = ORIENTED_EDGE ( 'NONE', *, *, #378, .F. ) ;
#42 = ORIENTED_EDGE ( 'NONE', *, *, #369, .F. ) ;
#43 = ORIENTED_EDGE ( 'NONE', *, *, #362, .T. ) ;
#44 = ORIENTED_EDGE ( 'NONE', *, *, #366, .T. ) ;
#45 = ORIENTED_EDGE ( 'NONE', *, *, #318, .F. ) ;
#46 = ORIENTED_EDGE ( 'NONE', *, *, #373, .T. ) ;
#47 = ORIENTED_EDGE ( 'NONE', *, *, #368, .T. ) ;
#48 = ORIENTED_EDGE ( 'NONE', *, *, #374, .F. ) ;
#49 = ORIENTED_EDGE ( 'NONE', *, *, #316, .F. ) ;
#50 = ORIENTED_EDGE ( 'NONE', *, *, #367, .T. ) ;
#51 = ORIENTED_EDGE ( 'NONE', *, *, #372, .F. ) ;
#52 = ORIENTED_EDGE ( 'NONE', *, *, #371, .F. ) ;
#53 = ORIENTED_EDGE ( 'NONE', *, *, #365, .T. ) ;
#54 = ORIENTED_EDGE ( 'NONE', *, *, #360, .T. ) ;
#55 = ORIENTED_EDGE ( 'NONE', *, *, #362, .F. ) ;
#56 = ORIENTED_EDGE ( 'NONE', *, *, #360, .F. ) ;
#57 = DIRECTION ( 'NONE',  ( 0.0000000000000000000, 0.0000000000000000000, -1.000000000000000000 ) ) ;
#58 = ORIENTED_EDGE ( 'NONE', *, *, #315, .T. ) ;
#59 = DIRECTION ( 'NONE',  ( -1.000000000000000000, 0.0000000000000000000, 0.0000000000000000000 ) ) ;
#60 = PLANE ( 'NONE',  #167 ) ;
#61 = DIRECTION ( 'NONE',  ( 0.0000000000000000000, 0.0000000000000000000, -1.000000000000000000 ) ) ;
#62 = DIRECTION ( 'NONE',  ( -1.000000000000000000, 0.0000000000000000000, 0.0000000000000000000 ) ) ;
#63 = CARTESIAN_POINT ( 'NONE',  ( 0.0000000000000000000, -2.500000000000000000, -6.500000000000000000 ) ) ;
#64 = LINE ( 'NONE', #65, #162 ) ;
#65 = CARTESIAN_POINT ( 'NONE',  ( 3.399999999999999900, -2.499999999999999600, 0.0000000000000000000 ) ) ;
#66 = DIRECTION ( 'NONE',  ( -0.0000000000000000000, -0.0000000000000000000, -1.000000000000000000 ) ) ;
#67 = VERTEX_POINT ( 'NONE', #121 ) ;
#68 = DIRECTION ( 'NONE',  ( 1.000000000000000000, 0.0000000000000000000, 0.0000000000000000000 ) ) ;
#69 = CARTESIAN_POINT ( 'NONE',  ( 0.0000000000000000000, 0.0000000000000000000, 0.0000000000000000000 ) ) ;
#70 = ORIENTED_EDGE ( 'NONE', *, *, #361, .T. ) ;
#71 = VERTEX_POINT ( 'NONE', #115 ) ;
#72 = ORIENTED_EDGE ( 'NONE', *, *, #372, .T. ) ;
#73 = ORIENTED_EDGE ( 'NONE', *, *, #367, .F. ) ;
#74 = EDGE_LOOP ( 'NONE', ( #6, #14, #108, #15 ) ) ;
#75 = EDGE_LOOP ( 'NONE', ( #2, #130, #8, #78 ) ) ;
#76 = ORIENTED_EDGE ( 'NONE', *, *, #374, .T. ) ;
#77 = ORIENTED_EDGE ( 'NONE', *, *, #317, .T. ) ;
#78 = ORIENTED_EDGE ( 'NONE', *, *, #370, .F. ) ;
#79 = CARTESIAN_POINT ( 'NONE',  ( 0.0000000000000000000, 0.0000000000000000000, -13.00000000000000000 ) ) ;
#80 = DIRECTION ( 'NONE',  ( 1.000000000000000000, 0.0000000000000000000, -0.0000000000000000000 ) ) ;
#81 = DIRECTION ( 'NONE',  ( 0.0000000000000000000, 0.0000000000000000000, 1.000000000000000000 ) ) ;
#82 = CARTESIAN_POINT ( 'NONE',  ( 0.0000000000000000000, 0.0000000000000000000, -13.00000000000000000 ) ) ;
#83 = CARTESIAN_POINT ( 'NONE',  ( 0.0000000000000000000, -2.500000000000000000, -13.00000000000000000 ) ) ;
#84 = DIRECTION ( 'NONE',  ( 0.0000000000000000000, 0.0000000000000000000, 1.000000000000000000 ) ) ;
#85 = CARTESIAN_POINT ( 'NONE',  ( 0.0000000000000000000, 0.0000000000000000000, 0.0000000000000000000 ) ) ;
#86 = DIRECTION ( 'NONE',  ( 0.0000000000000000000, 0.0000000000000000000, 1.000000000000000000 ) ) ;
#87 = DIRECTION ( 'NONE',  ( 1.000000000000000000, 0.0000000000000000000, -0.0000000000000000000 ) ) ;
#88 = DIRECTION ( 'NONE',  ( 1.000000000000000000, 0.0000000000000000000, 0.0000000000000000000 ) ) ;
#89 = PLANE ( 'NONE',  #177 ) ;
#90 = DIRECTION ( 'NONE',  ( 0.0000000000000000000, 0.0000000000000000000, 1.000000000000000000 ) ) ;
#91 = CARTESIAN_POINT ( 'NONE',  ( 0.0000000000000000000, -2.500000000000000000, -6.500000000000000000 ) ) ;
#92 = DIRECTION ( 'NONE',  ( 1.000000000000000000, 0.0000000000000000000, 0.0000000000000000000 ) ) ;
#93 = CARTESIAN_POINT ( 'NONE',  ( 0.0000000000000000000, -2.500000000000000000, 0.0000000000000000000 ) ) ;
#94 = DIRECTION ( 'NONE',  ( -1.000000000000000000, 0.0000000000000000000, 0.0000000000000000000 ) ) ;
#95 = DIRECTION ( 'NONE',  ( 0.0000000000000000000, 0.0000000000000000000, -1.000000000000000000 ) ) ;
#96 = DIRECTION ( 'NONE',  ( -0.0000000000000000000, -0.0000000000000000000, -1.000000000000000000 ) ) ;
#97 = ORIENTED_EDGE ( 'NONE', *, *, #314, .F. ) ;
#98 = DIRECTION ( 'NONE',  ( -1.000000000000000000, 0.0000000000000000000, 0.0000000000000000000 ) ) ;
#99 = CARTESIAN_POINT ( 'NONE',  ( 9.500000000000000000, 0.0000000000000000000, -13.00000000000000000 ) ) ;
#100 = CARTESIAN_POINT ( 'NONE',  ( 0.0000000000000000000, 0.0000000000000000000, -13.00000000000000000 ) ) ;
#101 = LINE ( 'NONE', #37, #208 ) ;
#102 = CARTESIAN_POINT ( 'NONE',  ( 0.0000000000000000000, 0.0000000000000000000, 0.0000000000000000000 ) ) ;
#103 = LINE ( 'NONE', #99, #165 ) ;
#104 = DIRECTION ( 'NONE',  ( 0.0000000000000000000, 0.0000000000000000000, 1.000000000000000000 ) ) ;
#105 = DIRECTION ( 'NONE',  ( -1.000000000000000000, 0.0000000000000000000, 0.0000000000000000000 ) ) ;
#106 = DIRECTION ( 'NONE',  ( 0.0000000000000000000, 0.0000000000000000000, -1.000000000000000000 ) ) ;
#107 = DIRECTION ( 'NONE',  ( 1.000000000000000000, 0.0000000000000000000, 0.0000000000000000000 ) ) ;
#108 = ORIENTED_EDGE ( 'NONE', *, *, #314, .T. ) ;
#109 = EDGE_LOOP ( 'NONE', ( #39, #97 ) ) ;
#110 = VERTEX_POINT ( 'NONE', #140 ) ;
#111 = VERTEX_POINT ( 'NONE', #143 ) ;
#112 = EDGE_LOOP ( 'NONE', ( #76, #53 ) ) ;
#113 = VERTEX_POINT ( 'NONE', #139 ) ;
#114 = VERTEX_POINT ( 'NONE', #138 ) ;
#115 = CARTESIAN_POINT ( 'NONE',  ( 3.399999999999999900, -2.499999999999999600, 0.0000000000000000000 ) ) ;
#116 = CARTESIAN_POINT ( 'NONE',  ( -7.767949192431116100, 0.0000000000000000000, 0.0000000000000000000 ) ) ;
#117 = CARTESIAN_POINT ( 'NONE',  ( -3.399999999999999900, -2.500000000000000000, 0.0000000000000000000 ) ) ;
#118 = CARTESIAN_POINT ( 'NONE',  ( 5.250000000000000000, -2.499999999999999600, -6.500000000000000000 ) ) ;
#119 = CARTESIAN_POINT ( 'NONE',  ( 9.500000000000000000, 0.0000000000000000000, -13.00000000000000000 ) ) ;
#120 = CARTESIAN_POINT ( 'NONE',  ( 9.500000000000000000, 0.0000000000000000000, -3.000000000000000000 ) ) ;
#121 = CARTESIAN_POINT ( 'NONE',  ( -5.250000000000000000, -2.500000000000000000, -13.00000000000000000 ) ) ;
#122 = CARTESIAN_POINT ( 'NONE',  ( -9.500000000000000000, 1.163414459189985300E-015, -13.00000000000000000 ) ) ;
#123 = CARTESIAN_POINT ( 'NONE',  ( 3.399999999999999900, -2.499999999999999600, -6.500000000000000000 ) ) ;
#124 = EDGE_LOOP ( 'NONE', ( #51, #18, #70, #16 ) ) ;
#125 = EDGE_LOOP ( 'NONE', ( #17, #40, #54, #52 ) ) ;
#126 = DIRECTION ( 'NONE',  ( 1.000000000000000000, 0.0000000000000000000, 0.0000000000000000000 ) ) ;
#127 = EDGE_LOOP ( 'NONE', ( #5, #46 ) ) ;
#128 = EDGE_LOOP ( 'NONE', ( #42, #41 ) ) ;
#129 = VERTEX_POINT ( 'NONE', #142 ) ;
#130 = ORIENTED_EDGE ( 'NONE', *, *, #379, .T. ) ;
#131 = CARTESIAN_POINT ( 'NONE',  ( 0.0000000000000000000, -2.500000000000000000, -13.00000000000000000 ) ) ;
#132 = DIRECTION ( 'NONE',  ( 0.0000000000000000000, 0.0000000000000000000, 1.000000000000000000 ) ) ;
#133 = DIRECTION ( 'NONE',  ( -0.0000000000000000000, -0.0000000000000000000, -1.000000000000000000 ) ) ;
#134 = DIRECTION ( 'NONE',  ( 0.0000000000000000000, 0.0000000000000000000, 1.000000000000000000 ) ) ;
#135 = CARTESIAN_POINT ( 'NONE',  ( 0.0000000000000000000, 0.0000000000000000000, -13.00000000000000000 ) ) ;
#136 = DIRECTION ( 'NONE',  ( 1.000000000000000000, 0.0000000000000000000, 0.0000000000000000000 ) ) ;
#137 = DIRECTION ( 'NONE',  ( 1.000000000000000000, 0.0000000000000000000, 0.0000000000000000000 ) ) ;
#138 = CARTESIAN_POINT ( 'NONE',  ( 7.767949192431116100, 1.057356935317494500E-015, 0.0000000000000000000 ) ) ;
#139 = CARTESIAN_POINT ( 'NONE',  ( 5.250000000000000000, -2.499999999999999600, -13.00000000000000000 ) ) ;
#140 = CARTESIAN_POINT ( 'NONE',  ( -3.399999999999999900, -2.500000000000000000, -6.500000000000000000 ) ) ;
#141 = CARTESIAN_POINT ( 'NONE',  ( 0.0000000000000000000, -2.500000000000000000, -6.500000000000000000 ) ) ;
#142 = CARTESIAN_POINT ( 'NONE',  ( -9.500000000000000000, 1.163414459189985300E-015, -3.000000000000000000 ) ) ;
#143 = CARTESIAN_POINT ( 'NONE',  ( -5.250000000000000000, -2.500000000000000000, -6.500000000000000000 ) ) ;
#144 = DIRECTION ( 'NONE',  ( -0.0000000000000000000, -0.0000000000000000000, -1.000000000000000000 ) ) ;
#145 = CARTESIAN_POINT ( 'NONE',  ( 0.0000000000000000000, -2.500000000000000000, -6.500000000000000000 ) ) ;
#146 = EDGE_LOOP ( 'NONE', ( #45, #48, #47, #58 ) ) ;
#147 = EDGE_LOOP ( 'NONE', ( #77, #10 ) ) ;
#148 = DIRECTION ( 'NONE',  ( 0.0000000000000000000, 0.0000000000000000000, -1.000000000000000000 ) ) ;
#149 = AXIS2_PLACEMENT_3D ( 'NONE', #100, #35, #34 ) ;
#150 = AXIS2_PLACEMENT_3D ( 'NONE', #145, #144, #137 ) ;
#151 = AXIS2_PLACEMENT_3D ( 'NONE', #82, #84, #88 ) ;
#152 = FACE_OUTER_BOUND ( 'NONE', #25, .T. ) ;
#153 = CALENDAR_DATE ( 2012, 5, 4 ) ;
#154 = VECTOR ( 'NONE', #310, 999.9999999999998900 ) ;
#155 = AXIS2_PLACEMENT_3D ( 'NONE', #141, #133, #136 ) ;
#156 = FACE_OUTER_BOUND ( 'NONE', #146, .T. ) ;
#157 = COORDINATED_UNIVERSAL_TIME_OFFSET ( 5, 0, .BEHIND. ) ;
#158 = APPROVAL_PERSON_ORGANIZATION ( #241, #333, #270 ) ;
#159 = AXIS2_PLACEMENT_3D ( 'NONE', #309, #258, #280 ) ;
#160 = AXIS2_PLACEMENT_3D ( 'NONE', #308, #259, #282 ) ;
#161 = FACE_OUTER_BOUND ( 'NONE', #11, .T. ) ;
#162 = VECTOR ( 'NONE', #66, 1000.000000000000000 ) ;
#163 = CC_DESIGN_APPROVAL ( #328, ( #217 ) ) ;
#164 = VECTOR ( 'NONE', #289, 1000.000000000000000 ) ;
#165 = VECTOR ( 'NONE', #104, 1000.000000000000000 ) ;
#166 = FACE_OUTER_BOUND ( 'NONE', #13, .T. ) ;
#167 = AXIS2_PLACEMENT_3D ( 'NONE', #79, #81, #80 ) ;
#168 = CALENDAR_DATE ( 2012, 5, 4 ) ;
#169 = COORDINATED_UNIVERSAL_TIME_OFFSET ( 5, 0, .BEHIND. ) ;
#170 = CALENDAR_DATE ( 2012, 5, 4 ) ;
#171 = FACE_OUTER_BOUND ( 'NONE', #75, .T. ) ;
#172 = AXIS2_PLACEMENT_3D ( 'NONE', #93, #96, #98 ) ;
#173 = CYLINDRICAL_SURFACE ( 'NONE', #172, 3.399999999999999900 ) ;
#174 = AXIS2_PLACEMENT_3D ( 'NONE', #69, #61, #62 ) ;
#175 = COORDINATED_UNIVERSAL_TIME_OFFSET ( 5, 0, .BEHIND. ) ;
#176 = CC_DESIGN_APPROVAL ( #321, ( #203 ) ) ;
#177 = AXIS2_PLACEMENT_3D ( 'NONE', #85, #86, #87 ) ;
#178 = COORDINATED_UNIVERSAL_TIME_OFFSET ( 5, 0, .BEHIND. ) ;
#179 = FACE_OUTER_BOUND ( 'NONE', #127, .T. ) ;
#180 = CALENDAR_DATE ( 2012, 5, 4 ) ;
#181 = AXIS2_PLACEMENT_3D ( 'NONE', #306, #260, #278 ) ;
#182 = AXIS2_PLACEMENT_3D ( 'NONE', #29, #28, #107 ) ;
#183 = CYLINDRICAL_SURFACE ( 'NONE', #215, 5.250000000000000000 ) ;
#184 = AXIS2_PLACEMENT_3D ( 'NONE', #32, #31, #30 ) ;
#185 = AXIS2_PLACEMENT_3D ( 'NONE', #283, #298, #297 ) ;
#186 = AXIS2_PLACEMENT_3D ( 'NONE', #296, #293, #291 ) ;
#187 = AXIS2_PLACEMENT_3D ( 'NONE', #131, #132, #68 ) ;
#188 = APPROVAL_PERSON_ORGANIZATION ( #264, #321, #244 ) ;
#189 = APPROVAL_PERSON_ORGANIZATION ( #240, #328, #267 ) ;
#190 = VECTOR ( 'NONE', #304, 1000.000000000000000 ) ;
#191 = VECTOR ( 'NONE', #294, 1000.000000000000000 ) ;
#192 = CLOSED_SHELL ( 'NONE', ( #352, #375, #351, #354, #353, #364, #359, #355, #358, #363, #357 ) ) ;
#193 = AXIS2_PLACEMENT_3D ( 'NONE', #305, #257, #277 ) ;
#194 = AXIS2_PLACEMENT_3D ( 'NONE', #290, #286, #285 ) ;
#195 = FACE_OUTER_BOUND ( 'NONE', #128, .T. ) ;
#196 = AXIS2_PLACEMENT_3D ( 'NONE', #253, #274, #243 ) ;
#197 = CALENDAR_DATE ( 2012, 5, 4 ) ;
#198 = FACE_BOUND ( 'NONE', #112, .T. ) ;
#199 = ORGANIZATION ( 'UNSPECIFIED', 'UNSPECIFIED', '' ) ;
#200 = VECTOR ( 'NONE', #300, 1000.000000000000000 ) ;
#201 = COORDINATED_UNIVERSAL_TIME_OFFSET ( 5, 0, .BEHIND. ) ;
#202 = AXIS2_PLACEMENT_3D ( 'NONE', #83, #90, #92 ) ;
#203 = SECURITY_CLASSIFICATION ( '', '', #234 ) ;
#204 = CC_DESIGN_APPROVAL ( #333, ( #334 ) ) ;
#205 = FACE_OUTER_BOUND ( 'NONE', #12, .T. ) ;
#206 = AXIS2_PLACEMENT_3D ( 'NONE', #102, #106, #105 ) ;
#207 = FACE_OUTER_BOUND ( 'NONE', #124, .T. ) ;
#208 = VECTOR ( 'NONE', #36, 999.9999999999998900 ) ;
#209 = FACE_BOUND ( 'NONE', #147, .T. ) ;
#210 = CC_DESIGN_SECURITY_CLASSIFICATION ( #203, ( #217 ) ) ;
#211 = CYLINDRICAL_SURFACE ( 'NONE', #151, 9.500000000000000000 ) ;
#212 = AXIS2_PLACEMENT_3D ( 'NONE', #135, #134, #126 ) ;
#213 = CYLINDRICAL_SURFACE ( 'NONE', #159, 3.399999999999999900 ) ;
#214 = FACE_BOUND ( 'NONE', #109, .T. ) ;
#215 = AXIS2_PLACEMENT_3D ( 'NONE', #91, #95, #94 ) ;
#216 = CYLINDRICAL_SURFACE ( 'NONE', #222, 5.250000000000000000 ) ;
#217 = PRODUCT_DEFINITION_FORMATION_WITH_SPECIFIED_SOURCE ( 'ANY', '', #230, .NOT_KNOWN. ) ;
#218 = FACE_OUTER_BOUND ( 'NONE', #125, .T. ) ;
#219 = AXIS2_PLACEMENT_3D ( 'NONE', #307, #261, #279 ) ;
#220 = AXIS2_PLACEMENT_3D ( 'NONE', #26, #148, #284 ) ;
#221 = FACE_OUTER_BOUND ( 'NONE', #74, .T. ) ;
#222 = AXIS2_PLACEMENT_3D ( 'NONE', #63, #57, #59 ) ;
#223 = CYLINDRICAL_SURFACE ( 'NONE', #182, 9.500000000000000000 ) ;
#224 = APPLICATION_CONTEXT ( 'configuration controlled 3d designs of mechanical parts and assemblies' ) ;
#225 = APPLICATION_CONTEXT ( 'configuration controlled 3d designs of mechanical parts and assemblies' ) ;
#226 =( GEOMETRIC_REPRESENTATION_CONTEXT ( 3 ) GLOBAL_UNCERTAINTY_ASSIGNED_CONTEXT ( ( #311 ) ) GLOBAL_UNIT_ASSIGNED_CONTEXT ( ( #303, #302, #301 ) ) REPRESENTATION_CONTEXT ( 'NONE', 'WORKASPACE' ) );
#227 = MANIFOLD_SOLID_BREP ( 'Cbore', #192 ) ;
#228 = DESIGN_CONTEXT ( 'detailed design', #225, 'design' ) ;
#229 = PRODUCT_DEFINITION_SHAPE ( 'NONE', 'NONE',  #334 ) ;
#230 = PRODUCT ( 'WDS-629-202', 'WDS-629-202', '', ( #273 ) ) ;
#231 = LINE ( 'NONE', #299, #200 ) ;
#232 = APPROVAL_DATE_TIME ( #263, #321 ) ;
#233 = APPROVAL_STATUS ( 'not_yet_approved' ) ;
#234 = SECURITY_CLASSIFICATION_LEVEL ( 'unclassified' ) ;
#235 = PERSON_AND_ORGANIZATION_ROLE ( 'creator' ) ;
#236 = DATE_AND_TIME ( #153, #323 ) ;
#237 = DATE_AND_TIME ( #197, #327 ) ;
#238 = PERSON_AND_ORGANIZATION_ROLE ( 'creator' ) ;
#239 = DATE_AND_TIME ( #170, #332 ) ;
#240 = PERSON_AND_ORGANIZATION ( #313, #199 ) ;
#241 = PERSON_AND_ORGANIZATION ( #313, #199 ) ;
#242 = PERSON_AND_ORGANIZATION ( #313, #199 ) ;
#243 = DIRECTION ( 'NONE',  ( 1.000000000000000000, 0.0000000000000000000, 0.0000000000000000000 ) ) ;
#244 = APPROVAL_ROLE ( '' ) ;
#245 = DATE_TIME_ROLE ( 'classification_date' ) ;
#246 = PERSON_AND_ORGANIZATION ( #313, #199 ) ;
#247 = APPROVAL_STATUS ( 'not_yet_approved' ) ;
#248 = PERSON_AND_ORGANIZATION ( #313, #199 ) ;
#249 = DATE_AND_TIME ( #168, #330 ) ;
#250 = APPROVAL_DATE_TIME ( #237, #328 ) ;
#251 = APPROVAL_STATUS ( 'not_yet_approved' ) ;
#252 = APPROVAL_DATE_TIME ( #239, #333 ) ;
#253 = CARTESIAN_POINT ( 'NONE',  ( 0.0000000000000000000, 0.0000000000000000000, 0.0000000000000000000 ) ) ;
#254 = PERSON_AND_ORGANIZATION_ROLE ( 'design_owner' ) ;
#255 = SHAPE_DEFINITION_REPRESENTATION ( #229, #312 ) ;
#256 = LINE ( 'NONE', #276, #190 ) ;
#257 = DIRECTION ( 'NONE',  ( 0.0000000000000000000, 0.0000000000000000000, 1.000000000000000000 ) ) ;
#258 = DIRECTION ( 'NONE',  ( -0.0000000000000000000, -0.0000000000000000000, -1.000000000000000000 ) ) ;
#259 = DIRECTION ( 'NONE',  ( -0.0000000000000000000, -0.0000000000000000000, 1.000000000000000000 ) ) ;
#260 = DIRECTION ( 'NONE',  ( -0.0000000000000000000, -0.0000000000000000000, 1.000000000000000000 ) ) ;
#261 = DIRECTION ( 'NONE',  ( 0.0000000000000000000, 0.0000000000000000000, -1.000000000000000000 ) ) ;
#262 = LINE ( 'NONE', #281, #154 ) ;
#263 = DATE_AND_TIME ( #180, #320 ) ;
#264 = PERSON_AND_ORGANIZATION ( #313, #199 ) ;
#265 = PERSON_AND_ORGANIZATION_ROLE ( 'classification_officer' ) ;
#266 = PERSON_AND_ORGANIZATION_ROLE ( 'design_supplier' ) ;
#267 = APPROVAL_ROLE ( '' ) ;
#268 = PERSON_AND_ORGANIZATION ( #313, #199 ) ;
#269 = PERSON_AND_ORGANIZATION ( #313, #199 ) ;
#270 = APPROVAL_ROLE ( '' ) ;
#271 = DATE_TIME_ROLE ( 'creation_date' ) ;
#272 = APPLICATION_PROTOCOL_DEFINITION ( 'international standard', 'config_control_design', 1994, #225 ) ;
#273 = MECHANICAL_CONTEXT ( 'NONE', #224, 'mechanical' ) ;
#274 = DIRECTION ( 'NONE',  ( 0.0000000000000000000, 0.0000000000000000000, 1.000000000000000000 ) ) ;
#275 = APPLICATION_PROTOCOL_DEFINITION ( 'international standard', 'config_control_design', 1994, #224 ) ;
#276 = CARTESIAN_POINT ( 'NONE',  ( 5.250000000000000000, -2.499999999999999600, -6.500000000000000000 ) ) ;
#277 = DIRECTION ( 'NONE',  ( 1.000000000000000000, 0.0000000000000000000, 0.0000000000000000000 ) ) ;
#278 = DIRECTION ( 'NONE',  ( 1.000000000000000000, 0.0000000000000000000, 0.0000000000000000000 ) ) ;
#279 = DIRECTION ( 'NONE',  ( -1.000000000000000000, 0.0000000000000000000, 0.0000000000000000000 ) ) ;
#280 = DIRECTION ( 'NONE',  ( -1.000000000000000000, 0.0000000000000000000, 0.0000000000000000000 ) ) ;
#281 = CARTESIAN_POINT ( 'NONE',  ( 7.767949192431116100, 9.512994114450032600E-016, 0.0000000000000000000 ) ) ;
#282 = DIRECTION ( 'NONE',  ( 1.000000000000000000, 0.0000000000000000000, 0.0000000000000000000 ) ) ;
#283 = CARTESIAN_POINT ( 'NONE',  ( 0.0000000000000000000, 0.0000000000000000000, -3.000000000000000000 ) ) ;
#284 = DIRECTION ( 'NONE',  ( -1.000000000000000000, 0.0000000000000000000, 0.0000000000000000000 ) ) ;
#285 = DIRECTION ( 'NONE',  ( 1.000000000000000000, 0.0000000000000000000, 0.0000000000000000000 ) ) ;
#286 = DIRECTION ( 'NONE',  ( -0.0000000000000000000, -0.0000000000000000000, 1.000000000000000000 ) ) ;
#287 = LINE ( 'NONE', #288, #164 ) ;
#288 = CARTESIAN_POINT ( 'NONE',  ( -5.250000000000000000, -2.500000000000000000, -6.500000000000000000 ) ) ;
#289 = DIRECTION ( 'NONE',  ( 0.0000000000000000000, 0.0000000000000000000, -1.000000000000000000 ) ) ;
#290 = CARTESIAN_POINT ( 'NONE',  ( 0.0000000000000000000, 0.0000000000000000000, -3.000000000000000000 ) ) ;
#291 = DIRECTION ( 'NONE',  ( 1.000000000000000000, 0.0000000000000000000, 0.0000000000000000000 ) ) ;
#292 = CARTESIAN_POINT ( 'NONE',  ( -3.399999999999999900, -2.500000000000000000, 0.0000000000000000000 ) ) ;
#293 = DIRECTION ( 'NONE',  ( 0.0000000000000000000, 0.0000000000000000000, 1.000000000000000000 ) ) ;
#294 = DIRECTION ( 'NONE',  ( -0.0000000000000000000, -0.0000000000000000000, -1.000000000000000000 ) ) ;
#295 = LINE ( 'NONE', #292, #191 ) ;
#296 = CARTESIAN_POINT ( 'NONE',  ( 0.0000000000000000000, -2.500000000000000000, -6.500000000000000000 ) ) ;
#297 = DIRECTION ( 'NONE',  ( 1.000000000000000000, 0.0000000000000000000, 0.0000000000000000000 ) ) ;
#298 = DIRECTION ( 'NONE',  ( -0.0000000000000000000, -0.0000000000000000000, 1.000000000000000000 ) ) ;
#299 = CARTESIAN_POINT ( 'NONE',  ( -9.500000000000000000, 1.163414459189985300E-015, -13.00000000000000000 ) ) ;
#300 = DIRECTION ( 'NONE',  ( 0.0000000000000000000, 0.0000000000000000000, 1.000000000000000000 ) ) ;
#301 =( NAMED_UNIT ( * ) SI_UNIT ( $, .STERADIAN. ) SOLID_ANGLE_UNIT ( ) );
#302 =( NAMED_UNIT ( * ) PLANE_ANGLE_UNIT ( ) SI_UNIT ( $, .RADIAN. ) );
#303 =( LENGTH_UNIT ( ) NAMED_UNIT ( * ) SI_UNIT ( .MILLI., .METRE. ) );
#304 = DIRECTION ( 'NONE',  ( 0.0000000000000000000, 0.0000000000000000000, -1.000000000000000000 ) ) ;
#305 = CARTESIAN_POINT ( 'NONE',  ( 0.0000000000000000000, -2.500000000000000000, -6.500000000000000000 ) ) ;
#306 = CARTESIAN_POINT ( 'NONE',  ( 0.0000000000000000000, 0.0000000000000000000, 0.0000000000000000000 ) ) ;
#307 = CARTESIAN_POINT ( 'NONE',  ( 0.0000000000000000000, -2.500000000000000000, 0.0000000000000000000 ) ) ;
#308 = CARTESIAN_POINT ( 'NONE',  ( 0.0000000000000000000, 0.0000000000000000000, 0.0000000000000000000 ) ) ;
#309 = CARTESIAN_POINT ( 'NONE',  ( 0.0000000000000000000, -2.500000000000000000, 0.0000000000000000000 ) ) ;
#310 = DIRECTION ( 'NONE',  ( 0.5000000000000014400, 6.123233995736784500E-017, -0.8660254037844379300 ) ) ;
#311 = UNCERTAINTY_MEASURE_WITH_UNIT (LENGTH_MEASURE( 1.000000000000000100E-005 ), #303, 'distance_accuracy_value', 'NONE');
#312 = ADVANCED_BREP_SHAPE_REPRESENTATION ( 'WDS-629-202', ( #227, #196 ), #226 ) ;
#313 = PERSON ( 'UNSPECIFIED', 'UNSPECIFIED', 'UNSPECIFIED', ('UNSPECIFIED'), ('UNSPECIFIED'), ('UNSPECIFIED') ) ;
#314 = EDGE_CURVE ( 'NONE', #27, #110, #348, .T. ) ;
#315 = EDGE_CURVE ( 'NONE', #110, #27, #376, .T. ) ;
#316 = EDGE_CURVE ( 'NONE', #24, #23, #349, .T. ) ;
#317 = EDGE_CURVE ( 'NONE', #67, #113, #347, .T. ) ;
#318 = EDGE_CURVE ( 'NONE', #71, #27, #64, .T. ) ;
#319 = PRODUCT_RELATED_PRODUCT_CATEGORY ( 'detail', '', ( #230 ) ) ;
#320 = LOCAL_TIME ( 9, 24, 15.00000000000000000, #157 ) ;
#321 = APPROVAL ( #233, 'UNSPECIFIED' ) ;
#322 = CC_DESIGN_DATE_AND_TIME_ASSIGNMENT ( #236, #245, ( #203 ) ) ;
#323 = LOCAL_TIME ( 9, 24, 15.00000000000000000, #178 ) ;
#324 = CC_DESIGN_PERSON_AND_ORGANIZATION_ASSIGNMENT ( #248, #265, ( #203 ) ) ;
#325 = CC_DESIGN_PERSON_AND_ORGANIZATION_ASSIGNMENT ( #246, #266, ( #217 ) ) ;
#326 = CC_DESIGN_PERSON_AND_ORGANIZATION_ASSIGNMENT ( #269, #235, ( #217 ) ) ;
#327 = LOCAL_TIME ( 9, 24, 15.00000000000000000, #169 ) ;
#328 = APPROVAL ( #247, 'UNSPECIFIED' ) ;
#329 = CC_DESIGN_DATE_AND_TIME_ASSIGNMENT ( #249, #271, ( #334 ) ) ;
#330 = LOCAL_TIME ( 9, 24, 15.00000000000000000, #201 ) ;
#331 = CC_DESIGN_PERSON_AND_ORGANIZATION_ASSIGNMENT ( #268, #238, ( #334 ) ) ;
#332 = LOCAL_TIME ( 9, 24, 15.00000000000000000, #175 ) ;
#333 = APPROVAL ( #251, 'UNSPECIFIED' ) ;
#334 = PRODUCT_DEFINITION ( 'UNKNOWN', '', #217, #228 ) ;
#335 = CC_DESIGN_PERSON_AND_ORGANIZATION_ASSIGNMENT ( #242, #254, ( #230 ) ) ;
#336 = CIRCLE ( 'NONE', #181, 7.767949192431116100 ) ;
#337 = CIRCLE ( 'NONE', #193, 5.250000000000000000 ) ;
#338 = CIRCLE ( 'NONE', #219, 3.399999999999999900 ) ;
#339 = CIRCLE ( 'NONE', #160, 7.767949192431116100 ) ;
#340 = CIRCLE ( 'NONE', #194, 9.500000000000000000 ) ;
#341 = CIRCLE ( 'NONE', #186, 5.250000000000000000 ) ;
#342 = CIRCLE ( 'NONE', #185, 9.500000000000000000 ) ;
#343 = CIRCLE ( 'NONE', #220, 3.399999999999999900 ) ;
#344 = CIRCLE ( 'NONE', #149, 9.500000000000000000 ) ;
#345 = CONICAL_SURFACE ( 'NONE', #206, 7.767949192431116100, 0.5235987755983005900 ) ;
#346 = CIRCLE ( 'NONE', #202, 5.250000000000000000 ) ;
#347 = CIRCLE ( 'NONE', #187, 5.250000000000000000 ) ;
#348 = CIRCLE ( 'NONE', #150, 3.399999999999999900 ) ;
#349 = CIRCLE ( 'NONE', #212, 9.500000000000000000 ) ;
#350 = CONICAL_SURFACE ( 'NONE', #174, 7.767949192431116100, 0.5235987755983005900 ) ;
#351 = ADVANCED_FACE ( 'NONE', ( #161 ), #350, .T. ) ;
#352 = ADVANCED_FACE ( 'NONE', ( #171 ), #216, .F. ) ;
#353 = ADVANCED_FACE ( 'NONE', ( #166, #209 ), #60, .F. ) ;
#354 = ADVANCED_FACE ( 'NONE', ( #152 ), #211, .T. ) ;
#355 = ADVANCED_FACE ( 'NONE', ( #198, #179 ), #89, .T. ) ;
#356 = EDGE_CURVE ( 'NONE', #113, #67, #346, .T. ) ;
#357 = ADVANCED_FACE ( 'NONE', ( #205 ), #183, .F. ) ;
#358 = ADVANCED_FACE ( 'NONE', ( #156 ), #173, .F. ) ;
#359 = ADVANCED_FACE ( 'NONE', ( #207 ), #345, .T. ) ;
#360 = EDGE_CURVE ( 'NONE', #23, #22, #103, .T. ) ;
#361 = EDGE_CURVE ( 'NONE', #9, #129, #101, .T. ) ;
#362 = EDGE_CURVE ( 'NONE', #23, #24, #344, .T. ) ;
#363 = ADVANCED_FACE ( 'NONE', ( #195, #214 ), #33, .F. ) ;
#364 = ADVANCED_FACE ( 'NONE', ( #218 ), #223, .T. ) ;
#365 = EDGE_CURVE ( 'NONE', #71, #20, #343, .T. ) ;
#366 = EDGE_CURVE ( 'NONE', #24, #129, #231, .T. ) ;
#367 = EDGE_CURVE ( 'NONE', #22, #129, #342, .T. ) ;
#368 = EDGE_CURVE ( 'NONE', #20, #110, #295, .T. ) ;
#369 = EDGE_CURVE ( 'NONE', #111, #21, #341, .T. ) ;
#370 = EDGE_CURVE ( 'NONE', #111, #67, #287, .T. ) ;
#371 = EDGE_CURVE ( 'NONE', #129, #22, #340, .T. ) ;
#372 = EDGE_CURVE ( 'NONE', #114, #22, #262, .T. ) ;
#373 = EDGE_CURVE ( 'NONE', #114, #9, #339, .T. ) ;
#374 = EDGE_CURVE ( 'NONE', #20, #71, #338, .T. ) ;
#375 = ADVANCED_FACE ( 'NONE', ( #221 ), #213, .F. ) ;
#376 = CIRCLE ( 'NONE', #155, 3.399999999999999900 ) ;
#377 = EDGE_CURVE ( 'NONE', #9, #114, #336, .T. ) ;
#378 = EDGE_CURVE ( 'NONE', #21, #111, #337, .T. ) ;
#379 = EDGE_CURVE ( 'NONE', #21, #113, #256, .T. ) ;
ENDSEC;
END-ISO-10303-21;
